  0
SECTION
  2
HEADER
  9
$ACADVER
  1
AC1009
  9
$INSBASE
 10
0.0
 20
0.0
 30
0.0
  9
$EXTMIN
 10
0.0
 20
-2.960436562073669
 30
0.0
  9
$EXTMAX
 10
335.83762100000001
 20
223.29882499999999
 30
0.0
  9
$LIMMIN
 10
0.0
 20
0.0
  9
$LIMMAX
 10
375.0
 20
270.0
  9
$ORTHOMODE
 70
     1
  9
$REGENMODE
 70
     1
  9
$FILLMODE
 70
     1
  9
$QTEXTMODE
 70
     0
  9
$MIRRTEXT
 70
     0
  9
$DRAGMODE
 70
     2
  9
$LTSCALE
 40
10.0
  9
$OSMODE
 70
  3071
  9
$ATTMODE
 70
     1
  9
$TEXTSIZE
 40
0.2
  9
$TRACEWID
 40
0.05
  9
$TEXTSTYLE
  7
STANDARD
  9
$CLAYER
  8
0
  9
$CELTYPE
  6
BYLAYER
  9
$CECOLOR
 62
   256
  9
$DIMSCALE
 40
1.0
  9
$DIMASZ
 40
3.0
  9
$DIMEXO
 40
2.0
  9
$DIMDLI
 40
0.38
  9
$DIMRND
 40
0.0
  9
$DIMDLE
 40
0.0
  9
$DIMEXE
 40
2.0
  9
$DIMTP
 40
0.0
  9
$DIMTM
 40
0.0
  9
$DIMTXT
 40
3.2000000000000002
  9
$DIMCEN
 40
0.0
  9
$DIMTSZ
 40
0.0
  9
$DIMTOL
 70
     0
  9
$DIMLIM
 70
     0
  9
$DIMTIH
 70
     0
  9
$DIMTOH
 70
     0
  9
$DIMSE1
 70
     0
  9
$DIMSE2
 70
     0
  9
$DIMTAD
 70
     1
  9
$DIMZIN
 70
     0
  9
$DIMBLK
  1

  9
$DIMASO
 70
     0
  9
$DIMSHO
 70
     0
  9
$DIMPOST
  1

  9
$DIMAPOST
  1

  9
$DIMALT
 70
     0
  9
$DIMALTD
 70
     2
  9
$DIMALTF
 40
25.399999999999999
  9
$DIMLFAC
 40
1.0
  9
$DIMTOFL
 70
     1
  9
$DIMTVP
 40
1.6000000000000001
  9
$DIMTIX
 70
     1
  9
$DIMSOXD
 70
     0
  9
$DIMSAH
 70
     0
  9
$DIMBLK1
  1

  9
$DIMBLK2
  1

  9
$DIMSTYLE
  2
STANDARD
  9
$DIMCLRD
 70
     0
  9
$DIMCLRE
 70
     0
  9
$DIMCLRT
 70
     0
  9
$DIMTFAC
 40
1.0
  9
$DIMGAP
 40
0.09
  9
$LUNITS
 70
     2
  9
$LUPREC
 70
     4
  9
$SKETCHINC
 40
0.1
  9
$FILLETRAD
 40
0.0
  9
$AUNITS
 70
     0
  9
$AUPREC
 70
     4
  9
$MENU
  1
E:\r13\win\SUPPORT\ACAD
  9
$ELEVATION
 40
0.0
  9
$PELEVATION
 40
0.0
  9
$THICKNESS
 40
0.0
  9
$LIMCHECK
 70
     0
  9
$BLIPMODE
 70
     0
  9
$CHAMFERA
 40
0.0
  9
$CHAMFERB
 40
0.0
  9
$SKPOLY
 70
     0
  9
$TDCREATE
 40
2449839.778668982
  9
$TDUPDATE
 40
2456598.579685926
  9
$TDINDWG
 40
0.0000944213
  9
$TDUSRTIMER
 40
0.0000944213
  9
$USRTIMER
 70
     1
  9
$ANGBASE
 50
0.0
  9
$ANGDIR
 70
     0
  9
$PDMODE
 70
     0
  9
$PDSIZE
 40
0.0
  9
$PLINEWID
 40
0.0
  9
$COORDS
 70
     1
  9
$SPLFRAME
 70
     0
  9
$SPLINETYPE
 70
     6
  9
$SPLINESEGS
 70
     8
  9
$ATTDIA
 70
     0
  9
$ATTREQ
 70
     1
  9
$HANDLING
 70
     1
  9
$HANDSEED
  5
29E
  9
$SURFTAB1
 70
     6
  9
$SURFTAB2
 70
     6
  9
$SURFTYPE
 70
     6
  9
$SURFU
 70
     6
  9
$SURFV
 70
     6
  9
$UCSNAME
  2

  9
$UCSORG
 10
0.0
 20
0.0
 30
0.0
  9
$UCSXDIR
 10
1.0
 20
0.0
 30
0.0
  9
$UCSYDIR
 10
0.0
 20
1.0
 30
0.0
  9
$PUCSNAME
  2

  9
$PUCSORG
 10
0.0
 20
0.0
 30
0.0
  9
$PUCSXDIR
 10
1.0
 20
0.0
 30
0.0
  9
$PUCSYDIR
 10
0.0
 20
1.0
 30
0.0
  9
$USERI1
 70
     0
  9
$USERI2
 70
     1
  9
$USERI3
 70
     0
  9
$USERI4
 70
     0
  9
$USERI5
 70
     0
  9
$USERR1
 40
0.0
  9
$USERR2
 40
0.0
  9
$USERR3
 40
0.0
  9
$USERR4
 40
0.0
  9
$USERR5
 40
0.0
  9
$WORLDVIEW
 70
     1
  9
$SHADEDGE
 70
     3
  9
$SHADEDIF
 70
    70
  9
$TILEMODE
 70
     1
  9
$MAXACTVP
 70
    16
  9
$PLIMCHECK
 70
     0
  9
$PEXTMIN
 10
1.0000000000000000E+020
 20
1.0000000000000000E+020
 30
1.0000000000000000E+020
  9
$PEXTMAX
 10
-1.0000000000000000E+020
 20
-1.0000000000000000E+020
 30
-1.0000000000000000E+020
  9
$PLIMMIN
 10
0.0
 20
0.0
  9
$PLIMMAX
 10
12.0
 20
9.0
  9
$UNITMODE
 70
     0
  9
$VISRETAIN
 70
     0
  9
$PLINEGEN
 70
     0
  9
$PSLTSCALE
 70
     0
  0
ENDSEC
  0
SECTION
  2
TABLES
  0
TABLE
  2
VPORT
 70
     1
  0
VPORT
  2
*ACTIVE
 70
     0
 10
0.0
 20
0.0
 11
1.0
 21
1.0
 12
195.0581083320873
 22
133.5127261426681
 13
0.0
 23
0.0
 14
10.0
 24
10.0
 15
10.0
 25
10.0
 16
0.0
 26
0.0
 36
1.0
 17
0.0
 27
0.0
 37
0.0
 40
275.42274993631997
 41
1.831871345029239
 42
50.0
 43
0.0
 44
0.0
 50
0.0
 51
0.0
 71
     0
 72
   100
 73
     1
 74
     0
 75
     0
 76
     0
 77
     0
 78
     2
  0
ENDTAB
  0
TABLE
  2
LTYPE
 70
     4
  0
LTYPE
  2
CONTINUOUS
 70
     0
  3
Solid Line
 72
    65
 73
     0
 40
0.0
  0
LTYPE
  2
CENTER
 70
     0
  3
____ _ ____ _ ____ _ ____ _ ____ _ ____ _ ____
 72
    65
 73
     4
 40
2.0
 49
1.25
 49
-0.25
 49
0.25
 49
-0.25
  0
LTYPE
  2
HIDDEN
 70
     0
  3
_ _ _ _ _ _ _ _ _ _ _ _ _ _ _ _ _ _ _ _ _ _ _
 72
    65
 73
     2
 40
0.375
 49
0.25
 49
-0.125
  0
LTYPE
  2
PHANTOM2
 70
     0
  3
___ _ _ ___ _ _ ___ _ _ ___ _ _
 72
    65
 73
     6
 40
1.25
 49
0.625
 49
-0.125
 49
0.125
 49
-0.125
 49
0.125
 49
-0.125
  0
ENDTAB
  0
TABLE
  2
LAYER
 70
     4
  0
LAYER
  2
0
 70
     0
 62
     7
  6
CONTINUOUS
  0
LAYER
  2
1
 70
     0
 62
     1
  6
CENTER
  0
LAYER
  2
2
 70
     0
 62
     2
  6
HIDDEN
  0
LAYER
  2
3
 70
     0
 62
     3
  6
CONTINUOUS
  0
ENDTAB
  0
TABLE
  2
STYLE
 70
     2
  0
STYLE
  2
STANDARD
 70
     0
 40
0.0
 41
1.0
 50
0.0
 71
     0
 42
0.2
  3
ROMANS
  4
EXTFONT
  0
STYLE
  2
STANDARD1
 70
     0
 40
0.0
 41
1.0
 50
0.0
 71
     0
 42
3.0
  3
txt
  4

  0
ENDTAB
  0
TABLE
  2
VIEW
 70
     1
  0
VIEW
  2
ALL
 70
     0
 40
270.0
 10
220.99159700000001
 20
135.0
 41
0.0
 11
0.0
 21
0.0
 31
1.0
 12
0.0
 22
0.0
 32
0.0
 42
0.0
 43
0.0
 44
0.0
 50
0.0
 71
     0
  0
ENDTAB
  0
TABLE
  2
UCS
 70
     0
  0
ENDTAB
  0
TABLE
  2
APPID
 70
     3
  0
APPID
  2
ACAD
 70
     0
  0
APPID
  2
ACAD_MLEADERVER
 70
     0
  0
APPID
  2
ACAD_NAV_VCDISPLAY
 70
     0
  0
ENDTAB
  0
TABLE
  2
DIMSTYLE
 70
     1
  0
DIMSTYLE
  2
STANDARD
 70
     0
  3

  4

  5

  6

  7

 40
1.0
 41
0.18
 42
0.0625
 43
0.38
 44
0.18
 45
0.0
 46
0.0
 47
0.0
 48
0.0
140
0.18
141
0.09
142
0.0
143
25.399999999999999
144
1.0
145
0.0
146
1.0
147
0.09
 71
     0
 72
     0
 73
     1
 74
     1
 75
     0
 76
     0
 77
     0
 78
     0
170
     0
171
     2
172
     0
173
     0
174
     0
175
     0
176
     0
177
     0
178
     0
  0
ENDTAB
  0
ENDSEC
  0
SECTION
  2
BLOCKS
  0
BLOCK
  8
0
  2
$MODEL_SPACE
 70
     0
 10
0.0
 20
0.0
 30
0.0
  3
$MODEL_SPACE
  1

  0
ENDBLK
  5
152
  8
0
  0
BLOCK
 67
     1
  8
0
  2
$PAPER_SPACE
 70
     0
 10
0.0
 20
0.0
 30
0.0
  3
$PAPER_SPACE
  1

  0
ENDBLK
  5
150
 67
     1
  8
0
  0
ENDSEC
  0
SECTION
  2
ENTITIES
  0
LINE
  5
29
  8
0
 10
329.33762100000001
 20
136.661925
 30
0.0
 11
329.33762100000001
 21
150.51833099999999
 31
0.0
  0
LINE
  5
2A
  8
0
 10
329.33762100000001
 20
150.51833099999999
 30
0.0
 11
317.33762100000001
 21
157.44653400000001
 31
0.0
  0
LINE
  5
2B
  8
0
 10
317.33762100000001
 20
157.44653400000001
 30
0.0
 11
305.33762100000001
 21
150.51833099999999
 31
0.0
  0
LINE
  5
2C
  8
0
 10
305.33762100000001
 20
150.51833099999999
 30
0.0
 11
305.33762100000001
 21
136.661925
 31
0.0
  0
LINE
  5
2D
  8
0
 10
305.33762100000001
 20
136.661925
 30
0.0
 11
317.33762100000001
 21
129.733721
 31
0.0
  0
LINE
  5
2E
  8
0
 10
317.33762100000001
 20
129.733721
 30
0.0
 11
329.33762100000001
 21
136.661925
 31
0.0
  0
CIRCLE
  5
2F
  8
0
 10
317.33762100000001
 20
143.59012799999999
 30
0.0
 40
8.0
  0
CIRCLE
  5
30
  8
3
 10
317.33762100000001
 20
143.59012799999999
 30
0.0
 40
6.9175000000000004
  0
ARC
  5
31
  8
0
 10
317.33762100000001
 20
143.59012799999999
 30
0.0
 40
13.5
 50
0.0
 51
27.266044000000001
  0
ARC
  5
32
  8
0
 10
317.33762100000001
 20
143.59012799999999
 30
0.0
 40
13.5
 50
152.73395600000001
 51
180.0
  0
ARC
  5
33
  8
0
 10
317.33762100000001
 20
143.59012799999999
 30
0.0
 40
13.5
 50
92.733956000000006
 51
147.26604399999999
  0
ARC
  5
34
  8
0
 10
317.33762100000001
 20
143.59012799999999
 30
0.0
 40
13.5
 50
32.733955999999999
 51
87.266043999999994
  0
ARC
  5
35
  8
0
 10
317.33762100000001
 20
143.59012799999999
 30
0.0
 40
13.5
 50
180.0
 51
207.26604399999999
  0
ARC
  5
36
  8
0
 10
317.33762100000001
 20
143.59012799999999
 30
0.0
 40
13.5
 50
212.73395600000001
 51
267.26604400000002
  0
ARC
  5
37
  8
0
 10
317.33762100000001
 20
143.59012799999999
 30
0.0
 40
13.5
 50
272.73395599999998
 51
327.26604400000002
  0
ARC
  5
38
  8
0
 10
317.33762100000001
 20
143.59012799999999
 30
0.0
 40
13.5
 50
332.73395599999998
 51
0.0
  0
LINE
  5
47
  8
0
 10
179.961038
 20
195.79882499999999
 30
0.0
 11
179.961038
 21
218.79882499999999
 31
0.0
  0
LINE
  5
48
  8
0
 10
192.961038
 20
219.29882499999999
 30
0.0
 11
192.961038
 21
195.29882499999999
 31
0.0
  0
LINE
  5
49
  8
0
 10
180.24971300000001
 20
219.29882499999999
 30
0.0
 11
179.961038
 21
218.79882499999999
 31
0.0
  0
ARC
  5
4A
  8
0
 10
197.57983999999999
 20
213.29882499999999
 30
0.0
 40
17.33012699999999
 50
159.743842
 51
200.256158
  0
LINE
  5
4B
  8
0
 10
192.961038
 20
219.29882499999999
 30
0.0
 11
180.24971300000001
 21
219.29882499999999
 31
0.0
  0
LINE
  5
4C
  8
0
 10
181.32150999999999
 20
207.29882499999999
 30
0.0
 11
192.961038
 21
207.29882499999999
 31
0.0
  0
LINE
  5
4D
  8
0
 10
192.961038
 20
195.29882499999999
 30
0.0
 11
180.24971300000001
 21
195.29882499999999
 31
0.0
  0
ARC
  5
4E
  8
0
 10
197.57983999999999
 20
201.29882499999999
 30
0.0
 40
17.33012699999999
 50
159.743842
 51
200.256158
  0
LINE
  5
4F
  8
0
 10
180.24971300000001
 20
195.29882499999999
 30
0.0
 11
179.961038
 21
195.79882499999999
 31
0.0
  0
LINE
  5
50
  8
1
 10
125.961038
 20
207.29882499999999
 30
0.0
 11
255.961038
 21
207.29882499999999
 31
0.0
  0
LINE
  5
51
  8
0
 10
170.961038
 20
194.79882499999999
 30
0.0
 11
169.961038
 21
193.79882499999999
 31
0.0
  0
LINE
  5
52
  8
0
 10
170.961038
 20
219.79882499999999
 30
0.0
 11
169.961038
 21
220.79882499999999
 31
0.0
  0
LINE
  5
53
  8
0
 10
169.961038
 20
193.79882499999999
 30
0.0
 11
169.961038
 21
220.79882499999999
 31
0.0
  0
ARC
  5
54
  8
0
 10
171.961038
 20
198.29882499999999
 30
0.0
 40
1.0
 50
90.0
 51
180.0
  0
ARC
  5
55
  8
0
 10
171.961038
 20
216.29882499999999
 30
0.0
 40
1.0
 50
180.0
 51
270.0
  0
LINE
  5
56
  8
0
 10
171.961038
 20
199.29882499999999
 30
0.0
 11
179.961038
 21
199.29882499999999
 31
0.0
  0
LINE
  5
57
  8
3
 10
176.961038
 20
200.381325
 30
0.0
 11
179.961038
 21
200.381325
 31
0.0
  0
LINE
  5
58
  8
3
 10
176.961038
 20
214.21632500000001
 30
0.0
 11
179.961038
 21
214.21632500000001
 31
0.0
  0
LINE
  5
59
  8
0
 10
171.961038
 20
215.29882499999999
 30
0.0
 11
179.961038
 21
215.29882499999999
 31
0.0
  0
LINE
  5
5A
  8
0
 10
176.961038
 20
215.29882499999999
 30
0.0
 11
176.961038
 21
199.29882499999999
 31
0.0
  0
LINE
  5
5B
  8
3
 10
176.961038
 20
214.21632500000001
 30
0.0
 11
175.08609300000001
 21
215.29882499999999
 31
0.0
  0
LINE
  5
5C
  8
3
 10
176.961038
 20
200.381325
 30
0.0
 11
175.08609300000001
 21
199.29882499999999
 31
0.0
  0
LINE
  5
5D
  8
0
 10
138.961038
 20
195.99882500000001
 30
0.0
 11
138.961038
 21
218.59882500000001
 31
0.0
  0
LINE
  5
5E
  8
1
 10
142.961038
 20
191.29882499999999
 30
0.0
 11
142.961038
 21
223.29882499999999
 31
0.0
  0
LINE
  5
5F
  8
0
 10
130.961038
 20
198.41762700000001
 30
0.0
 11
130.961038
 21
216.18002300000001
 31
0.0
  0
LINE
  5
60
  8
0
 10
170.961038
 20
194.79882499999999
 30
0.0
 11
170.961038
 21
219.79882499999999
 31
0.0
  0
LINE
  5
61
  8
0
 10
158.404414
 20
220.79882499999999
 30
0.0
 11
169.961038
 21
220.79882499999999
 31
0.0
  0
LINE
  5
62
  8
0
 10
157.134243
 20
218.59882500000001
 30
0.0
 11
158.404414
 21
220.79882499999999
 31
0.0
  0
LINE
  5
63
  8
0
 10
157.134243
 20
195.99882500000001
 30
0.0
 11
158.404414
 21
193.79882499999999
 31
0.0
  0
LINE
  5
64
  8
0
 10
158.404414
 20
193.79882499999999
 30
0.0
 11
169.961038
 21
193.79882499999999
 31
0.0
  0
LINE
  5
65
  8
0
 10
192.961038
 20
129.733721
 30
0.0
 11
192.961038
 21
157.44653400000001
 31
0.0
  0
LINE
  5
66
  8
0
 10
181.32150999999999
 20
157.44653400000001
 30
0.0
 11
179.961038
 21
155.09012799999999
 31
0.0
  0
ARC
  5
67
  8
0
 10
186.38368800000001
 20
153.98243299999999
 30
0.0
 40
6.1339750000000004
 50
154.38424699999999
 51
214.38424699999999
  0
ARC
  5
68
  8
0
 10
203.17791600000001
 20
143.59012799999999
 30
0.0
 40
22.928203
 50
162.412046
 51
197.587954
  0
LINE
  5
69
  8
0
 10
192.961038
 20
157.44653400000001
 30
0.0
 11
181.32150999999999
 21
157.44653400000001
 31
0.0
  0
LINE
  5
6A
  8
0
 10
192.961038
 20
150.51833099999999
 30
0.0
 11
181.32150999999999
 21
150.51833099999999
 31
0.0
  0
LINE
  5
6B
  8
0
 10
192.961038
 20
136.661925
 30
0.0
 11
181.32150999999999
 21
136.661925
 31
0.0
  0
LINE
  5
6C
  8
0
 10
192.961038
 20
129.733721
 30
0.0
 11
181.32150999999999
 21
129.733721
 31
0.0
  0
ARC
  5
6D
  8
0
 10
186.38368800000001
 20
133.197823
 30
0.0
 40
6.1339750000000004
 50
145.61575300000001
 51
205.61575300000001
  0
LINE
  5
6E
  8
0
 10
181.32150999999999
 20
129.733721
 30
0.0
 11
179.961038
 21
132.09012799999999
 31
0.0
  0
LINE
  5
6F
  8
0
 10
179.961038
 20
132.09012799999999
 30
0.0
 11
179.961038
 21
155.09012799999999
 31
0.0
  0
LINE
  5
70
  8
0
 10
85.59099599999999
 20
136.29015200000001
 30
0.0
 11
86.234925000000004
 21
136.661925
 31
0.0
  0
LINE
  5
71
  8
0
 10
86.234925000000004
 20
136.661925
 30
0.0
 11
86.234925000000004
 21
137.40546900000001
 31
0.0
  0
LINE
  5
72
  8
0
 10
73.59099599999999
 20
130.10549399999999
 30
0.0
 11
74.234925000000004
 21
129.733721
 31
0.0
  0
LINE
  5
73
  8
0
 10
74.234925000000004
 20
129.733721
 30
0.0
 11
74.878853000000007
 21
130.10549399999999
 31
0.0
  0
LINE
  5
74
  8
0
 10
62.23492499999999
 20
137.40546900000001
 30
0.0
 11
62.23492499999999
 21
136.661925
 31
0.0
  0
LINE
  5
75
  8
0
 10
62.23492499999999
 20
136.661925
 30
0.0
 11
62.878852999999999
 21
136.29015200000001
 31
0.0
  0
LINE
  5
76
  8
0
 10
62.878852999999999
 20
150.89010400000001
 30
0.0
 11
62.23492499999999
 21
150.51833099999999
 31
0.0
  0
LINE
  5
77
  8
0
 10
62.23492499999999
 20
150.51833099999999
 30
0.0
 11
62.23492499999999
 21
149.77478600000001
 31
0.0
  0
LINE
  5
78
  8
0
 10
74.878853000000007
 20
157.07476199999999
 30
0.0
 11
74.234925000000004
 21
157.44653400000001
 31
0.0
  0
LINE
  5
79
  8
0
 10
74.234925000000004
 20
157.44653400000001
 30
0.0
 11
73.59099599999999
 21
157.07476199999999
 31
0.0
  0
LINE
  5
7A
  8
0
 10
86.234925000000004
 20
150.51833099999999
 30
0.0
 11
85.59099599999999
 21
150.89010400000001
 31
0.0
  0
LINE
  5
7B
  8
0
 10
86.234925000000004
 20
149.77478600000001
 30
0.0
 11
86.234925000000004
 21
150.51833099999999
 31
0.0
  0
LINE
  5
7C
  8
1
 10
255.961038
 20
143.59012799999999
 30
0.0
 11
125.961038
 21
143.59012799999999
 31
0.0
  0
CIRCLE
  5
7D
  8
0
 10
74.234925000000004
 20
143.59012799999999
 30
0.0
 40
13.5
  0
LINE
  5
7E
  8
0
 10
138.961038
 20
151.41636600000001
 30
0.0
 11
156.961038
 21
151.41636600000001
 31
0.0
  0
LINE
  5
7F
  8
0
 10
138.961038
 20
157.09012799999999
 30
0.0
 11
169.961038
 21
157.09012799999999
 31
0.0
  0
LINE
  5
80
  8
0
 10
138.961038
 20
135.76389
 30
0.0
 11
156.961038
 21
135.76389
 31
0.0
  0
LINE
  5
81
  8
0
 10
138.961038
 20
130.09012799999999
 30
0.0
 11
169.961038
 21
130.09012799999999
 31
0.0
  0
LINE
  5
82
  8
0
 10
170.961038
 20
131.09012799999999
 30
0.0
 11
170.961038
 21
156.09012799999999
 31
0.0
  0
LINE
  5
83
  8
0
 10
130.961038
 20
134.70893000000001
 30
0.0
 11
130.961038
 21
152.471326
 31
0.0
  0
LINE
  5
84
  8
0
 10
138.961038
 20
130.09012799999999
 30
0.0
 11
138.961038
 21
135.76389
 31
0.0
  0
LINE
  5
85
  8
1
 10
142.961038
 20
134.490128
 30
0.0
 11
142.961038
 21
152.69012799999999
 31
0.0
  0
LINE
  5
86
  8
0
 10
156.961038
 20
135.76389
 30
0.0
 11
156.961038
 21
151.41636600000001
 31
0.0
  0
LINE
  5
87
  8
0
 10
138.961038
 20
157.09012799999999
 30
0.0
 11
130.961038
 21
152.471326
 31
0.0
  0
LINE
  5
88
  8
0
 10
138.961038
 20
151.41636600000001
 30
0.0
 11
138.961038
 21
157.09012799999999
 31
0.0
  0
LINE
  5
89
  8
0
 10
138.961038
 20
130.09012799999999
 30
0.0
 11
130.961038
 21
134.70893000000001
 31
0.0
  0
LINE
  5
8A
  8
3
 10
176.961038
 20
136.672628
 30
0.0
 11
175.08609300000001
 21
135.59012799999999
 31
0.0
  0
LINE
  5
8B
  8
3
 10
176.961038
 20
150.50762800000001
 30
0.0
 11
175.08609300000001
 21
151.59012799999999
 31
0.0
  0
LINE
  5
8C
  8
0
 10
176.961038
 20
151.59012799999999
 30
0.0
 11
176.961038
 21
135.59012799999999
 31
0.0
  0
LINE
  5
8D
  8
0
 10
171.961038
 20
151.59012799999999
 30
0.0
 11
179.961038
 21
151.59012799999999
 31
0.0
  0
LINE
  5
8E
  8
3
 10
176.961038
 20
150.50762800000001
 30
0.0
 11
179.961038
 21
150.50762800000001
 31
0.0
  0
LINE
  5
8F
  8
3
 10
176.961038
 20
136.672628
 30
0.0
 11
179.961038
 21
136.672628
 31
0.0
  0
LINE
  5
90
  8
0
 10
171.961038
 20
135.59012799999999
 30
0.0
 11
179.961038
 21
135.59012799999999
 31
0.0
  0
ARC
  5
91
  8
0
 10
171.961038
 20
152.59012799999999
 30
0.0
 40
1.0
 50
180.0
 51
270.0
  0
ARC
  5
92
  8
0
 10
171.961038
 20
134.59012799999999
 30
0.0
 40
1.0
 50
90.0
 51
180.0
  0
LINE
  5
93
  8
0
 10
169.961038
 20
130.09012799999999
 30
0.0
 11
169.961038
 21
157.09012799999999
 31
0.0
  0
LINE
  5
94
  8
0
 10
170.961038
 20
156.09012799999999
 30
0.0
 11
169.961038
 21
157.09012799999999
 31
0.0
  0
LINE
  5
95
  8
0
 10
170.961038
 20
131.09012799999999
 30
0.0
 11
169.961038
 21
130.09012799999999
 31
0.0
  0
CIRCLE
  5
96
  8
0
 10
74.234925000000004
 20
143.59012799999999
 30
0.0
 40
8.8811979999999995
  0
ARC
  5
97
  8
0
 10
136.465104
 20
143.59012799999999
 30
0.0
 40
21.939309999999999
 50
339.10097200000001
 51
20.899028000000001
  0
ARC
  5
98
  8
0
 10
143.868515
 20
143.59012799999999
 30
0.0
 40
9.2376039999999993
 50
122.089951
 51
237.91004899999999
  0
LINE
  5
99
  8
0
 10
250.961038
 20
149.59012799999999
 30
0.0
 11
250.961038
 21
137.59012799999999
 31
0.0
  0
LINE
  5
9A
  8
0
 10
192.961038
 20
135.59012799999999
 30
0.0
 11
248.961038
 21
135.59012799999999
 31
0.0
  0
LINE
  5
9B
  8
3
 10
192.961038
 20
136.672628
 30
0.0
 11
250.04353800000001
 21
136.672628
 31
0.0
  0
LINE
  5
9C
  8
3
 10
192.961038
 20
150.50762800000001
 30
0.0
 11
250.04353800000001
 21
150.50762800000001
 31
0.0
  0
LINE
  5
9D
  8
0
 10
192.961038
 20
151.59012799999999
 30
0.0
 11
248.961038
 21
151.59012799999999
 31
0.0
  0
LINE
  5
9E
  8
0
 10
248.961038
 20
151.59012799999999
 30
0.0
 11
250.961038
 21
149.59012799999999
 31
0.0
  0
LINE
  5
9F
  8
0
 10
250.961038
 20
137.59012799999999
 30
0.0
 11
248.961038
 21
135.59012799999999
 31
0.0
  0
LINE
  5
A0
  8
0
 10
248.961038
 20
135.59012799999999
 30
0.0
 11
248.961038
 21
151.59012799999999
 31
0.0
  0
LINE
  5
A1
  8
0
 10
248.961038
 20
199.29882499999999
 30
0.0
 11
248.961038
 21
215.29882499999999
 31
0.0
  0
LINE
  5
A2
  8
0
 10
250.961038
 20
201.29882499999999
 30
0.0
 11
248.961038
 21
199.29882499999999
 31
0.0
  0
LINE
  5
A3
  8
0
 10
248.961038
 20
215.29882499999999
 30
0.0
 11
250.961038
 21
213.29882499999999
 31
0.0
  0
LINE
  5
A4
  8
0
 10
192.961038
 20
215.29882499999999
 30
0.0
 11
248.961038
 21
215.29882499999999
 31
0.0
  0
LINE
  5
A5
  8
3
 10
192.961038
 20
214.21632500000001
 30
0.0
 11
250.04353800000001
 21
214.21632500000001
 31
0.0
  0
LINE
  5
A6
  8
3
 10
192.961038
 20
200.381325
 30
0.0
 11
250.04353800000001
 21
200.381325
 31
0.0
  0
LINE
  5
A7
  8
0
 10
192.961038
 20
199.29882499999999
 30
0.0
 11
248.961038
 21
199.29882499999999
 31
0.0
  0
LINE
  5
A8
  8
0
 10
250.961038
 20
213.29882499999999
 30
0.0
 11
250.961038
 21
201.29882499999999
 31
0.0
  0
LINE
  5
A9
  8
1
 10
92.734925000000004
 20
143.59012799999999
 30
0.0
 11
55.734924999999997
 21
143.59012799999999
 31
0.0
  0
LINE
  5
AA
  8
1
 10
74.234925000000004
 20
162.09012799999999
 30
0.0
 11
74.234925000000004
 21
125.09012800000001
 31
0.0
  0
LINE
  5
AB
  8
2
 10
84.534925000000015
 20
147.59012799999999
 30
0.0
 11
63.934925
 21
147.59012799999999
 31
0.0
  0
LINE
  5
AC
  8
2
 10
84.534925000000015
 20
139.59012799999999
 30
0.0
 11
63.934925
 21
139.59012799999999
 31
0.0
  0
LINE
  5
AD
  8
0
 10
85.534925000000001
 20
136.203654
 30
0.0
 11
85.534925000000001
 21
150.97660200000001
 31
0.0
  0
LINE
  5
AE
  8
0
 10
62.934925
 20
136.203654
 30
0.0
 11
62.934925
 21
150.97660200000001
 31
0.0
  0
LINE
  5
AF
  8
2
 10
62.934925
 20
148.59012799999999
 30
0.0
 11
63.934925
 21
147.59012799999999
 31
0.0
  0
LINE
  5
B0
  8
2
 10
84.534925000000015
 20
147.59012799999999
 30
0.0
 11
85.534925000000001
 21
148.59012799999999
 31
0.0
  0
LINE
  5
B1
  8
2
 10
84.534925000000015
 20
139.59012799999999
 30
0.0
 11
85.534925000000001
 21
138.59012799999999
 31
0.0
  0
LINE
  5
B2
  8
2
 10
63.934925
 20
139.59012799999999
 30
0.0
 11
62.934925
 21
138.59012799999999
 31
0.0
  0
LINE
  5
B3
  8
2
 10
84.534925000000015
 20
147.59012799999999
 30
0.0
 11
84.534925000000015
 21
139.59012799999999
 31
0.0
  0
LINE
  5
B4
  8
2
 10
63.934925
 20
147.59012799999999
 30
0.0
 11
63.934925
 21
139.59012799999999
 31
0.0
  0
LINE
  5
B5
  8
0
 10
134.630911
 20
218.59882500000001
 30
0.0
 11
157.134243
 21
218.59882500000001
 31
0.0
  0
LINE
  5
B6
  8
0
 10
134.630911
 20
195.99882500000001
 30
0.0
 11
157.134243
 21
195.99882500000001
 31
0.0
  0
LINE
  5
B7
  8
2
 10
138.961038
 20
217.59882500000001
 30
0.0
 11
138.961038
 21
196.99882500000001
 31
0.0
  0
LINE
  5
B8
  8
2
 10
146.961038
 20
217.59882500000001
 30
0.0
 11
146.961038
 21
196.99882500000001
 31
0.0
  0
LINE
  5
B9
  8
2
 10
137.961038
 20
195.99882500000001
 30
0.0
 11
138.961038
 21
196.99882500000001
 31
0.0
  0
LINE
  5
BA
  8
2
 10
138.961038
 20
217.59882500000001
 30
0.0
 11
137.961038
 21
218.59882500000001
 31
0.0
  0
LINE
  5
BB
  8
2
 10
146.961038
 20
217.59882500000001
 30
0.0
 11
147.961038
 21
218.59882500000001
 31
0.0
  0
LINE
  5
BC
  8
2
 10
146.961038
 20
196.99882500000001
 30
0.0
 11
147.961038
 21
195.99882500000001
 31
0.0
  0
LINE
  5
BD
  8
2
 10
138.961038
 20
217.59882500000001
 30
0.0
 11
146.961038
 21
217.59882500000001
 31
0.0
  0
LINE
  5
BE
  8
2
 10
138.961038
 20
196.99882500000001
 30
0.0
 11
146.961038
 21
196.99882500000001
 31
0.0
  0
CIRCLE
  5
BF
  8
0
 10
142.961038
 20
143.59012799999999
 30
0.0
 40
4.0
  0
LINE
  5
C0
  8
0
 10
134.630911
 20
195.99882500000001
 30
0.0
 11
130.961038
 21
198.41762700000001
 31
0.0
  0
LINE
  5
C1
  8
0
 10
134.630911
 20
218.59882500000001
 30
0.0
 11
130.961038
 21
216.18002300000001
 31
0.0
  0
LINE
  5
C2
  8
1
 10
335.83762100000001
 20
143.59012799999999
 30
0.0
 11
298.83762100000001
 21
143.59012799999999
 31
0.0
  0
LINE
  5
C3
  8
1
 10
317.33762100000001
 20
162.09012799999999
 30
0.0
 11
317.33762100000001
 21
125.09012800000001
 31
0.0
  0
LINE
  5
C4
  8
0
 10
134.630911
 20
91.757910999999993
 30
0.0
 11
130.961038
 21
89.339108999999979
 31
0.0
  0
LINE
  5
C5
  8
0
 10
134.630911
 20
69.157910999999984
 30
0.0
 11
130.961038
 21
71.576712999999998
 31
0.0
  0
LINE
  5
C6
  8
2
 10
138.961038
 20
70.157910999999999
 30
0.0
 11
146.961038
 21
70.157910999999999
 31
0.0
  0
LINE
  5
C7
  8
2
 10
138.961038
 20
90.757910999999993
 30
0.0
 11
146.961038
 21
90.757910999999993
 31
0.0
  0
LINE
  5
C8
  8
2
 10
146.961038
 20
70.157910999999999
 30
0.0
 11
147.961038
 21
69.157910999999984
 31
0.0
  0
LINE
  5
C9
  8
2
 10
146.961038
 20
90.757910999999993
 30
0.0
 11
147.961038
 21
91.757910999999993
 31
0.0
  0
LINE
  5
CA
  8
2
 10
138.961038
 20
90.757910999999993
 30
0.0
 11
137.961038
 21
91.757910999999993
 31
0.0
  0
LINE
  5
CB
  8
2
 10
137.961038
 20
69.157910999999984
 30
0.0
 11
138.961038
 21
70.157910999999999
 31
0.0
  0
LINE
  5
CC
  8
2
 10
146.961038
 20
90.757910999999993
 30
0.0
 11
146.961038
 21
70.157910999999999
 31
0.0
  0
LINE
  5
CD
  8
2
 10
138.961038
 20
90.757910999999993
 30
0.0
 11
138.961038
 21
70.157910999999999
 31
0.0
  0
LINE
  5
CE
  8
0
 10
134.630911
 20
69.157910999999984
 30
0.0
 11
157.134243
 21
69.157910999999984
 31
0.0
  0
LINE
  5
CF
  8
0
 10
134.630911
 20
91.757910999999993
 30
0.0
 11
157.134243
 21
91.757910999999993
 31
0.0
  0
LINE
  5
D0
  8
0
 10
250.961038
 20
86.457910999999996
 30
0.0
 11
250.961038
 21
74.457910999999996
 31
0.0
  0
LINE
  5
D1
  8
0
 10
192.961038
 20
72.457910999999996
 30
0.0
 11
248.961038
 21
72.457910999999996
 31
0.0
  0
LINE
  5
D2
  8
3
 10
192.961038
 20
73.540410999999992
 30
0.0
 11
250.04353800000001
 21
73.540410999999992
 31
0.0
  0
LINE
  5
D3
  8
3
 10
192.961038
 20
87.375410999999986
 30
0.0
 11
250.04353800000001
 21
87.375410999999986
 31
0.0
  0
LINE
  5
D4
  8
0
 10
192.961038
 20
88.457910999999996
 30
0.0
 11
248.961038
 21
88.457910999999996
 31
0.0
  0
LINE
  5
D5
  8
0
 10
248.961038
 20
88.457910999999996
 30
0.0
 11
250.961038
 21
86.457910999999996
 31
0.0
  0
LINE
  5
D6
  8
0
 10
250.961038
 20
74.457910999999996
 30
0.0
 11
248.961038
 21
72.457910999999996
 31
0.0
  0
LINE
  5
D7
  8
0
 10
248.961038
 20
72.457910999999996
 30
0.0
 11
248.961038
 21
88.457910999999996
 31
0.0
  0
LINE
  5
D8
  8
0
 10
158.404414
 20
66.957910999999996
 30
0.0
 11
169.961038
 21
66.957910999999996
 31
0.0
  0
LINE
  5
D9
  8
0
 10
157.134243
 20
69.157910999999984
 30
0.0
 11
158.404414
 21
66.957910999999996
 31
0.0
  0
LINE
  5
DA
  8
0
 10
157.134243
 20
91.757910999999993
 30
0.0
 11
158.404414
 21
93.957910999999996
 31
0.0
  0
LINE
  5
DB
  8
0
 10
158.404414
 20
93.957910999999996
 30
0.0
 11
169.961038
 21
93.957910999999996
 31
0.0
  0
LINE
  5
DC
  8
0
 10
170.961038
 20
67.957910999999996
 30
0.0
 11
170.961038
 21
92.957910999999996
 31
0.0
  0
LINE
  5
DD
  8
0
 10
130.961038
 20
71.576712999999998
 30
0.0
 11
130.961038
 21
89.339108999999979
 31
0.0
  0
LINE
  5
DE
  8
1
 10
142.961038
 20
64.457910999999996
 30
0.0
 11
142.961038
 21
96.457910999999996
 31
0.0
  0
LINE
  5
DF
  8
0
 10
138.961038
 20
69.157910999999984
 30
0.0
 11
138.961038
 21
91.757910999999993
 31
0.0
  0
LINE
  5
E0
  8
3
 10
176.961038
 20
73.540410999999992
 30
0.0
 11
175.08609300000001
 21
72.457910999999996
 31
0.0
  0
LINE
  5
E1
  8
3
 10
176.961038
 20
87.375410999999986
 30
0.0
 11
175.08609300000001
 21
88.457910999999996
 31
0.0
  0
LINE
  5
E2
  8
0
 10
176.961038
 20
88.457910999999996
 30
0.0
 11
176.961038
 21
72.457910999999996
 31
0.0
  0
LINE
  5
E3
  8
0
 10
171.961038
 20
88.457910999999996
 30
0.0
 11
179.961038
 21
88.457910999999996
 31
0.0
  0
LINE
  5
E4
  8
3
 10
176.961038
 20
87.375410999999986
 30
0.0
 11
179.961038
 21
87.375410999999986
 31
0.0
  0
LINE
  5
E5
  8
3
 10
176.961038
 20
73.540410999999992
 30
0.0
 11
179.961038
 21
73.540410999999992
 31
0.0
  0
LINE
  5
E6
  8
0
 10
171.961038
 20
72.457910999999996
 30
0.0
 11
179.961038
 21
72.457910999999996
 31
0.0
  0
ARC
  5
E7
  8
0
 10
171.961038
 20
89.457910999999996
 30
0.0
 40
1.0
 50
180.0
 51
270.0
  0
ARC
  5
E8
  8
0
 10
171.961038
 20
71.457910999999996
 30
0.0
 40
1.0
 50
90.0
 51
180.0
  0
LINE
  5
E9
  8
0
 10
169.961038
 20
66.957910999999996
 30
0.0
 11
169.961038
 21
93.957910999999996
 31
0.0
  0
LINE
  5
EA
  8
0
 10
170.961038
 20
92.957910999999996
 30
0.0
 11
169.961038
 21
93.957910999999996
 31
0.0
  0
LINE
  5
EB
  8
0
 10
170.961038
 20
67.957910999999996
 30
0.0
 11
169.961038
 21
66.957910999999996
 31
0.0
  0
LINE
  5
EC
  8
1
 10
125.961038
 20
80.457910999999996
 30
0.0
 11
255.961038
 21
80.457910999999996
 31
0.0
  0
LINE
  5
ED
  8
0
 10
180.24971300000001
 20
68.457910999999996
 30
0.0
 11
179.961038
 21
68.957910999999996
 31
0.0
  0
ARC
  5
EE
  8
0
 10
197.57983999999999
 20
74.457910999999996
 30
0.0
 40
17.33012699999999
 50
159.743842
 51
200.256158
  0
LINE
  5
EF
  8
0
 10
192.961038
 20
68.457910999999996
 30
0.0
 11
180.24971300000001
 21
68.457910999999996
 31
0.0
  0
LINE
  5
F0
  8
0
 10
181.32150999999999
 20
80.457910999999996
 30
0.0
 11
192.961038
 21
80.457910999999996
 31
0.0
  0
LINE
  5
F1
  8
0
 10
192.961038
 20
92.457910999999996
 30
0.0
 11
180.24971300000001
 21
92.457910999999996
 31
0.0
  0
ARC
  5
F2
  8
0
 10
197.57983999999999
 20
86.457910999999996
 30
0.0
 40
17.33012699999999
 50
159.743842
 51
200.256158
  0
LINE
  5
F3
  8
0
 10
180.24971300000001
 20
92.457910999999996
 30
0.0
 11
179.961038
 21
91.957910999999996
 31
0.0
  0
LINE
  5
F4
  8
0
 10
192.961038
 20
92.457910999999996
 30
0.0
 11
192.961038
 21
68.457910999999996
 31
0.0
  0
LINE
  5
F5
  8
0
 10
179.961038
 20
68.957910999999996
 30
0.0
 11
179.961038
 21
91.957910999999996
 31
0.0
  0
TEXT
  5
20D
  8
0
 62
     3
 10
0.0
 20
0.0
 30
0.0
 40
10.0
  1
CBS1-80-SUS
  7
STANDARD1
  0
ENDSEC
  0
EOF
