  0
SECTION
  2
HEADER
  9
$ACADVER
  1
AC1009
  9
$INSBASE
 10
0.0
 20
0.0
 30
0.0
  9
$EXTMIN
 10
0.0
 20
-2.960436562073669
 30
0.0
  9
$EXTMAX
 10
601.66555718857614
 20
478.8241005285912
 30
0.0
  9
$LIMMIN
 10
0.0
 20
0.0
  9
$LIMMAX
 10
375.0
 20
270.0
  9
$ORTHOMODE
 70
     1
  9
$REGENMODE
 70
     1
  9
$FILLMODE
 70
     1
  9
$QTEXTMODE
 70
     0
  9
$MIRRTEXT
 70
     1
  9
$DRAGMODE
 70
     2
  9
$LTSCALE
 40
10.0
  9
$OSMODE
 70
    37
  9
$ATTMODE
 70
     1
  9
$TEXTSIZE
 40
5.0
  9
$TRACEWID
 40
0.05
  9
$TEXTSTYLE
  7
STANDARD
  9
$CLAYER
  8
0
  9
$CELTYPE
  6
BYLAYER
  9
$CECOLOR
 62
   256
  9
$DIMSCALE
 40
1.0
  9
$DIMASZ
 40
3.0
  9
$DIMEXO
 40
2.0
  9
$DIMDLI
 40
0.38
  9
$DIMRND
 40
0.0
  9
$DIMDLE
 40
0.0
  9
$DIMEXE
 40
2.0
  9
$DIMTP
 40
0.0
  9
$DIMTM
 40
0.0
  9
$DIMTXT
 40
3.2000000000000002
  9
$DIMCEN
 40
0.0
  9
$DIMTSZ
 40
0.0
  9
$DIMTOL
 70
     0
  9
$DIMLIM
 70
     0
  9
$DIMTIH
 70
     0
  9
$DIMTOH
 70
     0
  9
$DIMSE1
 70
     0
  9
$DIMSE2
 70
     0
  9
$DIMTAD
 70
     1
  9
$DIMZIN
 70
     8
  9
$DIMBLK
  1

  9
$DIMASO
 70
     0
  9
$DIMSHO
 70
     0
  9
$DIMPOST
  1

  9
$DIMAPOST
  1

  9
$DIMALT
 70
     0
  9
$DIMALTD
 70
     2
  9
$DIMALTF
 40
25.399999999999999
  9
$DIMLFAC
 40
1.0
  9
$DIMTOFL
 70
     0
  9
$DIMTVP
 40
1.6000000000000001
  9
$DIMTIX
 70
     1
  9
$DIMSOXD
 70
     0
  9
$DIMSAH
 70
     0
  9
$DIMBLK1
  1

  9
$DIMBLK2
  1

  9
$DIMSTYLE
  2
STANDARD
  9
$DIMCLRD
 70
     0
  9
$DIMCLRE
 70
     0
  9
$DIMCLRT
 70
     0
  9
$DIMTFAC
 40
1.0
  9
$DIMGAP
 40
1.1999999999999991
  9
$LUNITS
 70
     2
  9
$LUPREC
 70
     4
  9
$SKETCHINC
 40
0.1
  9
$FILLETRAD
 40
0.0
  9
$AUNITS
 70
     0
  9
$AUPREC
 70
     4
  9
$MENU
  1
ACAD
  9
$ELEVATION
 40
0.0
  9
$PELEVATION
 40
0.0
  9
$THICKNESS
 40
0.0
  9
$LIMCHECK
 70
     0
  9
$BLIPMODE
 70
     0
  9
$CHAMFERA
 40
0.0
  9
$CHAMFERB
 40
0.0
  9
$SKPOLY
 70
     0
  9
$TDCREATE
 40
2448055.7149187499
  9
$TDUPDATE
 40
2459565.4850025
  9
$TDINDWG
 40
2.0685720602000002
  9
$TDUSRTIMER
 40
2.0685720602000002
  9
$USRTIMER
 70
     1
  9
$ANGBASE
 50
0.0
  9
$ANGDIR
 70
     0
  9
$PDMODE
 70
     0
  9
$PDSIZE
 40
0.0
  9
$PLINEWID
 40
0.0
  9
$COORDS
 70
     1
  9
$SPLFRAME
 70
     0
  9
$SPLINETYPE
 70
     6
  9
$SPLINESEGS
 70
     8
  9
$ATTDIA
 70
     0
  9
$ATTREQ
 70
     1
  9
$HANDLING
 70
     1
  9
$HANDSEED
  5
14832
  9
$SURFTAB1
 70
     6
  9
$SURFTAB2
 70
     6
  9
$SURFTYPE
 70
     6
  9
$SURFU
 70
     6
  9
$SURFV
 70
     6
  9
$UCSNAME
  2

  9
$UCSORG
 10
0.0
 20
0.0
 30
0.0
  9
$UCSXDIR
 10
1.0
 20
0.0
 30
0.0
  9
$UCSYDIR
 10
0.0
 20
1.0
 30
0.0
  9
$PUCSNAME
  2

  9
$PUCSORG
 10
0.0
 20
0.0
 30
0.0
  9
$PUCSXDIR
 10
1.0
 20
0.0
 30
0.0
  9
$PUCSYDIR
 10
0.0
 20
1.0
 30
0.0
  9
$USERI1
 70
     0
  9
$USERI2
 70
     0
  9
$USERI3
 70
     0
  9
$USERI4
 70
     0
  9
$USERI5
 70
     0
  9
$USERR1
 40
0.0
  9
$USERR2
 40
0.0
  9
$USERR3
 40
0.0
  9
$USERR4
 40
0.0
  9
$USERR5
 40
0.0
  9
$WORLDVIEW
 70
     1
  9
$SHADEDGE
 70
     3
  9
$SHADEDIF
 70
    70
  9
$TILEMODE
 70
     1
  9
$MAXACTVP
 70
    16
  9
$PLIMCHECK
 70
     0
  9
$PEXTMIN
 10
1.0000000000000000E+020
 20
1.0000000000000000E+020
 30
1.0000000000000000E+020
  9
$PEXTMAX
 10
-1.0000000000000000E+020
 20
-1.0000000000000000E+020
 30
-1.0000000000000000E+020
  9
$PLIMMIN
 10
0.0
 20
0.0
  9
$PLIMMAX
 10
12.0
 20
9.0
  9
$UNITMODE
 70
     0
  9
$VISRETAIN
 70
     0
  9
$PLINEGEN
 70
     1
  9
$PSLTSCALE
 70
     0
  0
ENDSEC
  0
SECTION
  2
TABLES
  0
TABLE
  2
VPORT
 70
     1
  0
VPORT
  2
*ACTIVE
 70
     0
 10
0.0
 20
0.0
 11
1.0
 21
1.0
 12
525.22613867549535
 22
237.9325349852468
 13
0.0
 23
0.0
 14
5.0
 24
5.0
 15
10.0
 25
10.0
 16
0.0
 26
0.0
 36
1.0
 17
0.0
 27
0.0
 37
0.0
 40
486.17160856220192
 41
2.3805970149253728
 42
50.0
 43
0.0
 44
0.0
 50
0.0
 51
0.0
 71
     0
 72
   500
 73
     1
 74
     1
 75
     0
 76
     0
 77
     0
 78
     2
  0
ENDTAB
  0
TABLE
  2
LTYPE
 70
     4
  0
LTYPE
  2
CONTINUOUS
 70
     0
  3
実線
 72
    65
 73
     0
 40
0.0
  0
LTYPE
  2
CENTER
 70
     0
  3
____ _ ____ _ ____ _ ____ _ ____ _ ____ _ ____
 72
    65
 73
     4
 40
2.0
 49
1.25
 49
-0.25
 49
0.25
 49
-0.25
  0
LTYPE
  2
HIDDEN
 70
     0
  3
_ _ _ _ _ _ _ _ _ _ _ _ _ _ _ _ _ _ _ _ _ _ _
 72
    65
 73
     2
 40
0.375
 49
0.25
 49
-0.125
  0
LTYPE
  2
PHANTOM2
 70
     0
  3
___ _ _ ___ _ _ ___ _ _ ___ _ _
 72
    65
 73
     6
 40
1.25
 49
0.625
 49
-0.125
 49
0.125
 49
-0.125
 49
0.125
 49
-0.125
  0
ENDTAB
  0
TABLE
  2
LAYER
 70
     5
  0
LAYER
  2
0
 70
     0
 62
     7
  6
CONTINUOUS
  0
LAYER
  2
1
 70
     0
 62
     1
  6
CENTER
  0
LAYER
  2
2
 70
     0
 62
     2
  6
HIDDEN
  0
LAYER
  2
DEFPOINTS
 70
     0
 62
     7
  6
CONTINUOUS
  0
LAYER
  2
3
 70
     0
 62
     3
  6
CONTINUOUS
  0
ENDTAB
  0
TABLE
  2
STYLE
 70
     3
  0
STYLE
  2
STANDARD
 70
     0
 40
0.0
 41
1.0
 50
0.0
 71
     0
 42
5.0
  3
simplex.shx
  4
bigfont.shx
  0
STYLE
  2
07500
 70
     0
 40
0.0
 41
0.75
 50
0.0
 71
     0
 42
0.2
  3
simplex.shx
  4
bigfont.shx
  0
STYLE
  2
STANDARD1
 70
     0
 40
0.0
 41
1.0
 50
0.0
 71
     0
 42
3.0
  3
txt
  4

  0
ENDTAB
  0
TABLE
  2
VIEW
 70
     2
  0
VIEW
  2
ALL
 70
     0
 40
270.0
 10
220.99159663865549
 20
135.0
 41
0.0
 11
0.0
 21
0.0
 31
1.0
 12
0.0
 22
0.0
 32
0.0
 42
0.0
 43
0.0
 44
0.0
 50
0.0
 71
     0
  0
VIEW
  2
OLE1
 70
     0
 40
168.2487151179721
 10
2892.3009567448912
 20
702.51600084347126
 41
162.5749581879237
 11
0.0
 21
0.0
 31
1.0
 12
0.0
 22
0.0
 32
0.0
 42
50.0
 43
0.0
 44
0.0
 50
0.0
 71
     0
  0
ENDTAB
  0
TABLE
  2
UCS
 70
     0
  0
ENDTAB
  0
TABLE
  2
APPID
 70
    48
  0
APPID
  2
ACAD
 70
     0
  0
APPID
  2
DCO15
 70
     0
  0
APPID
  2
GENIUS_GENOREF_13
 70
     0
  0
APPID
  2
GENIUS_GENOENT_13
 70
     0
  0
APPID
  2
GENIUS_GENBH_13
 70
     0
  0
APPID
  2
GENIUS_GENOBJ_13
 70
     0
  0
APPID
  2
GENIUS_GENODEF_13
 70
     0
  0
APPID
  2
GENIUS_GENOLIS_13
 70
     0
  0
APPID
  2
GENIUS_GENOBJ-NBEHI-BHF_13
 70
     0
  0
APPID
  2
GENIUS_GENOBJ-NBEHI-BHB_13
 70
     0
  0
APPID
  2
GENIUS_GENOBJ-F-PART_13
 70
     0
  0
APPID
  2
GENIUS_GEFSTDP_13
 70
     0
  0
APPID
  2
GENIUS_GENOBJ-N-RSSYM_13
 70
     0
  0
APPID
  2
GENIUS_GENSYMENT_13
 70
     0
  0
APPID
  2
GENIUS_GENOBJ-N-TIT_13
 70
     0
  0
APPID
  2
GENIUS_GENTITLE_13
 70
     0
  0
APPID
  2
GENIUS_GENZVEED_13
 70
     0
  0
APPID
  2
GENIUS_GENOBJ-N-LEADER_13
 70
     0
  0
APPID
  2
GENIUS_GENOBJ-N-FIL_13
 70
     0
  0
APPID
  2
GENIUS_GENOBJ-N-SEC_13
 70
     0
  0
APPID
  2
GENIUS_GENOBJ-N-CRS_13
 70
     0
  0
APPID
  2
GENIUS_GENOBJ-N-ZOO_13
 70
     0
  0
APPID
  2
GENIUS_GENZOO_13
 70
     0
  0
APPID
  2
GENIUS_GENOBJ-F-TOL_13
 70
     0
  0
APPID
  2
GENIUS_GENFIL_13
 70
     0
  0
APPID
  2
GENIUS_GENOBJ-N-CHA_13
 70
     0
  0
APPID
  2
_CALL_MAC$
 70
     0
  0
APPID
  2
ASM_BASE
 70
     0
  0
APPID
  2
ASM_EXPLO_VER_2_00
 70
     0
  0
APPID
  2
ASM_CADM_VER_12_00
 70
     0
  0
APPID
  2
ASM_BASEFORO
 70
     0
  0
APPID
  2
ASM_BASETRAVI
 70
     0
  0
APPID
  2
ASM_BASETRAVI1
 70
     0
  0
APPID
  2
ASM_GRUPPI
 70
     0
  0
APPID
  2
ASM_CADM_ALBERO
 70
     0
  0
APPID
  2
ASM_GOLE
 70
     0
  0
APPID
  2
ACAD_MLEADERVER
 70
     0
  0
APPID
  2
ACAD_DSTYLE_DIMJAG
 70
     0
  0
APPID
  2
ACAD_DSTYLE_DIMTALN
 70
     0
  0
APPID
  2
ACAD_EXEMPT_FROM_CAD_STANDARDS
 70
     0
  0
APPID
  2
ACAD_DSTYLE_DIMRADIAL_EXTENSION
 70
     0
  0
APPID
  2
ACAD_PSEXT
 70
     0
  0
APPID
  2
ACAD_DSTYLE_DIMBREAK
 70
     0
  0
APPID
  2
ACAECLAYERSTANDARD
 70
     0
  0
APPID
  2
ACCMTRANSPARENCY
 70
     0
  0
APPID
  2
GRADIENTCOLOR1ACI
 70
     0
  0
APPID
  2
GRADIENTCOLOR2ACI
 70
     0
  0
APPID
  2
ACAD_NAV_VCDISPLAY
 70
     0
  0
ENDTAB
  0
TABLE
  2
DIMSTYLE
 70
     1
  0
DIMSTYLE
  2
STANDARD
 70
     0
  3

  4

  5

  6

  7

 40
1.0
 41
0.18
 42
0.0625
 43
0.38
 44
0.18
 45
0.0
 46
0.0
 47
0.0
 48
0.0
140
0.18
141
0.09
142
0.0
143
25.399999999999999
144
1.0
145
0.0
146
1.0
147
0.09
 71
     0
 72
     0
 73
     1
 74
     1
 75
     0
 76
     0
 77
     0
 78
     0
170
     0
171
     2
172
     0
173
     0
174
     0
175
     0
176
     0
177
     0
178
     0
  0
ENDTAB
  0
ENDSEC
  0
SECTION
  2
BLOCKS
  0
BLOCK
  8
0
  2
$MODEL_SPACE
 70
     0
 10
0.0
 20
0.0
 30
0.0
  3
$MODEL_SPACE
  1

  0
ENDBLK
  5
36
  8
0
  0
BLOCK
 67
     1
  8
0
  2
$PAPER_SPACE
 70
     0
 10
0.0
 20
0.0
 30
0.0
  3
$PAPER_SPACE
  1

  0
ENDBLK
  5
34
 67
     1
  8
0
  0
ENDSEC
  0
SECTION
  2
ENTITIES
  0
LINE
  5
97E7
  8
0
 10
315.67492363408701
 20
456.1725174844604
 30
0.0
 11
315.67492363408701
 21
456.27251748446042
 31
0.0
  0
LINE
  5
97E8
  8
0
 10
315.67492363408701
 20
413.27251748446031
 30
0.0
 11
315.67492363408701
 21
413.37251748446022
 31
0.0
  0
CIRCLE
  5
97EE
  8
0
 10
367.37492363408683
 20
434.77251748446042
 30
0.0
 40
11.0
  0
CIRCLE
  5
97EF
  8
0
 10
367.37492363408683
 20
434.77251748446042
 30
0.0
 40
28.025000000000009
  0
CIRCLE
  5
97F0
  8
0
 10
367.37492363408683
 20
434.77251748446042
 30
0.0
 40
31.025000000000009
  0
CIRCLE
  5
97F1
  8
0
 10
367.37492363408683
 20
434.77251748446042
 30
0.0
 40
32.5
  0
CIRCLE
  5
97F2
  8
0
 10
367.37492363408683
 20
434.77251748446042
 30
0.0
 40
36.5
  0
LINE
  5
97F6
  8
0
 10
327.87492363408683
 20
413.27251748446031
 30
0.0
 11
327.87492363408683
 21
456.27251748446042
 31
0.0
  0
LINE
  5
97F9
  8
0
 10
337.8791612265818
 20
456.27251748446042
 30
0.0
 11
315.67492363408701
 21
456.27251748446042
 31
0.0
  0
LINE
  5
97FB
  8
0
 10
315.67492363408701
 20
413.27251748446031
 30
0.0
 11
337.8791612265814
 21
413.27251748446031
 31
0.0
  0
LINE
  5
9804
  8
0
 10
327.87492363408683
 20
413.37251748446022
 30
0.0
 11
269.89158413248242
 21
413.37251748446022
 31
0.0
  0
LINE
  5
9805
  8
0
 10
318.40824463087762
 20
456.1725174844604
 30
0.0
 11
318.40824463087762
 21
413.37251748446022
 31
0.0
  0
LINE
  5
9806
  8
0
 10
327.87492363408683
 20
456.1725174844604
 30
0.0
 11
269.89158413248242
 21
456.1725174844604
 31
0.0
  0
LINE
  5
980E
  8
0
 10
269.89158413248242
 20
456.1725174844604
 30
0.0
 11
269.89158413248242
 21
413.37251748446022
 31
0.0
  0
CIRCLE
  5
981F
  8
0
 10
367.37492363408683
 20
434.77251748446042
 30
0.0
 40
6.0
  0
LINE
  5
9820
  8
1
 10
242.3400010883515
 20
434.77251748445889
 30
0.0
 11
411.42650667821772
 21
434.77251748446042
 31
0.0
  0
LINE
  5
9821
  8
1
 10
367.37492363408683
 20
478.8241005285912
 30
0.0
 11
367.37492363408683
 21
390.72093444032947
 31
0.0
  0
LINE
  5
9823
  8
0
 10
336.18992363408688
 20
413.27251748446031
 30
0.0
 11
336.18992363408688
 21
412.6725174844604
 31
0.0
  0
LINE
  5
9824
  8
0
 10
324.55992363408677
 20
412.6725174844604
 30
0.0
 11
324.55992363408677
 21
413.27251748446031
 31
0.0
  0
LINE
  5
9825
  8
0
 10
334.37492363408683
 20
466.50551748446048
 30
0.0
 11
334.37492363408683
 21
464.27251748446042
 31
0.0
  0
LINE
  5
9826
  8
0
 10
326.37492363408683
 20
464.27251748446042
 30
0.0
 11
326.37492363408683
 21
466.50551748446048
 31
0.0
  0
LINE
  5
9827
  8
0
 10
333.607923634087
 20
467.27251748446031
 30
0.0
 11
334.37492363408683
 21
466.50551748446048
 31
0.0
  0
LINE
  5
9828
  8
0
 10
326.37492363408683
 20
466.50551748446048
 30
0.0
 11
327.14192363408671
 21
467.27251748446031
 31
0.0
  0
LINE
  5
982B
  8
0
 10
336.18992363408688
 20
464.27251748446042
 30
0.0
 11
336.18992363408688
 21
461.77251748446031
 31
0.0
  0
LINE
  5
982C
  8
0
 10
324.55992363408677
 20
461.77251748446031
 30
0.0
 11
324.55992363408677
 21
464.27251748446042
 31
0.0
  0
LINE
  5
9831
  8
0
 10
326.37492363408683
 20
466.50551748446048
 30
0.0
 11
334.37492363408683
 21
466.50551748446048
 31
0.0
  0
LINE
  5
9832
  8
0
 10
327.14192363408671
 20
467.27251748446031
 30
0.0
 11
333.607923634087
 21
467.27251748446031
 31
0.0
  0
LINE
  5
9833
  8
0
 10
324.11659030075361
 20
407.97251748446058
 30
0.0
 11
336.6332569674201
 21
407.97251748446058
 31
0.0
  0
LINE
  5
9834
  8
0
 10
324.11659030075361
 20
412.6725174844604
 30
0.0
 11
336.6332569674201
 21
412.6725174844604
 31
0.0
  0
POLYLINE
  5
983F
  8
0
 66
     1
 10
0.0
 20
0.0
 30
0.0
  0
VERTEX
  5
14489
  8
0
 10
333.50409030075338
 20
412.6725174844604
 30
0.0
  0
VERTEX
  5
1448A
  8
0
 10
333.00165254883808
 20
412.66532735084041
 30
0.0
  0
VERTEX
  5
1448B
  8
0
 10
331.99289200492558
 20
412.6085527670561
 30
0.0
  0
VERTEX
  5
1448C
  8
0
 10
330.9371021122015
 20
412.49394242830277
 30
0.0
  0
VERTEX
  5
1448D
  8
0
 10
330.37492363408683
 20
412.413097775045
 30
0.0
  0
SEQEND
  5
1448E
  8
0
  0
POLYLINE
  5
9840
  8
0
 66
     1
 10
0.0
 20
0.0
 30
0.0
  0
VERTEX
  5
1448F
  8
0
 10
330.37492363408683
 20
408.23193719387598
 30
0.0
  0
VERTEX
  5
14490
  8
0
 10
330.9371021122015
 20
408.1510925406177
 30
0.0
  0
VERTEX
  5
14491
  8
0
 10
331.99289200492558
 20
408.03648220186489
 30
0.0
  0
VERTEX
  5
14492
  8
0
 10
333.00165254883808
 20
407.97970761808023
 30
0.0
  0
VERTEX
  5
14493
  8
0
 10
333.50409030075338
 20
407.97251748446058
 30
0.0
  0
SEQEND
  5
14494
  8
0
  0
POLYLINE
  5
9841
  8
0
 66
     1
 10
0.0
 20
0.0
 30
0.0
  0
VERTEX
  5
14495
  8
0
 10
333.50409030075338
 20
407.97251748446058
 30
0.0
  0
VERTEX
  5
14496
  8
0
 10
334.00652805266918
 20
407.97970761808023
 30
0.0
  0
VERTEX
  5
14497
  8
0
 10
335.01528859658129
 20
408.03648220186489
 30
0.0
  0
VERTEX
  5
14498
  8
0
 10
336.07107848930542
 20
408.1510925406177
 30
0.0
  0
VERTEX
  5
14499
  8
0
 10
336.6332569674201
 20
408.23193719387598
 30
0.0
  0
SEQEND
  5
1449A
  8
0
  0
POLYLINE
  5
9842
  8
0
 66
     1
 10
0.0
 20
0.0
 30
0.0
  0
VERTEX
  5
1449B
  8
0
 10
336.6332569674201
 20
412.413097775045
 30
0.0
  0
VERTEX
  5
1449C
  8
0
 10
336.07107848930542
 20
412.49394242830328
 30
0.0
  0
VERTEX
  5
1449D
  8
0
 10
335.01528859658129
 20
412.6085527670561
 30
0.0
  0
VERTEX
  5
1449E
  8
0
 10
334.00652805266918
 20
412.66532735084041
 30
0.0
  0
VERTEX
  5
1449F
  8
0
 10
333.50409030075338
 20
412.6725174844604
 30
0.0
  0
SEQEND
  5
144A0
  8
0
  0
POLYLINE
  5
9843
  8
0
 66
     1
 10
0.0
 20
0.0
 30
0.0
  0
VERTEX
  5
144A1
  8
0
 10
327.24575696742022
 20
412.6725174844604
 30
0.0
  0
VERTEX
  5
144A2
  8
0
 10
326.74331921550453
 20
412.66532735084041
 30
0.0
  0
VERTEX
  5
144A3
  8
0
 10
325.73455867159242
 20
412.6085527670561
 30
0.0
  0
VERTEX
  5
144A4
  8
0
 10
324.67876877886829
 20
412.49394242830328
 30
0.0
  0
VERTEX
  5
144A5
  8
0
 10
324.11659030075361
 20
412.413097775045
 30
0.0
  0
SEQEND
  5
144A6
  8
0
  0
POLYLINE
  5
9845
  8
0
 66
     1
 10
0.0
 20
0.0
 30
0.0
  0
VERTEX
  5
144A7
  8
0
 10
324.11659030075361
 20
408.23193719387598
 30
0.0
  0
VERTEX
  5
144A8
  8
0
 10
324.67876877886829
 20
408.1510925406177
 30
0.0
  0
VERTEX
  5
144A9
  8
0
 10
325.73455867159242
 20
408.03648220186489
 30
0.0
  0
VERTEX
  5
144AA
  8
0
 10
326.74331921550453
 20
407.97970761808023
 30
0.0
  0
VERTEX
  5
144AB
  8
0
 10
327.24575696742022
 20
407.97251748446058
 30
0.0
  0
SEQEND
  5
144AC
  8
0
  0
POLYLINE
  5
9846
  8
0
 66
     1
 10
0.0
 20
0.0
 30
0.0
  0
VERTEX
  5
144AD
  8
0
 10
327.24575696742022
 20
407.97251748446058
 30
0.0
  0
VERTEX
  5
144AE
  8
0
 10
327.74819471933552
 20
407.97970761808023
 30
0.0
  0
VERTEX
  5
144AF
  8
0
 10
328.75695526324807
 20
408.03648220186489
 30
0.0
  0
VERTEX
  5
144B0
  8
0
 10
329.81274515597221
 20
408.1510925406177
 30
0.0
  0
VERTEX
  5
144B1
  8
0
 10
330.37492363408683
 20
408.23193719387598
 30
0.0
  0
SEQEND
  5
144B2
  8
0
  0
LINE
  5
9847
  8
0
 10
330.37492363408683
 20
408.23193719387598
 30
0.0
 11
330.37492363408683
 21
412.413097775045
 31
0.0
  0
POLYLINE
  5
9848
  8
0
 66
     1
 10
0.0
 20
0.0
 30
0.0
  0
VERTEX
  5
144B3
  8
0
 10
330.37492363408683
 20
412.413097775045
 30
0.0
  0
VERTEX
  5
144B4
  8
0
 10
329.81274515597221
 20
412.49394242830277
 30
0.0
  0
VERTEX
  5
144B5
  8
0
 10
328.75695526324807
 20
412.6085527670561
 30
0.0
  0
VERTEX
  5
144B6
  8
0
 10
327.74819471933552
 20
412.66532735084041
 30
0.0
  0
VERTEX
  5
144B7
  8
0
 10
327.24575696742022
 20
412.6725174844604
 30
0.0
  0
SEQEND
  5
144B8
  8
0
  0
LINE
  5
984C
  8
0
 10
324.55992363408677
 20
464.27251748446042
 30
0.0
 11
336.18992363408688
 21
464.27251748446042
 31
0.0
  0
LINE
  5
984D
  8
0
 10
324.11659030075361
 20
461.77251748446031
 30
0.0
 11
336.6332569674201
 21
461.77251748446031
 31
0.0
  0
POLYLINE
  5
9858
  8
0
 66
     1
 10
0.0
 20
0.0
 30
0.0
  0
VERTEX
  5
144B9
  8
0
 10
333.50409030075338
 20
461.77251748446031
 30
0.0
  0
VERTEX
  5
144BA
  8
0
 10
333.00165254883808
 20
461.76532735084072
 30
0.0
  0
VERTEX
  5
144BB
  8
0
 10
331.99289200492558
 20
461.70855276705601
 30
0.0
  0
VERTEX
  5
144BC
  8
0
 10
330.9371021122015
 20
461.59394242830319
 30
0.0
  0
VERTEX
  5
144BD
  8
0
 10
330.37492363408683
 20
461.51309777504503
 30
0.0
  0
SEQEND
  5
144BE
  8
0
  0
POLYLINE
  5
9859
  8
0
 66
     1
 10
0.0
 20
0.0
 30
0.0
  0
VERTEX
  5
144BF
  8
0
 10
330.37492363408683
 20
456.53193719387622
 30
0.0
  0
VERTEX
  5
144C0
  8
0
 10
330.93710211219792
 20
456.45109254061828
 30
0.0
  0
VERTEX
  5
144C1
  8
0
 10
331.99289200491512
 20
456.33648220186558
 30
0.0
  0
VERTEX
  5
144C2
  8
0
 10
333.00165254882091
 20
456.27970761808081
 30
0.0
  0
VERTEX
  5
144C3
  8
0
 10
333.50409030073303
 20
456.27251748446042
 30
0.0
  0
SEQEND
  5
144C4
  8
0
  0
POLYLINE
  5
985A
  8
0
 66
     1
 10
0.0
 20
0.0
 30
0.0
  0
VERTEX
  5
144C5
  8
0
 10
333.50409030075338
 20
456.27251748446042
 30
0.0
  0
VERTEX
  5
144C6
  8
0
 10
334.00652805266918
 20
456.27970761808041
 30
0.0
  0
VERTEX
  5
144C7
  8
0
 10
335.01528859658129
 20
456.33648220186473
 30
0.0
  0
VERTEX
  5
144C8
  8
0
 10
336.07107848930542
 20
456.45109254061788
 30
0.0
  0
VERTEX
  5
144C9
  8
0
 10
336.6332569674201
 20
456.53193719387622
 30
0.0
  0
SEQEND
  5
144CA
  8
0
  0
POLYLINE
  5
985B
  8
0
 66
     1
 10
0.0
 20
0.0
 30
0.0
  0
VERTEX
  5
144CB
  8
0
 10
336.6332569674201
 20
461.51309777504503
 30
0.0
  0
VERTEX
  5
144CC
  8
0
 10
336.07107848930542
 20
461.59394242830319
 30
0.0
  0
VERTEX
  5
144CD
  8
0
 10
335.01528859658129
 20
461.70855276705601
 30
0.0
  0
VERTEX
  5
144CE
  8
0
 10
334.00652805266918
 20
461.76532735084072
 30
0.0
  0
VERTEX
  5
144CF
  8
0
 10
333.50409030075338
 20
461.77251748446031
 30
0.0
  0
SEQEND
  5
144D0
  8
0
  0
POLYLINE
  5
985C
  8
0
 66
     1
 10
0.0
 20
0.0
 30
0.0
  0
VERTEX
  5
144D1
  8
0
 10
327.24575696742022
 20
461.77251748446031
 30
0.0
  0
VERTEX
  5
144D2
  8
0
 10
326.74331921550453
 20
461.76532735084072
 30
0.0
  0
VERTEX
  5
144D3
  8
0
 10
325.73455867159242
 20
461.70855276705601
 30
0.0
  0
VERTEX
  5
144D4
  8
0
 10
324.67876877886829
 20
461.59394242830319
 30
0.0
  0
VERTEX
  5
144D5
  8
0
 10
324.11659030075361
 20
461.51309777504503
 30
0.0
  0
SEQEND
  5
144D6
  8
0
  0
POLYLINE
  5
985E
  8
0
 66
     1
 10
0.0
 20
0.0
 30
0.0
  0
VERTEX
  5
144D7
  8
0
 10
324.11659030075361
 20
456.53193719387622
 30
0.0
  0
VERTEX
  5
144D8
  8
0
 10
324.67876877886511
 20
456.45109254061828
 30
0.0
  0
VERTEX
  5
144D9
  8
0
 10
325.73455867158327
 20
456.33648220186558
 30
0.0
  0
VERTEX
  5
144DA
  8
0
 10
326.74331921549037
 20
456.27970761808081
 30
0.0
  0
VERTEX
  5
144DB
  8
0
 10
327.24575696740288
 20
456.27251748446042
 30
0.0
  0
SEQEND
  5
144DC
  8
0
  0
POLYLINE
  5
985F
  8
0
 66
     1
 10
0.0
 20
0.0
 30
0.0
  0
VERTEX
  5
144DD
  8
0
 10
327.24575696742022
 20
456.27251748446042
 30
0.0
  0
VERTEX
  5
144DE
  8
0
 10
327.74819471933552
 20
456.27970761808041
 30
0.0
  0
VERTEX
  5
144DF
  8
0
 10
328.75695526324807
 20
456.33648220186473
 30
0.0
  0
VERTEX
  5
144E0
  8
0
 10
329.81274515597221
 20
456.45109254061788
 30
0.0
  0
VERTEX
  5
144E1
  8
0
 10
330.37492363408683
 20
456.53193719387622
 30
0.0
  0
SEQEND
  5
144E2
  8
0
  0
LINE
  5
9860
  8
0
 10
330.37492363408683
 20
456.53193719387622
 30
0.0
 11
330.37492363408683
 21
461.51309777504503
 31
0.0
  0
POLYLINE
  5
9861
  8
0
 66
     1
 10
0.0
 20
0.0
 30
0.0
  0
VERTEX
  5
144E3
  8
0
 10
330.37492363408683
 20
461.51309777504503
 30
0.0
  0
VERTEX
  5
144E4
  8
0
 10
329.81274515597221
 20
461.59394242830319
 30
0.0
  0
VERTEX
  5
144E5
  8
0
 10
328.75695526324807
 20
461.70855276705601
 30
0.0
  0
VERTEX
  5
144E6
  8
0
 10
327.74819471933552
 20
461.76532735084072
 30
0.0
  0
VERTEX
  5
144E7
  8
0
 10
327.24575696742022
 20
461.77251748446031
 30
0.0
  0
SEQEND
  5
144E8
  8
0
  0
LINE
  5
986A
  8
1
 10
330.37492363408683
 20
400.42093444032969
 30
0.0
 11
330.37492363408683
 21
474.8241005285912
 31
0.0
  0
LINE
  5
9998
  8
0
 10
378.37492363408819
 20
292.44368873142002
 30
0.0
 11
378.37492363408819
 21
295.74368873142021
 31
0.0
  0
LINE
  5
9999
  8
0
 10
356.37492363408819
 20
295.74368873142021
 30
0.0
 11
356.37492363408819
 21
292.44368873142002
 31
0.0
  0
ARC
  5
999A
  8
0
 10
339.34992363408679
 20
289.44368873142002
 30
0.0
 40
2.9999999999999849
 50
90.0
 51
180.0
  0
ARC
  5
999B
  8
0
 10
395.39992363408692
 20
289.44368873142002
 30
0.0
 40
3.0
 50
0.0
 51
90.0
  0
LINE
  5
999C
  8
0
 10
398.39992363408692
 20
288.94368873142002
 30
0.0
 11
398.39992363408692
 21
289.44368873142002
 31
0.0
  0
LINE
  5
999D
  8
0
 10
336.34992363408668
 20
289.44368873142002
 30
0.0
 11
336.34992363408668
 21
288.94368873142002
 31
0.0
  0
ARC
  5
999E
  8
0
 10
334.87492363408683
 20
284.94368873142002
 30
0.0
 40
4.0000000000000142
 50
90.0
 51
180.0
  0
ARC
  5
999F
  8
0
 10
399.87492363408683
 20
284.94368873142002
 30
0.0
 40
4.0000000000000284
 50
0.0
 51
90.0
  0
LINE
  5
99A0
  8
0
 10
403.87492363408671
 20
283.94368873141991
 30
0.0
 11
403.87492363408671
 21
284.94368873142002
 31
0.0
  0
LINE
  5
99A1
  8
0
 10
330.87492363408683
 20
284.94368873142002
 30
0.0
 11
330.87492363408683
 21
283.94368873141991
 31
0.0
  0
LINE
  5
99A2
  8
0
 10
334.37492363408683
 20
283.94368873141991
 30
0.0
 11
334.37492363408683
 21
281.94368873142002
 31
0.0
  0
LINE
  5
99A5
  8
2
 10
373.37492363408683
 20
281.74368873142009
 30
0.0
 11
373.37492363408683
 21
295.74368873142021
 31
0.0
  0
LINE
  5
99A6
  8
2
 10
361.37492363408683
 20
295.74368873142021
 30
0.0
 11
361.37492363408683
 21
281.74368873142009
 31
0.0
  0
LINE
  5
99A7
  8
0
 10
356.37492363408819
 20
295.74368873142021
 30
0.0
 11
378.37492363408819
 21
295.74368873142021
 31
0.0
  0
LINE
  5
99A8
  8
0
 10
339.34992363408679
 20
292.44368873142002
 30
0.0
 11
395.39992363408692
 21
292.44368873142002
 31
0.0
  0
LINE
  5
99AA
  8
0
 10
334.87492363408683
 20
288.94368873142002
 30
0.0
 11
399.87492363408683
 21
288.94368873142002
 31
0.0
  0
LINE
  5
99AC
  8
0
 10
330.87492363408683
 20
283.94368873141991
 30
0.0
 11
403.87492363408671
 21
283.94368873141991
 31
0.0
  0
LINE
  5
99AD
  8
0
 10
342.33994809984688
 20
281.94368873142002
 30
0.0
 11
327.87492363408683
 21
281.94368873142002
 31
0.0
  0
LINE
  5
99AE
  8
0
 10
342.33994809984688
 20
281.94368873142002
 30
0.0
 11
342.33994809984688
 21
195.37204995221251
 31
0.0
  0
LINE
  5
99AF
  8
0
 10
327.87492363408683
 20
281.94368873142002
 30
0.0
 11
327.87492363408683
 21
278.24368873142009
 31
0.0
  0
LINE
  5
99B0
  8
0
 10
327.87492363408683
 20
278.24368873142009
 30
0.0
 11
315.8040010728032
 21
203.8452154371416
 31
0.0
  0
LINE
  5
99B1
  8
0
 10
325.67492363408701
 20
192.24368873142009
 30
0.0
 11
335.07492363408659
 21
192.24368873142009
 31
0.0
  0
POLYLINE
  5
99B2
  8
0
 66
     1
 10
0.0
 20
0.0
 30
0.0
  0
VERTEX
  5
144E9
  8
0
 10
343.44757034297248
 20
196.77571039494271
 30
0.0
  0
VERTEX
  5
144EA
  8
0
 10
343.69963304870129
 20
197.16167241850701
 30
0.0
  0
VERTEX
  5
144EB
  8
0
 10
344.21236448397298
 20
197.9467741325044
 30
0.0
  0
VERTEX
  5
144EC
  8
0
 10
344.73636221038811
 20
198.74912695278971
 30
0.0
  0
VERTEX
  5
144ED
  8
0
 10
345.00250649564941
 20
199.15665089252809
 30
0.0
  0
VERTEX
  5
144EE
  8
0
 10
345.27137135494598
 20
199.56834061417629
 30
0.0
  0
VERTEX
  5
144EF
  8
0
 10
345.81713168868231
 20
200.4040166503477
 30
0.0
  0
VERTEX
  5
144F0
  8
0
 10
346.37337775324391
 20
201.25574858767291
 30
0.0
  0
VERTEX
  5
144F1
  8
0
 10
346.93983899000699
 20
202.12312214291489
 30
0.0
  0
VERTEX
  5
144F2
  8
0
 10
347.51623987167932
 20
203.0057154247385
 30
0.0
  0
VERTEX
  5
144F3
  8
0
 10
348.10230003631523
 20
203.9030991389192
 30
0.0
  0
VERTEX
  5
144F4
  8
0
 10
348.39886344817342
 20
204.35720128078489
 30
0.0
  0
VERTEX
  5
144F5
  8
0
 10
348.69773442368432
 20
204.8148367971514
 30
0.0
  0
VERTEX
  5
144F6
  8
0
 10
349.30225341392588
 20
205.74048492935751
 30
0.0
  0
VERTEX
  5
144F7
  8
0
 10
349.91556296841873
 20
206.679593299392
 30
0.0
  0
VERTEX
  5
144F8
  8
0
 10
350.5373647728033
 20
207.63170512403639
 30
0.0
  0
VERTEX
  5
144F9
  8
0
 10
351.16735638208178
 20
208.59635729518001
 30
0.0
  0
VERTEX
  5
144FA
  8
0
 10
351.80523136772632
 20
209.57308060507461
 30
0.0
  0
VERTEX
  5
144FB
  8
0
 10
352.12702831516572
 20
210.06582069786819
 30
0.0
  0
VERTEX
  5
144FC
  8
0
 10
352.45067946672822
 20
210.5613999745589
 30
0.0
  0
VERTEX
  5
144FD
  8
0
 10
353.10338673250772
 20
211.5608346841374
 30
0.0
  0
VERTEX
  5
144FE
  8
0
 10
353.7630356876216
 20
212.5708986078013
 30
0.0
  0
VERTEX
  5
144FF
  8
0
 10
354.0953631594744
 20
213.0797631903321
 30
0.0
  0
VERTEX
  5
14500
  8
0
 10
354.42930547818008
 20
213.59110044948301
 30
0.0
  0
VERTEX
  5
14501
  8
0
 10
355.10187202991392
 20
214.62094398202129
 30
0.0
  0
VERTEX
  5
14502
  8
0
 10
355.7804082058023
 20
215.65992828852691
 30
0.0
  0
VERTEX
  5
14503
  8
0
 10
356.12181187414399
 20
216.18269047305759
 30
0.0
  0
VERTEX
  5
14504
  8
0
 10
356.46458396519438
 20
216.70754800603001
 30
0.0
  0
VERTEX
  5
14505
  8
0
 10
357.15406652433973
 20
217.7632935712879
 30
0.0
  0
VERTEX
  5
14506
  8
0
 10
357.8485205182555
 20
218.82665146863761
 30
0.0
  0
VERTEX
  5
14507
  8
0
 10
358.54760816384851
 20
219.8971044797712
 30
0.0
  0
VERTEX
  5
14508
  8
0
 10
359.25098942421249
 20
220.97413193531011
 30
0.0
  0
VERTEX
  5
14509
  8
0
 10
359.95832217402312
 20
222.05720996805931
 30
0.0
  0
VERTEX
  5
1450A
  8
0
 10
360.31336291318797
 20
222.60085343066379
 30
0.0
  0
VERTEX
  5
1450B
  8
0
 10
360.66926236594742
 20
223.14581176781769
 30
0.0
  0
VERTEX
  5
1450C
  8
0
 10
361.38346419798972
 20
224.2394078376187
 30
0.0
  0
VERTEX
  5
1450D
  8
0
 10
362.10058028168851
 20
225.33746625127711
 30
0.0
  0
VERTEX
  5
1450E
  8
0
 10
362.82026181108859
 20
226.4394529121202
 30
0.0
  0
VERTEX
  5
1450F
  8
0
 10
363.542158732399
 20
227.54483181277209
 30
0.0
  0
VERTEX
  5
14510
  8
0
 10
364.26591991425948
 20
228.65306529586701
 30
0.0
  0
VERTEX
  5
14511
  8
0
 10
364.62838962171958
 20
229.20808410107881
 30
0.0
  0
VERTEX
  5
14512
  8
0
 10
364.99119331853223
 20
229.7636143155689
 30
0.0
  0
VERTEX
  5
14513
  8
0
 10
365.71762617153257
 20
230.87593869976189
 30
0.0
  0
VERTEX
  5
14514
  8
0
 10
366.4448651356202
 20
231.98949741279071
 30
0.0
  0
VERTEX
  5
14515
  8
0
 10
367.17255648105947
 20
233.10374881862219
 30
0.0
  0
VERTEX
  5
14516
  8
0
 10
367.90034625807721
 20
234.21815094429641
 30
0.0
  0
VERTEX
  5
14517
  8
0
 10
368.62788046902318
 20
235.3321617435424
 30
0.0
  0
VERTEX
  5
14518
  8
0
 10
368.99144114223691
 20
235.88885105113411
 30
0.0
  0
VERTEX
  5
14519
  8
0
 10
369.35480524055492
 20
236.44523936043171
 30
0.0
  0
VERTEX
  5
1451A
  8
0
 10
370.08076699576083
 20
237.5568423929366
 30
0.0
  0
VERTEX
  5
1451B
  8
0
 10
370.80541262614128
 20
238.66643015626821
 30
0.0
  0
VERTEX
  5
1451C
  8
0
 10
371.52838966336321
 20
239.77346294586661
 30
0.0
  0
VERTEX
  5
1451D
  8
0
 10
372.24934645069652
 20
240.8774022999134
 30
0.0
  0
VERTEX
  5
1451E
  8
0
 10
372.96793231406349
 20
241.97771126124121
 30
0.0
  0
VERTEX
  5
1451F
  8
0
 10
373.32622687429102
 20
242.5263370212389
 30
0.0
  0
VERTEX
  5
14520
  8
0
 10
373.68379773260631
 20
243.07385463850801
 30
0.0
  0
VERTEX
  5
14521
  8
0
 10
374.39659450869391
 20
244.165299266516
 30
0.0
  0
VERTEX
  5
14522
  8
0
 10
375.10597593728562
 20
245.2515142655445
 30
0.0
  0
VERTEX
  5
14523
  8
0
 10
375.81159697457002
 20
246.33197129956841
 30
0.0
  0
VERTEX
  5
14524
  8
0
 10
376.51311440579229
 20
247.40614483324291
 30
0.0
  0
VERTEX
  5
14525
  8
0
 10
377.21018701219691
 20
248.4735123875239
 30
0.0
  0
VERTEX
  5
14526
  8
0
 10
377.55695046187702
 20
249.00448154597069
 30
0.0
  0
VERTEX
  5
14527
  8
0
 10
377.90247573699429
 20
249.53355479380161
 30
0.0
  0
VERTEX
  5
14528
  8
0
 10
378.58964385028048
 20
250.58575644642599
 30
0.0
  0
VERTEX
  5
14529
  8
0
 10
379.27135711282108
 20
251.6296055534967
 30
0.0
  0
VERTEX
  5
1452A
  8
0
 10
379.6100644463786
 20
252.14823907160451
 30
0.0
  0
VERTEX
  5
1452B
  8
0
 10
379.9472839386267
 20
252.6645943858
 30
0.0
  0
VERTEX
  5
1452C
  8
0
 10
380.61709555623702
 20
253.69021952376801
 30
0.0
  0
VERTEX
  5
1452D
  8
0
 10
381.28046616863372
 20
254.705982102343
 30
0.0
  0
VERTEX
  5
1452E
  8
0
 10
381.60963513866182
 20
255.21001034166301
 30
0.0
  0
VERTEX
  5
1452F
  8
0
 10
381.93707311170971
 20
255.71138805362571
 30
0.0
  0
VERTEX
  5
14530
  8
0
 10
382.58659701121451
 20
256.70594834719049
 30
0.0
  0
VERTEX
  5
14531
  8
0
 10
383.22872193809599
 20
257.6891792279493
 30
0.0
  0
VERTEX
  5
14532
  8
0
 10
383.86313556216879
 20
258.66060245145258
 30
0.0
  0
VERTEX
  5
14533
  8
0
 10
384.48952930403402
 20
259.61974551650599
 30
0.0
  0
VERTEX
  5
14534
  8
0
 10
385.10759848517091
 20
260.56614189499618
 30
0.0
  0
VERTEX
  5
14535
  8
0
 10
385.41341725658413
 20
261.03441597591399
 30
0.0
  0
VERTEX
  5
14536
  8
0
 10
385.71704247613161
 20
261.49933125881051
 30
0.0
  0
VERTEX
  5
14537
  8
0
 10
386.31756484277088
 20
262.41885970374108
 30
0.0
  0
VERTEX
  5
14538
  8
0
 10
386.90887349042993
 20
263.32427997026451
 30
0.0
  0
VERTEX
  5
14539
  8
0
 10
387.49068080601091
 20
264.21515166108787
 30
0.0
  0
VERTEX
  5
1453A
  8
0
 10
388.06270379787338
 20
265.09104145536071
 30
0.0
  0
VERTEX
  5
1453B
  8
0
 10
388.62466423348229
 20
265.95152331944081
 30
0.0
  0
VERTEX
  5
1453C
  8
0
 10
388.9017853796945
 20
266.37585518581272
 30
0.0
  0
VERTEX
  5
1453D
  8
0
 10
389.17628877473823
 20
266.79617871411892
 30
0.0
  0
VERTEX
  5
1453E
  8
0
 10
389.71730911093158
 20
267.62459679819472
 30
0.0
  0
VERTEX
  5
1453F
  8
0
 10
390.24746208924898
 20
268.43637462831168
 30
0.0
  0
VERTEX
  5
14540
  8
0
 10
390.76648984276881
 20
269.23111735494979
 30
0.0
  0
VERTEX
  5
14541
  8
0
 10
391.27413991589128
 20
270.0084384144788
 30
0.0
  0
VERTEX
  5
14542
  8
0
 10
391.77016538713002
 20
270.76795971718468
 30
0.0
  0
VERTEX
  5
14543
  8
0
 10
392.0137432769256
 20
271.1409296691229
 30
0.0
  0
VERTEX
  5
14544
  8
0
 10
392.25432498921651
 20
271.50931183117223
 30
0.0
  0
VERTEX
  5
14545
  8
0
 10
392.72638322645298
 20
272.23213416205652
 30
0.0
  0
VERTEX
  5
14546
  8
0
 10
393.18611048925641
 20
272.93607512835842
 30
0.0
  0
VERTEX
  5
14547
  8
0
 10
393.6332831658429
 20
273.62079233251183
 30
0.0
  0
VERTEX
  5
14548
  8
0
 10
394.06768375099
 20
274.28595272740722
 30
0.0
  0
VERTEX
  5
14549
  8
0
 10
394.48910095183368
 20
274.93123277838538
 30
0.0
  0
VERTEX
  5
1454A
  8
0
 10
394.69487647816783
 20
275.24631921020949
 30
0.0
  0
VERTEX
  5
1454B
  8
0
 10
394.89732979064053
 20
275.55631862060773
 30
0.0
  0
VERTEX
  5
1454C
  8
0
 10
395.2921717045088
 20
276.16090621171543
 30
0.0
  0
VERTEX
  5
1454D
  8
0
 10
395.67343464195028
 20
276.74470147972067
 30
0.0
  0
VERTEX
  5
1454E
  8
0
 10
396.04093315630462
 20
277.30742046604098
 30
0.0
  0
VERTEX
  5
1454F
  8
0
 10
396.39448849593828
 20
277.84878946361857
 30
0.0
  0
VERTEX
  5
14550
  8
0
 10
396.7339286911934
 20
278.3685451500495
 30
0.0
  0
VERTEX
  5
14551
  8
0
 10
396.89830374425952
 20
278.62023858451261
 30
0.0
  0
VERTEX
  5
14552
  8
0
 10
397.05908863803103
 20
278.8664347156664
 30
0.0
  0
VERTEX
  5
14553
  8
0
 10
397.36981017833841
 20
279.34221598650259
 30
0.0
  0
VERTEX
  5
14554
  8
0
 10
397.66594217685861
 20
279.79565754208937
 30
0.0
  0
VERTEX
  5
14555
  8
0
 10
397.80849180665427
 20
280.01393157598562
 30
0.0
  0
VERTEX
  5
14556
  8
0
 10
397.94734059470193
 20
280.22653882801609
 30
0.0
  0
VERTEX
  5
14557
  8
0
 10
398.21386855940551
 20
280.63465026320858
 30
0.0
  0
VERTEX
  5
14558
  8
0
 10
398.46539643150982
 20
281.01979334187081
 30
0.0
  0
VERTEX
  5
14559
  8
0
 10
398.58549681387149
 20
281.20369276671039
 30
0.0
  0
VERTEX
  5
1455A
  8
0
 10
398.70180186761581
 20
281.38178073003741
 30
0.0
  0
VERTEX
  5
1455B
  8
0
 10
398.92296987988988
 20
281.72043635669291
 30
0.0
  0
VERTEX
  5
1455C
  8
0
 10
399.12879289199782
 20
282.03559549941332
 30
0.0
  0
VERTEX
  5
1455D
  8
0
 10
399.31917079142789
 20
282.32710486448781
 30
0.0
  0
VERTEX
  5
1455E
  8
0
 10
399.49401097818549
 20
282.5948226614791
 30
0.0
  0
VERTEX
  5
1455F
  8
0
 10
399.65322840983532
 20
282.83861867219218
 30
0.0
  0
VERTEX
  5
14560
  8
0
 10
399.72695409350848
 20
282.95150849449641
 30
0.0
  0
VERTEX
  5
14561
  8
0
 10
399.79674564286461
 20
283.05837431401221
 30
0.0
  0
VERTEX
  5
14562
  8
0
 10
399.92449287035242
 20
283.25398269758261
 30
0.0
  0
VERTEX
  5
14563
  8
0
 10
400.03640795592401
 20
283.42534867879652
 30
0.0
  0
VERTEX
  5
14564
  8
0
 10
400.13243646397399
 20
283.572388905075
 30
0.0
  0
VERTEX
  5
14565
  8
0
 10
400.21253168614288
 20
283.6950318559106
 30
0.0
  0
VERTEX
  5
14566
  8
0
 10
400.27665466403732
 20
283.79321787765321
 30
0.0
  0
VERTEX
  5
14567
  8
0
 10
400.30271651075589
 20
283.83312415045242
 30
0.0
  0
VERTEX
  5
14568
  8
0
 10
400.32477420817941
 20
283.86689921252707
 30
0.0
  0
VERTEX
  5
14569
  8
0
 10
400.35686691317591
 20
283.91604002185932
 30
0.0
  0
VERTEX
  5
1456A
  8
0
 10
400.37291716910391
 20
283.9406164035135
 30
0.0
  0
VERTEX
  5
1456B
  8
0
 10
400.37492363408683
 20
283.94368873141991
 30
0.0
  0
SEQEND
  5
1456C
  8
0
  0
ARC
  5
99B3
  8
0
 10
325.67492363408701
 20
202.24368873142021
 30
0.0
 40
9.9999999999999982
 50
170.78424212497441
 51
270.0
  0
ARC
  5
99B4
  8
0
 10
335.07492363408659
 20
202.24368873142021
 30
0.0
 40
9.9999999999999947
 50
270.0
 51
316.59397758948558
  0
POLYLINE
  5
99B5
  8
0
 66
     1
 10
0.0
 20
0.0
 30
0.0
  0
VERTEX
  5
1456D
  8
0
 10
342.33994809984688
 20
195.37204995221251
 30
0.0
  0
VERTEX
  5
1456E
  8
0
 10
342.53127078283478
 20
195.58013958720599
 30
0.0
  0
VERTEX
  5
1456F
  8
0
 10
342.75242851898969
 20
195.8361994616447
 30
0.0
  0
VERTEX
  5
14570
  8
0
 10
342.81503531163611
 20
195.91196927940189
 30
0.0
  0
VERTEX
  5
14571
  8
0
 10
342.87732678157039
 20
195.98889016358919
 30
0.0
  0
VERTEX
  5
14572
  8
0
 10
342.90834459440111
 20
196.027780426232
 30
0.0
  0
VERTEX
  5
14573
  8
0
 10
342.93927198525807
 20
196.06695618002749
 30
0.0
  0
VERTEX
  5
14574
  8
0
 10
343.00084015353599
 20
196.14616076291341
 30
0.0
  0
VERTEX
  5
14575
  8
0
 10
343.06200073827722
 20
196.2264967507935
 30
0.0
  0
VERTEX
  5
14576
  8
0
 10
343.12272370189339
 20
196.3079567572978
 30
0.0
  0
VERTEX
  5
14577
  8
0
 10
343.18298050789548
 20
196.3905345619925
 30
0.0
  0
VERTEX
  5
14578
  8
0
 10
343.24274139033508
 20
196.47422141625881
 30
0.0
  0
VERTEX
  5
14579
  8
0
 10
343.2724265208912
 20
196.51647768058291
 30
0.0
  0
VERTEX
  5
1457A
  8
0
 10
343.30197649201273
 20
196.55900744986241
 30
0.0
  0
VERTEX
  5
1457B
  8
0
 10
343.36065619923829
 20
196.64488208546541
 30
0.0
  0
VERTEX
  5
1457C
  8
0
 10
343.41875118924958
 20
196.73183407715871
 30
0.0
  0
VERTEX
  5
1457D
  8
0
 10
343.44757034297209
 20
196.77571039494271
 30
0.0
  0
SEQEND
  5
1457E
  8
0
  0
LINE
  5
99B7
  8
2
 10
336.87492363408683
 20
281.74368873142009
 30
0.0
 11
397.87492363408683
 21
281.74368873142009
 31
0.0
  0
LINE
  5
99BC
  8
0
 10
318.40824463087762
 20
281.74368873142009
 30
0.0
 11
269.89158413248242
 21
268.74368873142021
 31
0.0
  0
LINE
  5
99BD
  8
0
 10
327.87492363408683
 20
281.74368873142009
 30
0.0
 11
318.40824463087762
 21
281.74368873142009
 31
0.0
  0
LINE
  5
99BE
  8
0
 10
273.37492363408683
 20
255.74368873142021
 30
0.0
 11
324.22436811052648
 21
255.74368873142021
 31
0.0
  0
LINE
  5
99C2
  8
0
 10
269.89158413248242
 20
268.74368873142021
 30
0.0
 11
273.37492363408683
 21
255.74368873142021
 31
0.0
  0
ARC
  5
99E2
  8
0
 10
330.37492363408683
 20
202.24368873142021
 30
0.0
 40
62.500000000000071
 50
121.1296133227642
 51
43.969309746330801
  0
ARC
  5
99E4
  8
0
 10
330.37492363408683
 20
202.24368873142021
 30
0.0
 40
51.897929133429727
 50
97.168587627650851
 51
41.276734961200688
  0
ARC
  5
99EC
  8
0
 10
330.37492363408683
 20
202.24368873142021
 30
0.0
 40
20.033056072867549
 50
127.7342934819815
 51
12.698731678918129
  0
ARC
  5
99F5
  8
0
 10
330.37492363408683
 20
202.24368873142021
 30
0.0
 40
58.480766068853796
 50
113.8183047465325
 51
43.066996039379312
  0
ARC
  5
9A6F
  8
0
 10
78.181797370378717
 20
289.44368873153462
 30
0.0
 40
2.9999999999999849
 50
90.0
 51
180.0
  0
ARC
  5
9A70
  8
0
 10
134.2317973703789
 20
289.44368873153462
 30
0.0
 40
2.9999999999999849
 50
0.0
 51
90.0
  0
LINE
  5
9A71
  8
0
 10
137.2317973703789
 20
288.94368873153462
 30
0.0
 11
137.2317973703789
 21
289.44368873153462
 31
0.0
  0
LINE
  5
9A72
  8
0
 10
75.181797370378717
 20
289.44368873153462
 30
0.0
 11
75.181797370378717
 21
288.94368873153462
 31
0.0
  0
ARC
  5
9A73
  8
0
 10
73.706797370378808
 20
284.94368873153451
 30
0.0
 40
4.0000000000000142
 50
90.0
 51
180.0
  0
ARC
  5
9A74
  8
0
 10
138.70679737037881
 20
284.94368873153451
 30
0.0
 40
4.0000000000000142
 50
0.0
 51
90.0
  0
LINE
  5
9A75
  8
0
 10
142.70679737037881
 20
283.94368873153462
 30
0.0
 11
142.70679737037881
 21
284.94368873153451
 31
0.0
  0
LINE
  5
9A76
  8
0
 10
69.706797370378808
 20
284.94368873153451
 30
0.0
 11
69.706797370378808
 21
283.94368873153462
 31
0.0
  0
LINE
  5
9A77
  8
0
 10
139.20679737037881
 20
233.41361630055869
 30
0.0
 11
139.20679737037881
 21
283.94368873153462
 31
0.0
  0
LINE
  5
9A78
  8
0
 10
73.206797370378808
 20
283.94368873153462
 30
0.0
 11
73.206797370378808
 21
233.41361630055869
 31
0.0
  0
LINE
  5
9A7A
  8
0
 10
78.181797370378717
 20
292.44368873153462
 30
0.0
 11
134.2317973703789
 21
292.44368873153462
 31
0.0
  0
LINE
  5
9A7B
  8
0
 10
73.706797370378808
 20
288.94368873153462
 30
0.0
 11
138.70679737037881
 21
288.94368873153462
 31
0.0
  0
LINE
  5
9A7C
  8
0
 10
69.706797370378808
 20
283.94368873153462
 30
0.0
 11
142.70679737037881
 21
283.94368873153462
 31
0.0
  0
LINE
  5
9A7D
  8
0
 10
127.70679737037879
 20
281.94368873153462
 30
0.0
 11
84.706797370378808
 21
281.94368873153462
 31
0.0
  0
LINE
  5
9A7E
  8
0
 10
127.70679737037879
 20
195.3720499523269
 30
0.0
 11
127.70679737037879
 21
281.94368873153462
 31
0.0
  0
LINE
  5
9A7F
  8
0
 10
84.706797370378808
 20
281.94368873153462
 30
0.0
 11
84.706797370378808
 21
192.24368873153449
 31
0.0
  0
POLYLINE
  5
9A80
  8
0
 66
     1
 10
0.0
 20
0.0
 30
0.0
  0
VERTEX
  5
1457F
  8
0
 10
77.667312917152231
 20
208.0586887315346
 30
0.0
  0
VERTEX
  5
14580
  8
0
 10
77.539737771007822
 20
208.38401342574909
 30
0.0
  0
VERTEX
  5
14581
  8
0
 10
76.832474764119056
 20
210.3868220038286
 30
0.0
  0
VERTEX
  5
14582
  8
0
 10
76.18485191512309
 20
212.4363830352676
 30
0.0
  0
VERTEX
  5
14583
  8
0
 10
75.883821261225876
 20
213.47739878468289
 30
0.0
  0
VERTEX
  5
14584
  8
0
 10
75.598184125115026
 20
214.52853519368699
 30
0.0
  0
VERTEX
  5
14585
  8
0
 10
75.073662535081439
 20
216.65903067781019
 30
0.0
  0
VERTEX
  5
14586
  8
0
 10
74.612352107469164
 20
218.82354383598721
 30
0.0
  0
VERTEX
  5
14587
  8
0
 10
74.215189463935076
 20
221.01767994878031
 30
0.0
  0
VERTEX
  5
14588
  8
0
 10
73.882980983679772
 20
223.2369841517847
 30
0.0
  0
VERTEX
  5
14589
  8
0
 10
73.616401166214004
 20
225.47695048056119
 30
0.0
  0
VERTEX
  5
1458A
  8
0
 10
73.507896383715433
 20
226.60326210516669
 30
0.0
  0
VERTEX
  5
1458B
  8
0
 10
73.415991261887484
 20
227.7330310193226
 30
0.0
  0
VERTEX
  5
1458C
  8
0
 10
73.282158172964046
 20
230.00064513479441
 30
0.0
  0
VERTEX
  5
1458D
  8
0
 10
73.215173627463614
 20
232.27518877650391
 30
0.0
  0
VERTEX
  5
1458E
  8
0
 10
73.206797370378808
 20
233.41361630055869
 30
0.0
  0
SEQEND
  5
1458F
  8
0
  0
POLYLINE
  5
9A81
  8
0
 66
     1
 10
0.0
 20
0.0
 30
0.0
  0
VERTEX
  5
14590
  8
0
 10
139.20679737037881
 20
233.41361630055869
 30
0.0
  0
VERTEX
  5
14591
  8
0
 10
139.19842111329351
 20
232.27518877650391
 30
0.0
  0
VERTEX
  5
14592
  8
0
 10
139.13143656779349
 20
230.00064513479441
 30
0.0
  0
VERTEX
  5
14593
  8
0
 10
138.99760347886971
 20
227.7330310193226
 30
0.0
  0
VERTEX
  5
14594
  8
0
 10
138.9056983570417
 20
226.60326210516669
 30
0.0
  0
VERTEX
  5
14595
  8
0
 10
138.7971935745436
 20
225.47695048056099
 30
0.0
  0
VERTEX
  5
14596
  8
0
 10
138.53061375707739
 20
223.2369841517845
 30
0.0
  0
VERTEX
  5
14597
  8
0
 10
138.19840527682251
 20
221.01767994878031
 30
0.0
  0
VERTEX
  5
14598
  8
0
 10
137.80124263328841
 20
218.82354383598721
 30
0.0
  0
VERTEX
  5
14599
  8
0
 10
137.33993220567569
 20
216.65903067781019
 30
0.0
  0
VERTEX
  5
1459A
  8
0
 10
136.81541061564249
 20
214.52853519368699
 30
0.0
  0
VERTEX
  5
1459B
  8
0
 10
136.52977347953129
 20
213.47739878468289
 30
0.0
  0
VERTEX
  5
1459C
  8
0
 10
136.22874282563399
 20
212.4363830352676
 30
0.0
  0
VERTEX
  5
1459D
  8
0
 10
135.58111997663809
 20
210.3868220038286
 30
0.0
  0
VERTEX
  5
1459E
  8
0
 10
134.8738569697498
 20
208.38401342574909
 30
0.0
  0
VERTEX
  5
1459F
  8
0
 10
134.10838979646309
 20
206.43202370356099
 30
0.0
  0
VERTEX
  5
145A0
  8
0
 10
133.28627262310459
 20
204.53481605972911
 30
0.0
  0
VERTEX
  5
145A1
  8
0
 10
133.00679737037851
 20
203.94897979030199
 30
0.0
  0
SEQEND
  5
145A2
  8
0
  0
LINE
  5
9A82
  8
0
 10
84.706797370378808
 20
192.24368873153449
 30
0.0
 11
87.706797370378794
 21
192.24368873153449
 31
0.0
  0
POLYLINE
  5
9A84
  8
0
 66
     1
 10
0.0
 20
0.0
 30
0.0
  0
VERTEX
  5
145A3
  8
0
 10
128.30844334677749
 20
195.97921253065229
 30
0.0
  0
VERTEX
  5
145A4
  8
0
 10
128.24793812100091
 20
195.91196927951631
 30
0.0
  0
VERTEX
  5
145A5
  8
0
 10
128.17797699977109
 20
195.83619946175889
 30
0.0
  0
VERTEX
  5
145A6
  8
0
 10
127.92759185415569
 20
195.58013958732039
 30
0.0
  0
VERTEX
  5
145A7
  8
0
 10
127.70679737037879
 20
195.3720499523269
 30
0.0
  0
SEQEND
  5
145A8
  8
0
  0
LINE
  5
9A85
  8
0
 10
127.70679737037879
 20
195.3720499523269
 30
0.0
 11
127.70679737037879
 21
192.24368873153449
 31
0.0
  0
LINE
  5
9A86
  8
0
 10
124.70679737037879
 20
192.24368873153449
 30
0.0
 11
127.70679737037879
 21
192.24368873153449
 31
0.0
  0
LINE
  5
9A89
  8
0
 10
87.706797370378794
 20
192.24368873153449
 30
0.0
 11
87.706797370378794
 21
263.43109668683019
 31
0.0
  0
LINE
  5
9A8A
  8
0
 10
124.70679737037879
 20
263.43109668683019
 30
0.0
 11
124.70679737037879
 21
192.24368873153449
 31
0.0
  0
LINE
  5
9A8B
  8
0
 10
127.70679737037879
 20
196.42868873153441
 30
0.0
 11
128.30679737037869
 21
196.42868873153441
 31
0.0
  0
LINE
  5
9A8C
  8
0
 10
128.30679737037869
 20
208.0586887315346
 30
0.0
 11
127.70679737037879
 21
208.0586887315346
 31
0.0
  0
LINE
  5
9A8D
  8
0
 10
74.473797370378634
 20
198.24368873153449
 30
0.0
 11
76.706797370378808
 21
198.24368873153449
 31
0.0
  0
LINE
  5
9A8E
  8
0
 10
76.706797370378808
 20
206.24368873153449
 30
0.0
 11
74.473797370378634
 21
206.24368873153449
 31
0.0
  0
LINE
  5
9A8F
  8
0
 10
73.706797370378808
 20
199.01068873153449
 30
0.0
 11
74.473797370378634
 21
198.24368873153449
 31
0.0
  0
LINE
  5
9A90
  8
0
 10
74.473797370378634
 20
206.24368873153449
 30
0.0
 11
73.706797370378808
 21
205.47668873153449
 31
0.0
  0
LINE
  5
9A91
  8
0
 10
133.00679737037851
 20
208.5020220648679
 30
0.0
 11
132.74737766096311
 21
209.47018960089139
 31
0.0
  0
LINE
  5
9A92
  8
0
 10
132.74737766096311
 20
195.01718786217759
 30
0.0
 11
133.00679737037851
 21
195.98535539820111
 31
0.0
  0
LINE
  5
9A93
  8
0
 10
128.56621707979409
 20
209.47018960089139
 30
0.0
 11
128.30679737037869
 21
208.5020220648679
 31
0.0
  0
LINE
  5
9A94
  8
0
 10
128.30679737037869
 20
195.98535539820151
 30
0.0
 11
128.56621707979409
 21
195.01718786217759
 31
0.0
  0
LINE
  5
9A95
  8
0
 10
76.706797370378808
 20
196.42868873153441
 30
0.0
 11
79.206797370378808
 21
196.42868873153441
 31
0.0
  0
LINE
  5
9A96
  8
0
 10
79.206797370378808
 20
208.0586887315346
 30
0.0
 11
76.706797370378808
 21
208.0586887315346
 31
0.0
  0
LINE
  5
9A97
  8
0
 10
84.706797370378808
 20
208.5020220648679
 30
0.0
 11
84.447377660963411
 21
209.47018960089139
 31
0.0
  0
LINE
  5
9A98
  8
0
 10
84.447377660963411
 20
195.01718786217759
 30
0.0
 11
84.706797370378808
 21
195.98535539820449
 31
0.0
  0
LINE
  5
9A99
  8
0
 10
79.466217079794205
 20
209.47018960089139
 30
0.0
 11
79.206797370378808
 21
208.5020220648679
 31
0.0
  0
LINE
  5
9A9A
  8
0
 10
79.206797370378808
 20
195.98535539820111
 30
0.0
 11
79.466217079794205
 21
195.01718786217759
 31
0.0
  0
LINE
  5
9A9B
  8
0
 10
87.706797370378794
 20
194.74368873153449
 30
0.0
 11
88.706797370378794
 21
194.74368873153449
 31
0.0
  0
LINE
  5
9A9C
  8
0
 10
123.70679737037879
 20
194.74368873153449
 30
0.0
 11
124.70679737037879
 21
194.74368873153449
 31
0.0
  0
LINE
  5
9A9D
  8
0
 10
124.70679737037879
 20
209.74368873153449
 30
0.0
 11
123.70679737037879
 21
209.74368873153449
 31
0.0
  0
LINE
  5
9A9E
  8
0
 10
88.706797370378794
 20
209.74368873153449
 30
0.0
 11
87.706797370379704
 21
209.74368873153449
 31
0.0
  0
LINE
  5
9A9F
  8
0
 10
74.473797370378634
 20
206.24368873153449
 30
0.0
 11
74.473797370378634
 21
198.24368873153449
 31
0.0
  0
LINE
  5
9AA0
  8
0
 10
73.706797370378808
 20
205.47668873153449
 30
0.0
 11
73.706797370378808
 21
199.01068873153449
 31
0.0
  0
LINE
  5
9AA1
  8
0
 10
133.00679737037851
 20
208.5020220648679
 30
0.0
 11
133.00679737037851
 21
203.92999331091869
 31
0.0
  0
LINE
  5
9AA2
  8
0
 10
133.00679737037851
 20
203.92999331091869
 30
0.0
 11
133.00679737037851
 21
195.98535539820111
 31
0.0
  0
LINE
  5
9AA3
  8
0
 10
128.30679737037869
 20
208.5020220648679
 30
0.0
 11
128.30679737037869
 21
195.98535539820111
 31
0.0
  0
POLYLINE
  5
9AA4
  8
0
 66
     1
 10
0.0
 20
0.0
 30
0.0
  0
VERTEX
  5
145A9
  8
0
 10
132.74737766096311
 20
198.630438296856
 30
0.0
  0
VERTEX
  5
145AA
  8
0
 10
132.82822231422139
 20
198.3058644011839
 30
0.0
  0
VERTEX
  5
145AB
  8
0
 10
132.9428326529746
 20
197.69630382241201
 30
0.0
  0
VERTEX
  5
145AC
  8
0
 10
132.99960723675889
 20
197.1138956508363
 30
0.0
  0
VERTEX
  5
145AD
  8
0
 10
133.00679737037851
 20
196.82381307951701
 30
0.0
  0
SEQEND
  5
145AE
  8
0
  0
POLYLINE
  5
9AA5
  8
0
 66
     1
 10
0.0
 20
0.0
 30
0.0
  0
VERTEX
  5
145AF
  8
0
 10
133.00679737037851
 20
196.82381307951701
 30
0.0
  0
VERTEX
  5
145B0
  8
0
 10
132.99960723675889
 20
196.53373050819749
 30
0.0
  0
VERTEX
  5
145B1
  8
0
 10
132.9428326529746
 20
195.95132233662181
 30
0.0
  0
VERTEX
  5
145B2
  8
0
 10
132.82822231422139
 20
195.34176175784989
 30
0.0
  0
VERTEX
  5
145B3
  8
0
 10
132.74737766096311
 20
195.01718786217759
 30
0.0
  0
SEQEND
  5
145B4
  8
0
  0
POLYLINE
  5
9AA6
  8
0
 66
     1
 10
0.0
 20
0.0
 30
0.0
  0
VERTEX
  5
145B5
  8
0
 10
128.30679737037869
 20
196.82381307951701
 30
0.0
  0
VERTEX
  5
145B6
  8
0
 10
128.3139875039987
 20
197.1138956508363
 30
0.0
  0
VERTEX
  5
145B7
  8
0
 10
128.37076208778311
 20
197.69630382241201
 30
0.0
  0
VERTEX
  5
145B8
  8
0
 10
128.48537242653629
 20
198.3058644011839
 30
0.0
  0
VERTEX
  5
145B9
  8
0
 10
128.56621707979409
 20
198.630438296856
 30
0.0
  0
SEQEND
  5
145BA
  8
0
  0
LINE
  5
9AA7
  8
0
 10
132.74737766096311
 20
195.01718786217759
 30
0.0
 11
128.56621707979409
 21
195.01718786217759
 31
0.0
  0
POLYLINE
  5
9AA8
  8
0
 66
     1
 10
0.0
 20
0.0
 30
0.0
  0
VERTEX
  5
145BB
  8
0
 10
128.30679737037869
 20
196.82381307951701
 30
0.0
  0
VERTEX
  5
145BC
  8
0
 10
128.3139875039987
 20
196.53373050819749
 30
0.0
  0
VERTEX
  5
145BD
  8
0
 10
128.37076208778311
 20
195.95132233662181
 30
0.0
  0
VERTEX
  5
145BE
  8
0
 10
128.48537242653629
 20
195.34176175784989
 30
0.0
  0
VERTEX
  5
145BF
  8
0
 10
128.56621707979409
 20
195.01718786217759
 30
0.0
  0
SEQEND
  5
145C0
  8
0
  0
POLYLINE
  5
9AA9
  8
0
 66
     1
 10
0.0
 20
0.0
 30
0.0
  0
VERTEX
  5
145C1
  8
0
 10
132.74737766096311
 20
198.630438296856
 30
0.0
  0
VERTEX
  5
145C2
  8
0
 10
132.82822231422139
 20
199.27958608820049
 30
0.0
  0
VERTEX
  5
145C3
  8
0
 10
132.9428326529746
 20
200.4987072457443
 30
0.0
  0
VERTEX
  5
145C4
  8
0
 10
132.99960723675889
 20
201.66352358889571
 30
0.0
  0
VERTEX
  5
145C5
  8
0
 10
133.00679737037851
 20
202.24368873153449
 30
0.0
  0
SEQEND
  5
145C6
  8
0
  0
POLYLINE
  5
9AAA
  8
0
 66
     1
 10
0.0
 20
0.0
 30
0.0
  0
VERTEX
  5
145C7
  8
0
 10
133.00679737037851
 20
202.24368873153449
 30
0.0
  0
VERTEX
  5
145C8
  8
0
 10
132.99960723675889
 20
202.82385387417341
 30
0.0
  0
VERTEX
  5
145C9
  8
0
 10
132.9428326529746
 20
203.9886702173248
 30
0.0
  0
VERTEX
  5
145CA
  8
0
 10
132.82822231422139
 20
205.20779137486849
 30
0.0
  0
VERTEX
  5
145CB
  8
0
 10
132.74737766096311
 20
205.8569391662131
 30
0.0
  0
SEQEND
  5
145CC
  8
0
  0
POLYLINE
  5
9AAB
  8
0
 66
     1
 10
0.0
 20
0.0
 30
0.0
  0
VERTEX
  5
145CD
  8
0
 10
128.56621707979409
 20
205.8569391662131
 30
0.0
  0
VERTEX
  5
145CE
  8
0
 10
128.48537242653629
 20
205.20779137486849
 30
0.0
  0
VERTEX
  5
145CF
  8
0
 10
128.37076208778311
 20
203.9886702173248
 30
0.0
  0
VERTEX
  5
145D0
  8
0
 10
128.3139875039987
 20
202.82385387417341
 30
0.0
  0
VERTEX
  5
145D1
  8
0
 10
128.30679737037869
 20
202.24368873153449
 30
0.0
  0
SEQEND
  5
145D2
  8
0
  0
POLYLINE
  5
9AAC
  8
0
 66
     1
 10
0.0
 20
0.0
 30
0.0
  0
VERTEX
  5
145D3
  8
0
 10
128.30679737037869
 20
202.24368873153449
 30
0.0
  0
VERTEX
  5
145D4
  8
0
 10
128.3139875039987
 20
201.66352358889571
 30
0.0
  0
VERTEX
  5
145D5
  8
0
 10
128.37076208778311
 20
200.4987072457443
 30
0.0
  0
VERTEX
  5
145D6
  8
0
 10
128.48537242653629
 20
199.27958608820049
 30
0.0
  0
VERTEX
  5
145D7
  8
0
 10
128.56621707979409
 20
198.630438296856
 30
0.0
  0
SEQEND
  5
145D8
  8
0
  0
POLYLINE
  5
9AAD
  8
0
 66
     1
 10
0.0
 20
0.0
 30
0.0
  0
VERTEX
  5
145D9
  8
0
 10
128.30679737037869
 20
207.663564383552
 30
0.0
  0
VERTEX
  5
145DA
  8
0
 10
128.3139875039987
 20
207.95364695487149
 30
0.0
  0
VERTEX
  5
145DB
  8
0
 10
128.37076208778311
 20
208.5360551264472
 30
0.0
  0
VERTEX
  5
145DC
  8
0
 10
128.48537242653629
 20
209.14561570521909
 30
0.0
  0
VERTEX
  5
145DD
  8
0
 10
128.56621707979409
 20
209.47018960089139
 30
0.0
  0
SEQEND
  5
145DE
  8
0
  0
POLYLINE
  5
9AAE
  8
0
 66
     1
 10
0.0
 20
0.0
 30
0.0
  0
VERTEX
  5
145DF
  8
0
 10
132.74737766096311
 20
209.47018960089139
 30
0.0
  0
VERTEX
  5
145E0
  8
0
 10
132.82822231422139
 20
209.14561570521909
 30
0.0
  0
VERTEX
  5
145E1
  8
0
 10
132.9428326529746
 20
208.5360551264472
 30
0.0
  0
VERTEX
  5
145E2
  8
0
 10
132.99960723675889
 20
207.95364695487149
 30
0.0
  0
VERTEX
  5
145E3
  8
0
 10
133.00679737037851
 20
207.663564383552
 30
0.0
  0
SEQEND
  5
145E4
  8
0
  0
POLYLINE
  5
9AAF
  8
0
 66
     1
 10
0.0
 20
0.0
 30
0.0
  0
VERTEX
  5
145E5
  8
0
 10
133.00679737037851
 20
207.663564383552
 30
0.0
  0
VERTEX
  5
145E6
  8
0
 10
132.99960723675889
 20
207.37348181223271
 30
0.0
  0
VERTEX
  5
145E7
  8
0
 10
132.9428326529746
 20
206.791073640657
 30
0.0
  0
VERTEX
  5
145E8
  8
0
 10
132.82822231422139
 20
206.18151306188511
 30
0.0
  0
VERTEX
  5
145E9
  8
0
 10
132.74737766096311
 20
205.8569391662131
 30
0.0
  0
SEQEND
  5
145EA
  8
0
  0
POLYLINE
  5
9AB0
  8
0
 66
     1
 10
0.0
 20
0.0
 30
0.0
  0
VERTEX
  5
145EB
  8
0
 10
128.56621707979409
 20
205.8569391662131
 30
0.0
  0
VERTEX
  5
145EC
  8
0
 10
128.48537242653629
 20
206.18151306188511
 30
0.0
  0
VERTEX
  5
145ED
  8
0
 10
128.37076208778311
 20
206.791073640657
 30
0.0
  0
VERTEX
  5
145EE
  8
0
 10
128.3139875039987
 20
207.37348181223271
 30
0.0
  0
VERTEX
  5
145EF
  8
0
 10
128.30679737037869
 20
207.663564383552
 30
0.0
  0
SEQEND
  5
145F0
  8
0
  0
LINE
  5
9AB1
  8
0
 10
132.74737766096311
 20
209.47018960089139
 30
0.0
 11
128.56621707979409
 21
209.47018960089139
 31
0.0
  0
LINE
  5
9AB2
  8
0
 10
132.74737766096311
 20
205.8569391662131
 30
0.0
 11
128.56621707979409
 21
205.8569391662131
 31
0.0
  0
LINE
  5
9AB3
  8
0
 10
132.74737766096311
 20
198.630438296856
 30
0.0
 11
130.14061426174021
 21
198.630438296856
 31
0.0
  0
LINE
  5
9AB4
  8
0
 10
130.14061426174021
 20
198.630438296856
 30
0.0
 11
128.56621707979409
 21
198.630438296856
 31
0.0
  0
LINE
  5
9AB5
  8
0
 10
76.706797370378808
 20
208.0586887315346
 30
0.0
 11
76.706797370378808
 21
196.42868873153441
 31
0.0
  0
LINE
  5
9AB6
  8
0
 10
79.206797370378808
 20
208.5020220648679
 30
0.0
 11
79.206797370378808
 21
195.98535539820111
 31
0.0
  0
POLYLINE
  5
9AB7
  8
0
 66
     1
 10
0.0
 20
0.0
 30
0.0
  0
VERTEX
  5
145F1
  8
0
 10
84.447377660963411
 20
198.630438296856
 30
0.0
  0
VERTEX
  5
145F2
  8
0
 10
84.528222314221225
 20
198.3058644011839
 30
0.0
  0
VERTEX
  5
145F3
  8
0
 10
84.642832652974434
 20
197.69630382241201
 30
0.0
  0
VERTEX
  5
145F4
  8
0
 10
84.699607236758766
 20
197.1138956508363
 30
0.0
  0
VERTEX
  5
145F5
  8
0
 10
84.706797370378808
 20
196.82381307951701
 30
0.0
  0
SEQEND
  5
145F6
  8
0
  0
POLYLINE
  5
9AB8
  8
0
 66
     1
 10
0.0
 20
0.0
 30
0.0
  0
VERTEX
  5
145F7
  8
0
 10
84.706797370378808
 20
196.82381307951701
 30
0.0
  0
VERTEX
  5
145F8
  8
0
 10
84.702781566975773
 20
196.60712541191009
 30
0.0
  0
VERTEX
  5
145F9
  8
0
 10
84.671080578560563
 20
196.17454412614589
 30
0.0
  0
VERTEX
  5
145FA
  8
0
 10
84.607834483955216
 20
195.7330283773878
 30
0.0
  0
VERTEX
  5
145FB
  8
0
 10
84.563977397479889
 20
195.5051369336615
 30
0.0
  0
SEQEND
  5
145FC
  8
0
  0
POLYLINE
  5
9AB9
  8
0
 66
     1
 10
0.0
 20
0.0
 30
0.0
  0
VERTEX
  5
145FD
  8
0
 10
84.563977397479889
 20
195.5051369336615
 30
0.0
  0
VERTEX
  5
145FE
  8
0
 10
84.547135515070295
 20
195.42619774178721
 30
0.0
  0
VERTEX
  5
145FF
  8
0
 10
84.510404621527869
 20
195.2656671770946
 30
0.0
  0
VERTEX
  5
14600
  8
0
 10
84.469474968261238
 20
195.10113597549429
 30
0.0
  0
VERTEX
  5
14601
  8
0
 10
84.447377660963411
 20
195.01718786217759
 30
0.0
  0
SEQEND
  5
14602
  8
0
  0
POLYLINE
  5
9ABA
  8
0
 66
     1
 10
0.0
 20
0.0
 30
0.0
  0
VERTEX
  5
14603
  8
0
 10
79.466217079794205
 20
195.01718786217759
 30
0.0
  0
VERTEX
  5
14604
  8
0
 10
79.385372426535923
 20
195.34176175784989
 30
0.0
  0
VERTEX
  5
14605
  8
0
 10
79.270762087783154
 20
195.95132233662181
 30
0.0
  0
VERTEX
  5
14606
  8
0
 10
79.213987503998851
 20
196.53373050819749
 30
0.0
  0
VERTEX
  5
14607
  8
0
 10
79.206797370378808
 20
196.82381307951701
 30
0.0
  0
SEQEND
  5
14608
  8
0
  0
POLYLINE
  5
9ABB
  8
0
 66
     1
 10
0.0
 20
0.0
 30
0.0
  0
VERTEX
  5
14609
  8
0
 10
79.206797370378808
 20
196.82381307951701
 30
0.0
  0
VERTEX
  5
1460A
  8
0
 10
79.213987503998851
 20
197.1138956508363
 30
0.0
  0
VERTEX
  5
1460B
  8
0
 10
79.270762087783154
 20
197.69630382241201
 30
0.0
  0
VERTEX
  5
1460C
  8
0
 10
79.385372426535923
 20
198.3058644011839
 30
0.0
  0
VERTEX
  5
1460D
  8
0
 10
79.466217079794205
 20
198.630438296856
 30
0.0
  0
SEQEND
  5
1460E
  8
0
  0
LINE
  5
9ABC
  8
0
 10
84.447377660963411
 20
195.01718786217759
 30
0.0
 11
79.466217079794205
 21
195.01718786217759
 31
0.0
  0
POLYLINE
  5
9ABD
  8
0
 66
     1
 10
0.0
 20
0.0
 30
0.0
  0
VERTEX
  5
1460F
  8
0
 10
84.447377660963411
 20
198.630438296856
 30
0.0
  0
VERTEX
  5
14610
  8
0
 10
84.528222314221225
 20
199.27958608820049
 30
0.0
  0
VERTEX
  5
14611
  8
0
 10
84.642832652974434
 20
200.4987072457443
 30
0.0
  0
VERTEX
  5
14612
  8
0
 10
84.699607236758766
 20
201.66352358889571
 30
0.0
  0
VERTEX
  5
14613
  8
0
 10
84.706797370378808
 20
202.24368873153449
 30
0.0
  0
SEQEND
  5
14614
  8
0
  0
POLYLINE
  5
9ABE
  8
0
 66
     1
 10
0.0
 20
0.0
 30
0.0
  0
VERTEX
  5
14615
  8
0
 10
84.706797370378808
 20
202.24368873153449
 30
0.0
  0
VERTEX
  5
14616
  8
0
 10
84.699607236758766
 20
202.82385387417341
 30
0.0
  0
VERTEX
  5
14617
  8
0
 10
84.642832652974434
 20
203.9886702173248
 30
0.0
  0
VERTEX
  5
14618
  8
0
 10
84.528222314221225
 20
205.20779137486849
 30
0.0
  0
VERTEX
  5
14619
  8
0
 10
84.447377660963411
 20
205.8569391662131
 30
0.0
  0
SEQEND
  5
1461A
  8
0
  0
POLYLINE
  5
9ABF
  8
0
 66
     1
 10
0.0
 20
0.0
 30
0.0
  0
VERTEX
  5
1461B
  8
0
 10
79.466217079794205
 20
205.8569391662131
 30
0.0
  0
VERTEX
  5
1461C
  8
0
 10
79.385372426535923
 20
205.20779137486849
 30
0.0
  0
VERTEX
  5
1461D
  8
0
 10
79.270762087783154
 20
203.9886702173248
 30
0.0
  0
VERTEX
  5
1461E
  8
0
 10
79.213987503998851
 20
202.82385387417341
 30
0.0
  0
VERTEX
  5
1461F
  8
0
 10
79.206797370378808
 20
202.24368873153449
 30
0.0
  0
SEQEND
  5
14620
  8
0
  0
POLYLINE
  5
9AC0
  8
0
 66
     1
 10
0.0
 20
0.0
 30
0.0
  0
VERTEX
  5
14621
  8
0
 10
79.206797370378808
 20
202.24368873153449
 30
0.0
  0
VERTEX
  5
14622
  8
0
 10
79.213987503998851
 20
201.66352358889571
 30
0.0
  0
VERTEX
  5
14623
  8
0
 10
79.270762087783154
 20
200.4987072457443
 30
0.0
  0
VERTEX
  5
14624
  8
0
 10
79.385372426535923
 20
199.27958608820049
 30
0.0
  0
VERTEX
  5
14625
  8
0
 10
79.466217079794205
 20
198.630438296856
 30
0.0
  0
SEQEND
  5
14626
  8
0
  0
POLYLINE
  5
9AC1
  8
0
 66
     1
 10
0.0
 20
0.0
 30
0.0
  0
VERTEX
  5
14627
  8
0
 10
79.206797370378808
 20
207.663564383552
 30
0.0
  0
VERTEX
  5
14628
  8
0
 10
79.213987503998851
 20
207.95364695487149
 30
0.0
  0
VERTEX
  5
14629
  8
0
 10
79.270762087783154
 20
208.5360551264472
 30
0.0
  0
VERTEX
  5
1462A
  8
0
 10
79.385372426535923
 20
209.14561570521909
 30
0.0
  0
VERTEX
  5
1462B
  8
0
 10
79.466217079794205
 20
209.47018960089139
 30
0.0
  0
SEQEND
  5
1462C
  8
0
  0
POLYLINE
  5
9AC2
  8
0
 66
     1
 10
0.0
 20
0.0
 30
0.0
  0
VERTEX
  5
1462D
  8
0
 10
84.447377660963411
 20
209.47018960089139
 30
0.0
  0
VERTEX
  5
1462E
  8
0
 10
84.528222314221225
 20
209.14561570521909
 30
0.0
  0
VERTEX
  5
1462F
  8
0
 10
84.642832652974434
 20
208.5360551264472
 30
0.0
  0
VERTEX
  5
14630
  8
0
 10
84.699607236758766
 20
207.95364695487149
 30
0.0
  0
VERTEX
  5
14631
  8
0
 10
84.706797370378808
 20
207.663564383552
 30
0.0
  0
SEQEND
  5
14632
  8
0
  0
POLYLINE
  5
9AC3
  8
0
 66
     1
 10
0.0
 20
0.0
 30
0.0
  0
VERTEX
  5
14633
  8
0
 10
84.706797370378808
 20
207.663564383552
 30
0.0
  0
VERTEX
  5
14634
  8
0
 10
84.699607236758766
 20
207.37348181223271
 30
0.0
  0
VERTEX
  5
14635
  8
0
 10
84.642832652974434
 20
206.791073640657
 30
0.0
  0
VERTEX
  5
14636
  8
0
 10
84.528222314221225
 20
206.18151306188511
 30
0.0
  0
VERTEX
  5
14637
  8
0
 10
84.447377660963411
 20
205.8569391662131
 30
0.0
  0
SEQEND
  5
14638
  8
0
  0
POLYLINE
  5
9AC4
  8
0
 66
     1
 10
0.0
 20
0.0
 30
0.0
  0
VERTEX
  5
14639
  8
0
 10
79.466217079794205
 20
205.8569391662131
 30
0.0
  0
VERTEX
  5
1463A
  8
0
 10
79.385372426535923
 20
206.18151306188511
 30
0.0
  0
VERTEX
  5
1463B
  8
0
 10
79.270762087783154
 20
206.791073640657
 30
0.0
  0
VERTEX
  5
1463C
  8
0
 10
79.213987503998851
 20
207.37348181223271
 30
0.0
  0
VERTEX
  5
1463D
  8
0
 10
79.206797370378808
 20
207.663564383552
 30
0.0
  0
SEQEND
  5
1463E
  8
0
  0
LINE
  5
9AC5
  8
0
 10
84.447377660963411
 20
209.47018960089139
 30
0.0
 11
79.466217079794205
 21
209.47018960089139
 31
0.0
  0
LINE
  5
9AC6
  8
0
 10
84.447377660963411
 20
205.8569391662131
 30
0.0
 11
79.466217079794205
 21
205.8569391662131
 31
0.0
  0
LINE
  5
9AC7
  8
0
 10
84.447377660963411
 20
198.630438296856
 30
0.0
 11
82.272980479017406
 21
198.630438296856
 31
0.0
  0
LINE
  5
9AC8
  8
0
 10
82.272980479017406
 20
198.630438296856
 30
0.0
 11
79.466217079794205
 21
198.630438296856
 31
0.0
  0
LINE
  5
9AC9
  8
2
 10
123.70679737037879
 20
194.73517291749789
 30
0.0
 11
123.70679737037879
 21
209.75220454557109
 31
0.0
  0
ARC
  5
9ACA
  8
0
 10
121.70679737037879
 20
260.72445480038817
 30
0.0
 40
2.0000000000000031
 50
0.0
 51
75.155395552910377
  0
ARC
  5
9ACB
  8
0
 10
121.70679737037879
 20
143.76292266268069
 30
0.0
 40
2.0000000000000129
 50
284.84460444708958
 51
0.0
  0
ARC
  5
9ACC
  8
0
 10
106.20679737037879
 20
202.24368873153429
 30
0.0
 40
62.499999999999901
 50
255.15539555291039
 51
284.84460444708958
  0
ARC
  5
9ACD
  8
0
 10
106.20679737037879
 20
202.24368873153429
 30
0.0
 40
62.500000000000092
 50
75.155395552910377
 51
78.236799008862945
  0
ARC
  5
9ACE
  8
0
 10
90.706797370378808
 20
260.72445480038817
 30
0.0
 40
1.9999999999999969
 50
104.84460444708959
 51
180.0
  0
ARC
  5
9ACF
  8
0
 10
90.706797370378808
 20
143.76292266268069
 30
0.0
 40
1.9999999999999889
 50
180.0
 51
255.15539555291039
  0
LINE
  5
9AD0
  8
0
 10
123.70679737037879
 20
260.72445480038817
 30
0.0
 11
123.70679737037879
 21
143.76292266268069
 31
0.0
  0
LINE
  5
9AD1
  8
0
 10
88.706797370378794
 20
260.72445480038817
 30
0.0
 11
88.706797370378794
 21
143.76292266268069
 31
0.0
  0
ARC
  5
9AD4
  8
0
 10
532.03152259607441
 20
289.44368873142002
 30
0.0
 40
2.9999999999999849
 50
90.0
 51
180.0
  0
ARC
  5
9AD5
  8
0
 10
588.08152259607459
 20
289.44368873142002
 30
0.0
 40
2.9999999999999849
 50
0.0
 51
90.0
  0
LINE
  5
9AD6
  8
0
 10
591.08152259607448
 20
288.94368873142002
 30
0.0
 11
591.08152259607448
 21
289.44368873142002
 31
0.0
  0
LINE
  5
9AD7
  8
0
 10
529.0315225960743
 20
289.44368873142002
 30
0.0
 11
529.0315225960743
 21
288.94368873142002
 31
0.0
  0
ARC
  5
9AD8
  8
0
 10
527.5565225960745
 20
284.94368873142002
 30
0.0
 40
4.0000000000000142
 50
90.0
 51
180.0
  0
ARC
  5
9AD9
  8
0
 10
592.55652259607405
 20
284.94368873142002
 30
0.0
 40
4.0000000000000142
 50
0.0
 51
90.0
  0
LINE
  5
9ADA
  8
0
 10
596.55652259607405
 20
283.94368873141991
 30
0.0
 11
596.55652259607405
 21
284.94368873142002
 31
0.0
  0
LINE
  5
9ADB
  8
0
 10
523.5565225960745
 20
284.94368873142002
 30
0.0
 11
523.5565225960745
 21
283.94368873141991
 31
0.0
  0
LINE
  5
9ADC
  8
0
 10
593.05652259607405
 20
233.41361630044449
 30
0.0
 11
593.05652259607405
 21
283.94368873141991
 31
0.0
  0
LINE
  5
9ADD
  8
0
 10
527.05652259607439
 20
283.94368873141991
 30
0.0
 11
527.05652259607439
 21
233.41361630044449
 31
0.0
  0
LINE
  5
9ADE
  8
2
 10
566.0565225960745
 20
281.74368873142009
 30
0.0
 11
566.0565225960745
 21
295.74368873142021
 31
0.0
  0
LINE
  5
9ADF
  8
2
 10
554.0565225960745
 20
295.74368873142021
 30
0.0
 11
554.0565225960745
 21
281.74368873142009
 31
0.0
  0
LINE
  5
9AE1
  8
0
 10
532.03152259607441
 20
292.44368873142002
 30
0.0
 11
588.08152259607459
 21
292.44368873142002
 31
0.0
  0
LINE
  5
9AE2
  8
0
 10
527.5565225960745
 20
288.94368873142002
 30
0.0
 11
592.55652259607405
 21
288.94368873142002
 31
0.0
  0
LINE
  5
9AE3
  8
0
 10
523.5565225960745
 20
283.94368873141991
 30
0.0
 11
596.55652259607405
 21
283.94368873141991
 31
0.0
  0
POLYLINE
  5
9AE4
  8
0
 66
     1
 10
0.0
 20
0.0
 30
0.0
  0
VERTEX
  5
1463F
  8
0
 10
582.78275775463499
 20
196.77571039494271
 30
0.0
  0
VERTEX
  5
14640
  8
0
 10
583.56179715599364
 20
197.94684283523779
 30
0.0
  0
VERTEX
  5
14641
  8
0
 10
585.04187381220572
 20
200.40423573640339
 30
0.0
  0
VERTEX
  5
14642
  8
0
 10
586.41259722827988
 20
203.00610059989501
 30
0.0
  0
VERTEX
  5
14643
  8
0
 10
587.05505728132846
 20
204.35767475768139
 30
0.0
  0
SEQEND
  5
14644
  8
0
  0
POLYLINE
  5
9AE5
  8
0
 66
     1
 10
0.0
 20
0.0
 30
0.0
  0
VERTEX
  5
14645
  8
0
 10
587.05505728132846
 20
204.35767475768139
 30
0.0
  0
VERTEX
  5
14646
  8
0
 10
587.32657192708803
 20
204.9583800397981
 30
0.0
  0
VERTEX
  5
14647
  8
0
 10
587.85244556608859
 20
206.17750708108261
 30
0.0
  0
VERTEX
  5
14648
  8
0
 10
588.35508062159386
 20
207.4194046775628
 30
0.0
  0
VERTEX
  5
14649
  8
0
 10
588.59755159174892
 20
208.04856869162131
 30
0.0
  0
SEQEND
  5
1464A
  8
0
  0
POLYLINE
  5
9AE6
  8
0
 66
     1
 10
0.0
 20
0.0
 30
0.0
  0
VERTEX
  5
1464B
  8
0
 10
588.59755159174892
 20
208.04856869162131
 30
0.0
  0
VERTEX
  5
1464C
  8
0
 10
588.83648290357269
 20
208.6896546504594
 30
0.0
  0
VERTEX
  5
1464D
  8
0
 10
589.29587195628119
 20
209.9875160340352
 30
0.0
  0
VERTEX
  5
1464E
  8
0
 10
589.73030503278505
 20
211.30537174763589
 30
0.0
  0
VERTEX
  5
1464F
  8
0
 10
589.9380463668108
 20
211.97144661912751
 30
0.0
  0
VERTEX
  5
14650
  8
0
 10
590.13941134160859
 20
212.64209699277711
 30
0.0
  0
VERTEX
  5
14651
  8
0
 10
590.52284170783685
 20
213.99655086570641
 30
0.0
  0
VERTEX
  5
14652
  8
0
 10
590.88026887114074
 20
215.36757733117099
 30
0.0
  0
VERTEX
  5
14653
  8
0
 10
591.21138776509486
 20
216.7540062091025
 30
0.0
  0
VERTEX
  5
14654
  8
0
 10
591.51591577755505
 20
218.1546541733714
 30
0.0
  0
VERTEX
  5
14655
  8
0
 10
591.79359299186706
 20
219.56832576176629
 30
0.0
  0
VERTEX
  5
14656
  8
0
 10
591.92228758655608
 20
220.279668765509
 30
0.0
  0
VERTEX
  5
14657
  8
0
 10
592.04418240871064
 20
220.99381439632629
 30
0.0
  0
VERTEX
  5
14658
  8
0
 10
592.26747014837611
 20
222.429903413164
 30
0.0
  0
VERTEX
  5
14659
  8
0
 10
592.46326563331547
 20
223.87536710089751
 30
0.0
  0
VERTEX
  5
1465A
  8
0
 10
592.63140175080025
 20
225.3289717468009
 30
0.0
  0
VERTEX
  5
1465B
  8
0
 10
592.77173499555226
 20
226.78947668978751
 30
0.0
  0
VERTEX
  5
1465C
  8
0
 10
592.88414559222792
 20
228.25563537932149
 30
0.0
  0
VERTEX
  5
1465D
  8
0
 10
592.92984898197074
 20
228.99044398334581
 30
0.0
  0
VERTEX
  5
1465E
  8
0
 10
592.96853759764679
 20
229.72619643935781
 30
0.0
  0
VERTEX
  5
1465F
  8
0
 10
593.02483898267917
 20
231.19990473639919
 30
0.0
  0
VERTEX
  5
14660
  8
0
 10
593.05300169372504
 20
232.675502450761
 30
0.0
  0
VERTEX
  5
14661
  8
0
 10
593.05652259607405
 20
233.41361630044449
 30
0.0
  0
SEQEND
  5
14662
  8
0
  0
POLYLINE
  5
9AE7
  8
0
 66
     1
 10
0.0
 20
0.0
 30
0.0
  0
VERTEX
  5
14663
  8
0
 10
593.05652259607405
 20
233.41361630044449
 30
0.0
  0
VERTEX
  5
14664
  8
0
 10
593.02511390827567
 20
235.6177071034098
 30
0.0
  0
VERTEX
  5
14665
  8
0
 10
592.7742030214099
 20
240.0091142474632
 30
0.0
  0
VERTEX
  5
14666
  8
0
 10
592.27429083103186
 20
244.35032566966939
 30
0.0
  0
VERTEX
  5
14667
  8
0
 10
591.93207486361359
 20
246.49176139599101
 30
0.0
  0
VERTEX
  5
14668
  8
0
 10
591.52918197076576
 20
248.60830212980991
 30
0.0
  0
VERTEX
  5
14669
  8
0
 10
590.54454716894679
 20
252.75063785598689
 30
0.0
  0
VERTEX
  5
1466A
  8
0
 10
589.32788009095555
 20
256.74580717211342
 30
0.0
  0
VERTEX
  5
1466B
  8
0
 10
587.8884403078996
 20
260.56340442734438
 30
0.0
  0
VERTEX
  5
1466C
  8
0
 10
586.23718282568507
 20
264.17437540143959
 30
0.0
  0
VERTEX
  5
1466D
  8
0
 10
584.38667471080805
 20
267.55123842492179
 30
0.0
  0
VERTEX
  5
1466E
  8
0
 10
583.39104637523042
 20
269.14377317023491
 30
0.0
  0
VERTEX
  5
1466F
  8
0
 10
583.2207374053163
 20
269.40266312322501
 30
0.0
  0
VERTEX
  5
14670
  8
0
 10
582.87645343688916
 20
269.9147196248507
 30
0.0
  0
VERTEX
  5
14671
  8
0
 10
582.52734222824483
 20
270.419054823762
 30
0.0
  0
VERTEX
  5
14672
  8
0
 10
582.35099944739113
 20
270.66829353117691
 30
0.0
  0
VERTEX
  5
14673
  8
0
 10
582.17347762902261
 20
270.91556203483509
 30
0.0
  0
VERTEX
  5
14674
  8
0
 10
581.8149344943763
 20
271.40413622884802
 30
0.0
  0
VERTEX
  5
14675
  8
0
 10
581.45178866913875
 20
271.88467405469908
 30
0.0
  0
VERTEX
  5
14676
  8
0
 10
581.08411697177814
 20
272.3570738612683
 30
0.0
  0
VERTEX
  5
14677
  8
0
 10
580.71199717814807
 20
272.82123571892168
 30
0.0
  0
VERTEX
  5
14678
  8
0
 10
580.33550800503554
 20
273.27706144064899
 30
0.0
  0
VERTEX
  5
14679
  8
0
 10
580.14564975336225
 20
273.50181804871721
 30
0.0
  0
VERTEX
  5
1467A
  8
0
 10
579.95472909350929
 20
273.72445460283319
 30
0.0
  0
VERTEX
  5
1467B
  8
0
 10
579.56974099207264
 20
274.16332056564983
 30
0.0
  0
VERTEX
  5
1467C
  8
0
 10
579.18062513962423
 20
274.59356649308432
 30
0.0
  0
VERTEX
  5
1467D
  8
0
 10
578.78746384823262
 20
275.01510137257122
 30
0.0
  0
VERTEX
  5
1467E
  8
0
 10
578.39034028572121
 20
275.42783603424721
 30
0.0
  0
VERTEX
  5
1467F
  8
0
 10
577.98933845807824
 20
275.83168316981249
 30
0.0
  0
VERTEX
  5
14680
  8
0
 10
577.78740967151953
 20
276.03024714503488
 30
0.0
  0
VERTEX
  5
14681
  8
0
 10
577.58454319168504
 20
276.22655735100068
 30
0.0
  0
VERTEX
  5
14682
  8
0
 10
577.17604011537151
 20
276.61237504764949
 30
0.0
  0
VERTEX
  5
14683
  8
0
 10
576.76391564230426
 20
276.98905464536978
 30
0.0
  0
VERTEX
  5
14684
  8
0
 10
576.34825695170593
 20
277.35651646281201
 30
0.0
  0
VERTEX
  5
14685
  8
0
 10
575.92915197041418
 20
277.7146827685192
 30
0.0
  0
VERTEX
  5
14686
  8
0
 10
575.50668935428075
 20
278.06347779737138
 30
0.0
  0
VERTEX
  5
14687
  8
0
 10
575.29422683283065
 20
278.23433794800019
 30
0.0
  0
VERTEX
  5
14688
  8
0
 10
575.08095846941978
 20
278.40282776661292
 30
0.0
  0
VERTEX
  5
14689
  8
0
 10
574.65204937330145
 20
278.73266089145898
 30
0.0
  0
VERTEX
  5
1468A
  8
0
 10
574.22005279570294
 20
279.05290740028153
 30
0.0
  0
VERTEX
  5
1468B
  8
0
 10
573.78506011951504
 20
279.36349954936838
 30
0.0
  0
VERTEX
  5
1468C
  8
0
 10
573.34716336141264
 20
279.66437163725362
 30
0.0
  0
VERTEX
  5
1468D
  8
0
 10
572.90645515238737
 20
279.9554600186151
 30
0.0
  0
VERTEX
  5
1468E
  8
0
 10
572.68507586412215
 20
280.09731599573558
 30
0.0
  0
VERTEX
  5
1468F
  8
0
 10
572.46302871815567
 20
280.23670311773913
 30
0.0
  0
VERTEX
  5
14690
  8
0
 10
572.01697785943634
 20
280.50804144154381
 30
0.0
  0
VERTEX
  5
14691
  8
0
 10
571.56839693210895
 20
280.76941759216601
 30
0.0
  0
VERTEX
  5
14692
  8
0
 10
571.11738082725321
 20
281.02077627910228
 30
0.0
  0
VERTEX
  5
14693
  8
0
 10
570.66402495107877
 20
281.2620643309055
 30
0.0
  0
VERTEX
  5
14694
  8
0
 10
570.20842520473934
 20
281.49323070642998
 30
0.0
  0
VERTEX
  5
14695
  8
0
 10
569.97981397971535
 20
281.6050029004017
 30
0.0
  0
VERTEX
  5
14696
  8
0
 10
569.75067796404983
 20
281.71422650563272
 30
0.0
  0
VERTEX
  5
14697
  8
0
 10
569.29088005909705
 20
281.9250049799129
 30
0.0
  0
VERTEX
  5
14698
  8
0
 10
568.82912875375769
 20
282.12552154200552
 30
0.0
  0
VERTEX
  5
14699
  8
0
 10
568.59755108445734
 20
282.22191826578091
 30
0.0
  0
VERTEX
  5
1469A
  8
0
 10
568.36552172512336
 20
282.31573377540963
 30
0.0
  0
VERTEX
  5
1469B
  8
0
 10
567.90015704283815
 20
282.49560144336232
 30
0.0
  0
VERTEX
  5
1469C
  8
0
 10
567.43313314835268
 20
282.66508649735027
 30
0.0
  0
VERTEX
  5
1469D
  8
0
 10
567.19902985603164
 20
282.74592425428722
 30
0.0
  0
VERTEX
  5
1469E
  8
0
 10
566.96454883410252
 20
282.82415308515868
 30
0.0
  0
VERTEX
  5
1469F
  8
0
 10
566.49450322260645
 20
282.97276755845439
 30
0.0
  0
VERTEX
  5
146A0
  8
0
 10
566.02309574550236
 20
283.11089847990479
 30
0.0
  0
VERTEX
  5
146A1
  8
0
 10
565.55042612251054
 20
283.23851662982668
 30
0.0
  0
VERTEX
  5
146A2
  8
0
 10
565.07659434034156
 20
283.35559501236912
 30
0.0
  0
VERTEX
  5
146A3
  8
0
 10
564.60170063154419
 20
283.46210886122162
 30
0.0
  0
VERTEX
  5
146A4
  8
0
 10
564.36388693933623
 20
283.51139695698151
 30
0.0
  0
VERTEX
  5
146A5
  8
0
 10
564.1258454533031
 20
283.55803564485541
 30
0.0
  0
VERTEX
  5
146A6
  8
0
 10
563.64912946618915
 20
283.64335507128862
 30
0.0
  0
VERTEX
  5
146A7
  8
0
 10
563.1716535128644
 20
283.71804909237869
 30
0.0
  0
VERTEX
  5
146A8
  8
0
 10
562.6935185967518
 20
283.78210190763951
 30
0.0
  0
VERTEX
  5
146A9
  8
0
 10
562.21482586066895
 20
283.8354999675866
 30
0.0
  0
VERTEX
  5
146AA
  8
0
 10
561.73567656543219
 20
283.87823197659912
 30
0.0
  0
VERTEX
  5
146AB
  8
0
 10
561.49596237913045
 20
283.89559529901311
 30
0.0
  0
VERTEX
  5
146AC
  8
0
 10
561.25617206843606
 20
283.91028889531287
 30
0.0
  0
VERTEX
  5
146AD
  8
0
 10
560.77641380221485
 20
283.93166394253137
 30
0.0
  0
VERTEX
  5
146AE
  8
0
 10
560.29650325298235
 20
283.94235259665902
 30
0.0
  0
VERTEX
  5
146AF
  8
0
 10
560.05652259607439
 20
283.94368873141991
 30
0.0
  0
SEQEND
  5
146B0
  8
0
  0
POLYLINE
  5
9AE8
  8
0
 66
     1
 10
0.0
 20
0.0
 30
0.0
  0
VERTEX
  5
146B1
  8
0
 10
560.05652259607439
 20
283.94368873141991
 30
0.0
  0
VERTEX
  5
146B2
  8
0
 10
559.81654193916609
 20
283.94235259665902
 30
0.0
  0
VERTEX
  5
146B3
  8
0
 10
559.3366313899337
 20
283.93166394253137
 30
0.0
  0
VERTEX
  5
146B4
  8
0
 10
558.85687312371226
 20
283.91028889531287
 30
0.0
  0
VERTEX
  5
146B5
  8
0
 10
558.61708281301844
 20
283.89559529901311
 30
0.0
  0
VERTEX
  5
146B6
  8
0
 10
558.37736862671625
 20
283.87823197659912
 30
0.0
  0
VERTEX
  5
146B7
  8
0
 10
557.89821933147959
 20
283.8354999675866
 30
0.0
  0
VERTEX
  5
146B8
  8
0
 10
557.41952659539675
 20
283.78210190763951
 30
0.0
  0
VERTEX
  5
146B9
  8
0
 10
556.94139167928415
 20
283.71804909237869
 30
0.0
  0
VERTEX
  5
146BA
  8
0
 10
556.4639157259594
 20
283.64335507128862
 30
0.0
  0
VERTEX
  5
146BB
  8
0
 10
555.98719973884545
 20
283.55803564485541
 30
0.0
  0
VERTEX
  5
146BC
  8
0
 10
555.74915825281266
 20
283.51139695698151
 30
0.0
  0
VERTEX
  5
146BD
  8
0
 10
555.51134456060436
 20
283.46210886122162
 30
0.0
  0
VERTEX
  5
146BE
  8
0
 10
555.03645085180676
 20
283.35559501236912
 30
0.0
  0
VERTEX
  5
146BF
  8
0
 10
554.56261906963789
 20
283.23851662982668
 30
0.0
  0
VERTEX
  5
146C0
  8
0
 10
554.08994944664619
 20
283.11089847990479
 30
0.0
  0
VERTEX
  5
146C1
  8
0
 10
553.61854196954209
 20
282.97276755845439
 30
0.0
  0
VERTEX
  5
146C2
  8
0
 10
553.14849635804649
 20
282.82415308515868
 30
0.0
  0
VERTEX
  5
146C3
  8
0
 10
552.91401533611679
 20
282.74592425428722
 30
0.0
  0
VERTEX
  5
146C4
  8
0
 10
552.67991204379575
 20
282.66508649735027
 30
0.0
  0
VERTEX
  5
146C5
  8
0
 10
552.21288814931029
 20
282.49560144336232
 30
0.0
  0
VERTEX
  5
146C6
  8
0
 10
551.74752346702496
 20
282.31573377540963
 30
0.0
  0
VERTEX
  5
146C7
  8
0
 10
551.51549410769121
 20
282.22191826578091
 30
0.0
  0
VERTEX
  5
146C8
  8
0
 10
551.28391643839075
 20
282.12552154200552
 30
0.0
  0
VERTEX
  5
146C9
  8
0
 10
550.82216513305127
 20
281.9250049799129
 30
0.0
  0
VERTEX
  5
146CA
  8
0
 10
550.36236722809872
 20
281.71422650563272
 30
0.0
  0
VERTEX
  5
146CB
  8
0
 10
550.1332312124332
 20
281.6050029004017
 30
0.0
  0
VERTEX
  5
146CC
  8
0
 10
549.90461998740921
 20
281.49323070642998
 30
0.0
  0
VERTEX
  5
146CD
  8
0
 10
549.44902024106966
 20
281.2620643309055
 30
0.0
  0
VERTEX
  5
146CE
  8
0
 10
548.99566436489522
 20
281.02077627910228
 30
0.0
  0
VERTEX
  5
146CF
  8
0
 10
548.54464826003948
 20
280.76941759216601
 30
0.0
  0
VERTEX
  5
146D0
  8
0
 10
548.09606733271221
 20
280.50804144154381
 30
0.0
  0
VERTEX
  5
146D1
  8
0
 10
547.65001647399276
 20
280.23670311773913
 30
0.0
  0
VERTEX
  5
146D2
  8
0
 10
547.42796932802639
 20
280.09731599573558
 30
0.0
  0
VERTEX
  5
146D3
  8
0
 10
547.20659003976095
 20
279.9554600186151
 30
0.0
  0
VERTEX
  5
146D4
  8
0
 10
546.76588183073579
 20
279.66437163725362
 30
0.0
  0
VERTEX
  5
146D5
  8
0
 10
546.32798507263351
 20
279.36349954936838
 30
0.0
  0
VERTEX
  5
146D6
  8
0
 10
545.89299239644561
 20
279.05290740028153
 30
0.0
  0
VERTEX
  5
146D7
  8
0
 10
545.4609958188471
 20
278.73266089145898
 30
0.0
  0
VERTEX
  5
146D8
  8
0
 10
545.03208672272865
 20
278.40282776661292
 30
0.0
  0
VERTEX
  5
146D9
  8
0
 10
544.81881835931836
 20
278.23433794800019
 30
0.0
  0
VERTEX
  5
146DA
  8
0
 10
544.6063558378678
 20
278.06347779737138
 30
0.0
  0
VERTEX
  5
146DB
  8
0
 10
544.18389322173471
 20
277.7146827685192
 30
0.0
  0
VERTEX
  5
146DC
  8
0
 10
543.76478824044261
 20
277.35651646281201
 30
0.0
  0
VERTEX
  5
146DD
  8
0
 10
543.34912954984418
 20
276.98905464536978
 30
0.0
  0
VERTEX
  5
146DE
  8
0
 10
542.93700507677704
 20
276.61237504764949
 30
0.0
  0
VERTEX
  5
146DF
  8
0
 10
542.52850200046339
 20
276.22655735100068
 30
0.0
  0
VERTEX
  5
146E0
  8
0
 10
542.32563552062902
 20
276.03024714503488
 30
0.0
  0
VERTEX
  5
146E1
  8
0
 10
542.12370673407031
 20
275.83168316981249
 30
0.0
  0
VERTEX
  5
146E2
  8
0
 10
541.72270490642723
 20
275.42783603424721
 30
0.0
  0
VERTEX
  5
146E3
  8
0
 10
541.32558134391627
 20
275.01510137257122
 30
0.0
  0
VERTEX
  5
146E4
  8
0
 10
540.93242005252432
 20
274.59356649308432
 30
0.0
  0
VERTEX
  5
146E5
  8
0
 10
540.5433042000758
 20
274.16332056564983
 30
0.0
  0
VERTEX
  5
146E6
  8
0
 10
540.15831609863915
 20
273.72445460283319
 30
0.0
  0
VERTEX
  5
146E7
  8
0
 10
539.96739543878675
 20
273.50181804871721
 30
0.0
  0
VERTEX
  5
146E8
  8
0
 10
539.77753718711301
 20
273.27706144064899
 30
0.0
  0
VERTEX
  5
146E9
  8
0
 10
539.40104801400037
 20
272.82123571892168
 30
0.0
  0
VERTEX
  5
146EA
  8
0
 10
539.02892822037029
 20
272.3570738612683
 30
0.0
  0
VERTEX
  5
146EB
  8
0
 10
538.66125652300968
 20
271.88467405469908
 30
0.0
  0
VERTEX
  5
146EC
  8
0
 10
538.29811069777224
 20
271.40413622884802
 30
0.0
  0
VERTEX
  5
146ED
  8
0
 10
537.93956756312582
 20
270.91556203483509
 30
0.0
  0
VERTEX
  5
146EE
  8
0
 10
537.76204574475742
 20
270.66829353117691
 30
0.0
  0
VERTEX
  5
146EF
  8
0
 10
537.5857029639036
 20
270.419054823762
 30
0.0
  0
VERTEX
  5
146F0
  8
0
 10
537.23659175525916
 20
269.9147196248507
 30
0.0
  0
VERTEX
  5
146F1
  8
0
 10
536.89230778683213
 20
269.40266312322501
 30
0.0
  0
VERTEX
  5
146F2
  8
0
 10
536.72199881691813
 20
269.14377317023491
 30
0.0
  0
VERTEX
  5
146F3
  8
0
 10
536.55292388712587
 20
268.88299363734399
 30
0.0
  0
VERTEX
  5
146F4
  8
0
 10
536.21851184810248
 20
268.35582109608822
 30
0.0
  0
VERTEX
  5
146F5
  8
0
 10
535.88914240999566
 20
267.82125701550422
 30
0.0
  0
VERTEX
  5
146F6
  8
0
 10
535.72637048134027
 20
267.55123842492179
 30
0.0
  0
VERTEX
  5
146F7
  8
0
 10
535.56488524634733
 20
267.27941447521778
 30
0.0
  0
VERTEX
  5
146F8
  8
0
 10
535.24580894926794
 20
266.7304080945118
 30
0.0
  0
VERTEX
  5
146F9
  8
0
 10
534.9319810149276
 20
266.1743540080796
 30
0.0
  0
VERTEX
  5
146FA
  8
0
 10
533.87586236646337
 20
264.17437540143959
 30
0.0
  0
VERTEX
  5
146FB
  8
0
 10
532.22460488424895
 20
260.56340442734438
 30
0.0
  0
VERTEX
  5
146FC
  8
0
 10
530.78516510119289
 20
256.74580717211342
 30
0.0
  0
VERTEX
  5
146FD
  8
0
 10
529.56849802320176
 20
252.75063785598689
 30
0.0
  0
VERTEX
  5
146FE
  8
0
 10
528.58386322138267
 20
248.60830212980991
 30
0.0
  0
VERTEX
  5
146FF
  8
0
 10
528.18097032853484
 20
246.49176139599101
 30
0.0
  0
VERTEX
  5
14700
  8
0
 10
527.83875436111657
 20
244.35032566966939
 30
0.0
  0
VERTEX
  5
14701
  8
0
 10
527.33884217073864
 20
240.0091142474632
 30
0.0
  0
VERTEX
  5
14702
  8
0
 10
527.08793128387288
 20
235.6177071034098
 30
0.0
  0
VERTEX
  5
14703
  8
0
 10
527.05652259607439
 20
233.41361630044449
 30
0.0
  0
SEQEND
  5
14704
  8
0
  0
POLYLINE
  5
9AE9
  8
0
 66
     1
 10
0.0
 20
0.0
 30
0.0
  0
VERTEX
  5
14705
  8
0
 10
527.05652259607439
 20
233.41361630044449
 30
0.0
  0
VERTEX
  5
14706
  8
0
 10
527.06146797096835
 20
232.53885152437479
 30
0.0
  0
VERTEX
  5
14707
  8
0
 10
527.10102207720684
 20
230.79037063056529
 30
0.0
  0
VERTEX
  5
14708
  8
0
 10
527.18008287265945
 20
229.04503445462629
 30
0.0
  0
VERTEX
  5
14709
  8
0
 10
527.23440050825184
 20
228.1741996922737
 30
0.0
  0
VERTEX
  5
1470A
  8
0
 10
527.29855558011911
 20
227.3049352862453
 30
0.0
  0
VERTEX
  5
1470B
  8
0
 10
527.45629817581676
 20
225.57215913704241
 30
0.0
  0
VERTEX
  5
1470C
  8
0
 10
527.65312155967376
 20
223.84878323988451
 30
0.0
  0
VERTEX
  5
1470D
  8
0
 10
527.88878978199625
 20
222.13687355871929
 30
0.0
  0
VERTEX
  5
1470E
  8
0
 10
528.16302032632893
 20
220.438482311923
 30
0.0
  0
VERTEX
  5
1470F
  8
0
 10
528.47548444813083
 20
218.75564551212071
 30
0.0
  0
VERTEX
  5
14710
  8
0
 10
528.64593882327654
 20
217.9206912514295
 30
0.0
  0
VERTEX
  5
14711
  8
0
 10
528.82580756887035
 20
217.09038052543991
 30
0.0
  0
VERTEX
  5
14712
  8
0
 10
529.21356972506999
 20
215.44468365311261
 30
0.0
  0
VERTEX
  5
14713
  8
0
 10
529.63830607174839
 20
213.82052773833169
 30
0.0
  0
VERTEX
  5
14714
  8
0
 10
530.09950743967511
 20
212.21985980122929
 30
0.0
  0
VERTEX
  5
14715
  8
0
 10
530.59662094575549
 20
210.64459870480911
 30
0.0
  0
VERTEX
  5
14716
  8
0
 10
531.12905065582163
 20
209.0966328546362
 30
0.0
  0
VERTEX
  5
14717
  8
0
 10
531.40831126090825
 20
208.33346688752539
 30
0.0
  0
VERTEX
  5
14718
  8
0
 10
531.69615829903057
 20
207.57781793503591
 30
0.0
  0
VERTEX
  5
14719
  8
0
 10
532.29726403301765
 20
206.08997468452071
 30
0.0
  0
VERTEX
  5
1471A
  8
0
 10
532.93164725888289
 20
204.63488671311001
 30
0.0
  0
VERTEX
  5
1471B
  8
0
 10
533.26108181135032
 20
203.9201726557319
 30
0.0
  0
SEQEND
  5
1471C
  8
0
  0
POLYLINE
  5
9AEA
  8
0
 66
     1
 10
0.0
 20
0.0
 30
0.0
  0
VERTEX
  5
1471D
  8
0
 10
533.26108181135032
 20
203.9201726557319
 30
0.0
  0
VERTEX
  5
1471E
  8
0
 10
533.87727075097098
 20
202.6500469476963
 30
0.0
  0
VERTEX
  5
1471F
  8
0
 10
535.1860238854905
 20
200.20150034537431
 30
0.0
  0
VERTEX
  5
14720
  8
0
 10
536.59229307024862
 20
197.8831768803397
 30
0.0
  0
VERTEX
  5
14721
  8
0
 10
537.33028743751402
 20
196.77571039494239
 30
0.0
  0
SEQEND
  5
14722
  8
0
  0
POLYLINE
  5
9AEB
  8
0
 66
     1
 10
0.0
 20
0.0
 30
0.0
  0
VERTEX
  5
14723
  8
0
 10
581.55652259607405
 20
195.37204995221271
 30
0.0
  0
VERTEX
  5
14724
  8
0
 10
581.57847143239758
 20
195.3920513753898
 30
0.0
  0
VERTEX
  5
14725
  8
0
 10
581.622224009398
 20
195.4323606779466
 30
0.0
  0
VERTEX
  5
14726
  8
0
 10
581.66577815048322
 20
195.4730784783068
 30
0.0
  0
VERTEX
  5
14727
  8
0
 10
581.68747895677905
 20
195.4935905021656
 30
0.0
  0
SEQEND
  5
14728
  8
0
  0
POLYLINE
  5
9AEC
  8
0
 66
     1
 10
0.0
 20
0.0
 30
0.0
  0
VERTEX
  5
14729
  8
0
 10
581.68747895677905
 20
195.4935905021656
 30
0.0
  0
VERTEX
  5
1472A
  8
0
 10
581.88388114292309
 20
195.6863496793145
 30
0.0
  0
VERTEX
  5
1472B
  8
0
 10
582.26147685878732
 20
196.09734006069669
 30
0.0
  0
VERTEX
  5
1472C
  8
0
 10
582.61557513017124
 20
196.54154604973601
 30
0.0
  0
VERTEX
  5
1472D
  8
0
 10
582.78275775463499
 20
196.77571039494239
 30
0.0
  0
SEQEND
  5
1472E
  8
0
  0
LINE
  5
9AED
  8
0
 10
581.55652259607405
 20
192.24368873142009
 30
0.0
 11
578.55652259607405
 21
192.24368873142009
 31
0.0
  0
LINE
  5
9AEE
  8
0
 10
541.5565225960745
 20
192.24368873142009
 30
0.0
 11
538.55652259607439
 21
192.24368873142009
 31
0.0
  0
POLYLINE
  5
9AF0
  8
0
 66
     1
 10
0.0
 20
0.0
 30
0.0
  0
VERTEX
  5
1472F
  8
0
 10
537.33028743751402
 20
196.77571039494239
 30
0.0
  0
VERTEX
  5
14730
  8
0
 10
537.42865630402503
 20
196.63581557059649
 30
0.0
  0
VERTEX
  5
14731
  8
0
 10
537.63256674374679
 20
196.3644057464131
 30
0.0
  0
VERTEX
  5
14732
  8
0
 10
537.84549168069771
 20
196.10444206544429
 30
0.0
  0
SEQEND
  5
14733
  8
0
  0
POLYLINE
  5
9AF1
  8
0
 66
     1
 10
0.0
 20
0.0
 30
0.0
  0
VERTEX
  5
14734
  8
0
 10
537.95511777729735
 20
195.97883171054261
 30
0.0
  0
VERTEX
  5
14735
  8
0
 10
538.05201510731513
 20
195.8720512718254
 30
0.0
  0
VERTEX
  5
14736
  8
0
 10
538.25003019895621
 20
195.6652398311748
 30
0.0
  0
VERTEX
  5
14737
  8
0
 10
538.45319588893108
 20
195.46750054881059
 30
0.0
  0
VERTEX
  5
14738
  8
0
 10
538.55652259607439
 20
195.37204995221271
 30
0.0
  0
SEQEND
  5
14739
  8
0
  0
POLYLINE
  5
9AF2
  8
0
 66
     1
 10
0.0
 20
0.0
 30
0.0
  0
VERTEX
  5
1473A
  8
0
 10
578.55652259607132
 20
196.31268962795309
 30
0.0
  0
VERTEX
  5
1473B
  8
0
 10
578.62789367635332
 20
196.38755646307931
 30
0.0
  0
VERTEX
  5
1473C
  8
0
 10
578.76777607534757
 20
196.5400556129502
 30
0.0
  0
VERTEX
  5
1473D
  8
0
 10
578.90378765117646
 20
196.6962388887377
 30
0.0
  0
VERTEX
  5
1473E
  8
0
 10
578.97032085243188
 20
196.77571039494239
 30
0.0
  0
SEQEND
  5
1473F
  8
0
  0
POLYLINE
  5
9AF3
  8
0
 66
     1
 10
0.0
 20
0.0
 30
0.0
  0
VERTEX
  5
14740
  8
0
 10
578.97032085243188
 20
196.77571039494239
 30
0.0
  0
VERTEX
  5
14741
  8
0
 10
579.56376625287248
 20
197.51268286616221
 30
0.0
  0
VERTEX
  5
14742
  8
0
 10
580.71356394984684
 20
199.05374560736971
 30
0.0
  0
VERTEX
  5
14743
  8
0
 10
581.81151220298625
 20
200.6810520731828
 30
0.0
  0
VERTEX
  5
14744
  8
0
 10
582.34017630531525
 20
201.525778456898
 30
0.0
  0
VERTEX
  5
14745
  8
0
 10
582.85485514782295
 20
202.39051770309919
 30
0.0
  0
VERTEX
  5
14746
  8
0
 10
583.84097397992582
 20
204.17785171604089
 30
0.0
  0
VERTEX
  5
14747
  8
0
 10
584.76739352813536
 20
206.0385678802713
 30
0.0
  0
VERTEX
  5
14748
  8
0
 10
585.63178846727533
 20
207.96799577389299
 30
0.0
  0
VERTEX
  5
14749
  8
0
 10
586.43198915474875
 20
209.96129250767211
 30
0.0
  0
VERTEX
  5
1474A
  8
0
 10
587.16598707636922
 20
212.01345488074861
 30
0.0
  0
VERTEX
  5
1474B
  8
0
 10
587.50757764700893
 20
213.06000642926841
 30
0.0
  0
VERTEX
  5
1474C
  8
0
 10
587.83193988775884
 20
214.11933193874
 30
0.0
  0
VERTEX
  5
1474D
  8
0
 10
588.42817603865524
 20
216.27363790270189
 30
0.0
  0
VERTEX
  5
1474E
  8
0
 10
588.95319896852561
 20
218.47096543650241
 30
0.0
  0
VERTEX
  5
1474F
  8
0
 10
589.40569086295181
 20
220.70579921930761
 30
0.0
  0
VERTEX
  5
14750
  8
0
 10
589.78451596136483
 20
222.97252978910811
 30
0.0
  0
VERTEX
  5
14751
  8
0
 10
590.08872340781488
 20
225.26546762254199
 30
0.0
  0
VERTEX
  5
14752
  8
0
 10
590.21259952588696
 20
226.41996790616031
 30
0.0
  0
VERTEX
  5
14753
  8
0
 10
590.31754963763478
 20
227.5788574156731
 30
0.0
  0
VERTEX
  5
14754
  8
0
 10
590.47042029399597
 20
229.90689252987951
 30
0.0
  0
VERTEX
  5
14755
  8
0
 10
590.54695166955344
 20
232.2437295665913
 30
0.0
  0
VERTEX
  5
14756
  8
0
 10
590.55652259607405
 20
233.41361630044449
 30
0.0
  0
SEQEND
  5
14757
  8
0
  0
POLYLINE
  5
9AF4
  8
0
 66
     1
 10
0.0
 20
0.0
 30
0.0
  0
VERTEX
  5
14758
  8
0
 10
590.55652259607405
 20
233.41361630044449
 30
0.0
  0
VERTEX
  5
14759
  8
0
 10
590.54920598296712
 20
234.4365085702797
 30
0.0
  0
VERTEX
  5
1475A
  8
0
 10
590.49069413851964
 20
236.4803303009507
 30
0.0
  0
VERTEX
  5
1475B
  8
0
 10
590.37378272691831
 20
238.5182673710203
 30
0.0
  0
VERTEX
  5
1475C
  8
0
 10
590.29349292230415
 20
239.5338064619545
 30
0.0
  0
VERTEX
  5
1475D
  8
0
 10
590.19869608730176
 20
240.54640922085261
 30
0.0
  0
VERTEX
  5
1475E
  8
0
 10
589.96577019017366
 20
242.56086408667821
 30
0.0
  0
VERTEX
  5
1475F
  8
0
 10
589.67545199271797
 20
244.55776646842779
 30
0.0
  0
VERTEX
  5
14760
  8
0
 10
589.32829858113701
 20
246.5332845471678
 30
0.0
  0
VERTEX
  5
14761
  8
0
 10
588.92497610167129
 20
248.48362753790661
 30
0.0
  0
VERTEX
  5
14762
  8
0
 10
588.46625848234544
 20
250.40505296366291
 30
0.0
  0
VERTEX
  5
14763
  8
0
 10
588.21639745805214
 20
251.35376704425059
 30
0.0
  0
VERTEX
  5
14764
  8
0
 10
587.95302594788825
 20
252.2938738368334
 30
0.0
  0
VERTEX
  5
14765
  8
0
 10
587.38626333068851
 20
254.14646573408569
 30
0.0
  0
VERTEX
  5
14766
  8
0
 10
586.76705818101789
 20
255.95927375119891
 30
0.0
  0
VERTEX
  5
14767
  8
0
 10
586.09659868015069
 20
257.728819324499
 30
0.0
  0
VERTEX
  5
14768
  8
0
 10
585.37617136038443
 20
259.4517069058154
 30
0.0
  0
VERTEX
  5
14769
  8
0
 10
584.60715863633766
 20
261.12463047813088
 30
0.0
  0
VERTEX
  5
1476A
  8
0
 10
584.20489032098112
 20
261.94134867667429
 30
0.0
  0
VERTEX
  5
1476B
  8
0
 10
583.79103615225938
 20
262.74437989943902
 30
0.0
  0
VERTEX
  5
1476C
  8
0
 10
582.92936995044408
 20
264.307847062625
 30
0.0
  0
VERTEX
  5
1476D
  8
0
 10
582.0238134661804
 20
265.81203185955508
 30
0.0
  0
VERTEX
  5
1476E
  8
0
 10
581.55511618572928
 20
266.540986789008
 30
0.0
  0
SEQEND
  5
1476F
  8
0
  0
POLYLINE
  5
9AF5
  8
0
 66
     1
 10
0.0
 20
0.0
 30
0.0
  0
VERTEX
  5
14770
  8
0
 10
581.55511618572928
 20
266.540986789008
 30
0.0
  0
VERTEX
  5
14771
  8
0
 10
581.07762779978884
 20
267.25182914469951
 30
0.0
  0
VERTEX
  5
14772
  8
0
 10
580.09281720242177
 20
268.6247842257257
 30
0.0
  0
VERTEX
  5
14773
  8
0
 10
579.06980090763182
 20
269.93059778911669
 30
0.0
  0
VERTEX
  5
14774
  8
0
 10
578.54457247639675
 20
270.55754325745158
 30
0.0
  0
SEQEND
  5
14775
  8
0
  0
POLYLINE
  5
9AF6
  8
0
 66
     1
 10
0.0
 20
0.0
 30
0.0
  0
VERTEX
  5
14776
  8
0
 10
578.54457247639675
 20
270.55754325745158
 30
0.0
  0
VERTEX
  5
14777
  8
0
 10
578.29614265428825
 20
270.8444081772642
 30
0.0
  0
VERTEX
  5
14778
  8
0
 10
577.79361421794374
 20
271.40642177991822
 30
0.0
  0
VERTEX
  5
14779
  8
0
 10
577.28370204898044
 20
271.95261944594262
 30
0.0
  0
VERTEX
  5
1477A
  8
0
 10
577.02604328152836
 20
272.2197159881261
 30
0.0
  0
VERTEX
  5
1477B
  8
0
 10
576.76661841755049
 20
272.48277379998171
 30
0.0
  0
VERTEX
  5
1477C
  8
0
 10
576.24257857919508
 20
272.99666414531242
 30
0.0
  0
VERTEX
  5
1477D
  8
0
 10
575.71180068524006
 20
273.49407655571838
 30
0.0
  0
VERTEX
  5
1477E
  8
0
 10
575.17450569198024
 20
273.9748039645437
 30
0.0
  0
VERTEX
  5
1477F
  8
0
 10
574.63091726869925
 20
274.43864625089412
 30
0.0
  0
VERTEX
  5
14780
  8
0
 10
574.08126170455671
 20
274.88541032294228
 30
0.0
  0
VERTEX
  5
14781
  8
0
 10
573.80423015323731
 20
275.10232962926011
 30
0.0
  0
VERTEX
  5
14782
  8
0
 10
573.52576781438984
 20
275.31491019831168
 30
0.0
  0
VERTEX
  5
14783
  8
0
 10
572.96466684345751
 20
275.72696708149891
 30
0.0
  0
VERTEX
  5
14784
  8
0
 10
572.39819237117854
 20
276.12140943830212
 30
0.0
  0
VERTEX
  5
14785
  8
0
 10
571.82658021389295
 20
276.49807306722948
 30
0.0
  0
VERTEX
  5
14786
  8
0
 10
571.25006832669658
 20
276.85680116785568
 30
0.0
  0
VERTEX
  5
14787
  8
0
 10
570.66889670438195
 20
277.19744440609378
 30
0.0
  0
VERTEX
  5
14788
  8
0
 10
570.37663902408804
 20
277.36093959185507
 30
0.0
  0
VERTEX
  5
14789
  8
0
 10
570.08330728153214
 20
277.519860976362
 30
0.0
  0
VERTEX
  5
1478A
  8
0
 10
569.49354383180605
 20
277.8239166606167
 30
0.0
  0
VERTEX
  5
1478B
  8
0
 10
568.89985186645799
 20
278.1094848842244
 30
0.0
  0
VERTEX
  5
1478C
  8
0
 10
568.60160986267965
 20
278.24529874673988
 30
0.0
  0
SEQEND
  5
1478D
  8
0
  0
POLYLINE
  5
9AF7
  8
0
 66
     1
 10
0.0
 20
0.0
 30
0.0
  0
VERTEX
  5
1478E
  8
0
 10
568.60160986267965
 20
278.24529874673988
 30
0.0
  0
VERTEX
  5
1478F
  8
0
 10
568.1386680502892
 20
278.44613016262832
 30
0.0
  0
VERTEX
  5
14790
  8
0
 10
567.20686576687865
 20
278.81412316203148
 30
0.0
  0
VERTEX
  5
14791
  8
0
 10
566.26794570918901
 20
279.13692244803082
 30
0.0
  0
VERTEX
  5
14792
  8
0
 10
565.79610833967536
 20
279.2812722668063
 30
0.0
  0
VERTEX
  5
14793
  8
0
 10
565.32284252061754
 20
279.41420669164881
 30
0.0
  0
VERTEX
  5
14794
  8
0
 10
564.37249699953054
 20
279.64569987163622
 30
0.0
  0
VERTEX
  5
14795
  8
0
 10
563.41785516274695
 20
279.83117154923451
 30
0.0
  0
VERTEX
  5
14796
  8
0
 10
562.45986730383311
 20
279.97043709756588
 30
0.0
  0
VERTEX
  5
14797
  8
0
 10
561.49948704713734
 20
280.06335788541799
 30
0.0
  0
VERTEX
  5
14798
  8
0
 10
560.53767039850754
 20
280.10984141524563
 30
0.0
  0
VERTEX
  5
14799
  8
0
 10
560.05652259607439
 20
280.11565294119458
 30
0.0
  0
VERTEX
  5
1479A
  8
0
 10
559.57537479364134
 20
280.10984141524563
 30
0.0
  0
VERTEX
  5
1479B
  8
0
 10
558.61355814501121
 20
280.06335788541799
 30
0.0
  0
VERTEX
  5
1479C
  8
0
 10
557.65317788831544
 20
279.97043709756588
 30
0.0
  0
VERTEX
  5
1479D
  8
0
 10
556.69519002940149
 20
279.83117154923451
 30
0.0
  0
VERTEX
  5
1479E
  8
0
 10
555.74054819261801
 20
279.64569987163622
 30
0.0
  0
VERTEX
  5
1479F
  8
0
 10
554.79020267153101
 20
279.41420669164881
 30
0.0
  0
VERTEX
  5
147A0
  8
0
 10
554.31693685247319
 20
279.2812722668063
 30
0.0
  0
VERTEX
  5
147A1
  8
0
 10
553.84509948295954
 20
279.13692244803082
 30
0.0
  0
VERTEX
  5
147A2
  8
0
 10
552.90617942526967
 20
278.81412316203148
 30
0.0
  0
VERTEX
  5
147A3
  8
0
 10
551.97437714185935
 20
278.44613016262832
 30
0.0
  0
VERTEX
  5
147A4
  8
0
 10
551.5114353294689
 20
278.24529874673988
 30
0.0
  0
SEQEND
  5
147A5
  8
0
  0
POLYLINE
  5
9AF8
  8
0
 66
     1
 10
0.0
 20
0.0
 30
0.0
  0
VERTEX
  5
147A6
  8
0
 10
551.5114353294689
 20
278.24529874673988
 30
0.0
  0
VERTEX
  5
147A7
  8
0
 10
551.21319332569055
 20
278.1094848842244
 30
0.0
  0
VERTEX
  5
147A8
  8
0
 10
550.61950136034284
 20
277.8239166606167
 30
0.0
  0
VERTEX
  5
147A9
  8
0
 10
550.0297379106164
 20
277.519860976362
 30
0.0
  0
VERTEX
  5
147AA
  8
0
 10
549.73640616806051
 20
277.36093959185507
 30
0.0
  0
VERTEX
  5
147AB
  8
0
 10
549.4441484877666
 20
277.19744440609378
 30
0.0
  0
VERTEX
  5
147AC
  8
0
 10
548.86297686545186
 20
276.85680116785568
 30
0.0
  0
VERTEX
  5
147AD
  8
0
 10
548.28646497825548
 20
276.49807306722948
 30
0.0
  0
VERTEX
  5
147AE
  8
0
 10
547.71485282097001
 20
276.12140943830212
 30
0.0
  0
VERTEX
  5
147AF
  8
0
 10
547.14837834869104
 20
275.72696708149891
 30
0.0
  0
VERTEX
  5
147B0
  8
0
 10
546.58727737775905
 20
275.31491019831168
 30
0.0
  0
VERTEX
  5
147B1
  8
0
 10
546.30881503891123
 20
275.10232962926011
 30
0.0
  0
VERTEX
  5
147B2
  8
0
 10
546.03178348759184
 20
274.88541032294228
 30
0.0
  0
VERTEX
  5
147B3
  8
0
 10
545.48212792344975
 20
274.43864625089412
 30
0.0
  0
VERTEX
  5
147B4
  8
0
 10
544.93853950016819
 20
273.9748039645437
 30
0.0
  0
VERTEX
  5
147B5
  8
0
 10
544.40124450690882
 20
273.49407655571838
 30
0.0
  0
VERTEX
  5
147B6
  8
0
 10
543.87046661295369
 20
272.99666414531242
 30
0.0
  0
VERTEX
  5
147B7
  8
0
 10
543.34642677459794
 20
272.48277379998171
 30
0.0
  0
VERTEX
  5
147B8
  8
0
 10
543.08700191061996
 20
272.21971598812632
 30
0.0
  0
VERTEX
  5
147B9
  8
0
 10
542.82934314316788
 20
271.95261944594262
 30
0.0
  0
VERTEX
  5
147BA
  8
0
 10
542.31943097420515
 20
271.40642177991822
 30
0.0
  0
VERTEX
  5
147BB
  8
0
 10
541.81690253786064
 20
270.84440817726448
 30
0.0
  0
VERTEX
  5
147BC
  8
0
 10
541.56847271575225
 20
270.55754325745158
 30
0.0
  0
SEQEND
  5
147BD
  8
0
  0
POLYLINE
  5
9AF9
  8
0
 66
     1
 10
0.0
 20
0.0
 30
0.0
  0
VERTEX
  5
147BE
  8
0
 10
541.56847271575225
 20
270.55754325745158
 30
0.0
  0
VERTEX
  5
147BF
  8
0
 10
541.04324428451719
 20
269.93059778911669
 30
0.0
  0
VERTEX
  5
147C0
  8
0
 10
540.020227989727
 20
268.6247842257257
 30
0.0
  0
VERTEX
  5
147C1
  8
0
 10
539.03541739235959
 20
267.25182914469951
 30
0.0
  0
VERTEX
  5
147C2
  8
0
 10
538.55792900641927
 20
266.540986789008
 30
0.0
  0
SEQEND
  5
147C3
  8
0
  0
POLYLINE
  5
9AFA
  8
0
 66
     1
 10
0.0
 20
0.0
 30
0.0
  0
VERTEX
  5
147C4
  8
0
 10
538.55792900641927
 20
266.540986789008
 30
0.0
  0
VERTEX
  5
147C5
  8
0
 10
538.08923172596815
 20
265.81203185955508
 30
0.0
  0
VERTEX
  5
147C6
  8
0
 10
537.18367524170435
 20
264.307847062625
 30
0.0
  0
VERTEX
  5
147C7
  8
0
 10
536.32200903988905
 20
262.74437989943902
 30
0.0
  0
VERTEX
  5
147C8
  8
0
 10
535.90815487116743
 20
261.94134867667429
 30
0.0
  0
VERTEX
  5
147C9
  8
0
 10
535.50588655581066
 20
261.12463047813088
 30
0.0
  0
VERTEX
  5
147CA
  8
0
 10
534.73687383176411
 20
259.45170690581563
 30
0.0
  0
VERTEX
  5
147CB
  8
0
 10
534.01644651199786
 20
257.728819324499
 30
0.0
  0
VERTEX
  5
147CC
  8
0
 10
533.34598701113055
 20
255.95927375119891
 30
0.0
  0
VERTEX
  5
147CD
  8
0
 10
532.72678186146004
 20
254.14646573408569
 30
0.0
  0
VERTEX
  5
147CE
  8
0
 10
532.16001924426007
 20
252.2938738368334
 30
0.0
  0
VERTEX
  5
147CF
  8
0
 10
531.89664773409686
 20
251.35376704425059
 30
0.0
  0
VERTEX
  5
147D0
  8
0
 10
531.646786709803
 20
250.40505296366291
 30
0.0
  0
VERTEX
  5
147D1
  8
0
 10
531.18806909047726
 20
248.48362753790661
 30
0.0
  0
VERTEX
  5
147D2
  8
0
 10
530.784746611012
 20
246.5332845471678
 30
0.0
  0
VERTEX
  5
147D3
  8
0
 10
530.43759319943047
 20
244.55776646842779
 30
0.0
  0
VERTEX
  5
147D4
  8
0
 10
530.14727500197478
 20
242.56086408667821
 30
0.0
  0
VERTEX
  5
147D5
  8
0
 10
529.91434910484656
 20
240.54640922085261
 30
0.0
  0
VERTEX
  5
147D6
  8
0
 10
529.81955226984417
 20
239.5338064619545
 30
0.0
  0
VERTEX
  5
147D7
  8
0
 10
529.73926246523024
 20
238.5182673710203
 30
0.0
  0
VERTEX
  5
147D8
  8
0
 10
529.62235105362879
 20
236.4803303009507
 30
0.0
  0
VERTEX
  5
147D9
  8
0
 10
529.56383920918176
 20
234.4365085702797
 30
0.0
  0
VERTEX
  5
147DA
  8
0
 10
529.5565225960745
 20
233.41361630044449
 30
0.0
  0
SEQEND
  5
147DB
  8
0
  0
POLYLINE
  5
9AFB
  8
0
 66
     1
 10
0.0
 20
0.0
 30
0.0
  0
VERTEX
  5
147DC
  8
0
 10
529.5565225960745
 20
233.41361630044449
 30
0.0
  0
VERTEX
  5
147DD
  8
0
 10
529.56609352259557
 20
232.2437295665911
 30
0.0
  0
VERTEX
  5
147DE
  8
0
 10
529.64262489815235
 20
229.90689252987951
 30
0.0
  0
VERTEX
  5
147DF
  8
0
 10
529.79549555451422
 20
227.5788574156731
 30
0.0
  0
VERTEX
  5
147E0
  8
0
 10
529.90044566626136
 20
226.41996790616031
 30
0.0
  0
VERTEX
  5
147E1
  8
0
 10
530.02432178433389
 20
225.26546762254199
 30
0.0
  0
VERTEX
  5
147E2
  8
0
 10
530.32852923078372
 20
222.97252978910811
 30
0.0
  0
VERTEX
  5
147E3
  8
0
 10
530.70735432919673
 20
220.70579921930761
 30
0.0
  0
VERTEX
  5
147E4
  8
0
 10
531.15984622362339
 20
218.47096543650241
 30
0.0
  0
VERTEX
  5
147E5
  8
0
 10
531.68486915349331
 20
216.27363790270189
 30
0.0
  0
VERTEX
  5
147E6
  8
0
 10
532.28110530438971
 20
214.11933193874
 30
0.0
  0
VERTEX
  5
147E7
  8
0
 10
532.60546754513962
 20
213.06000642926841
 30
0.0
  0
VERTEX
  5
147E8
  8
0
 10
532.94705811577933
 20
212.01345488074861
 30
0.0
  0
VERTEX
  5
147E9
  8
0
 10
533.68105603739957
 20
209.96129250767211
 30
0.0
  0
VERTEX
  5
147EA
  8
0
 10
534.48125672487322
 20
207.96799577389299
 30
0.0
  0
VERTEX
  5
147EB
  8
0
 10
535.34565166401308
 20
206.0385678802713
 30
0.0
  0
VERTEX
  5
147EC
  8
0
 10
536.27207121222273
 20
204.1778517160412
 30
0.0
  0
VERTEX
  5
147ED
  8
0
 10
537.2581900443256
 20
202.39051770309919
 30
0.0
  0
VERTEX
  5
147EE
  8
0
 10
537.77286888683329
 20
201.525778456898
 30
0.0
  0
VERTEX
  5
147EF
  8
0
 10
538.30153298916218
 20
200.6810520731828
 30
0.0
  0
VERTEX
  5
147F0
  8
0
 10
539.39948124230204
 20
199.05374560736999
 30
0.0
  0
VERTEX
  5
147F1
  8
0
 10
540.54927893927652
 20
197.51268286616221
 30
0.0
  0
VERTEX
  5
147F2
  8
0
 10
541.5565225960745
 20
196.26183342606251
 30
0.0
  0
SEQEND
  5
147F3
  8
0
  0
LINE
  5
9AFC
  8
0
 10
578.55652259607405
 20
270.54327884804002
 30
0.0
 11
578.55652259607405
 21
192.24368873142009
 31
0.0
  0
LINE
  5
9AFD
  8
0
 10
541.5565225960745
 20
192.24368873142009
 30
0.0
 11
541.5565225960745
 21
270.54327884803951
 31
0.0
  0
LINE
  5
9AFE
  8
0
 10
591.78952259607422
 20
206.24368873142021
 30
0.0
 11
589.55652259607405
 21
206.24368873142021
 31
0.0
  0
LINE
  5
9AFF
  8
0
 10
589.55652259607405
 20
198.24368873142009
 30
0.0
 11
591.78952259607422
 21
198.24368873142009
 31
0.0
  0
LINE
  5
9B00
  8
0
 10
592.55652259607405
 20
205.4766887314203
 30
0.0
 11
591.78952259607422
 21
206.24368873142021
 31
0.0
  0
LINE
  5
9B01
  8
0
 10
591.78952259607422
 20
198.24368873142009
 30
0.0
 11
592.55652259607405
 21
199.0106887314204
 31
0.0
  0
LINE
  5
9B02
  8
0
 10
533.25652259607432
 20
195.98535539808691
 30
0.0
 11
533.5159423054896
 21
195.01718786206351
 31
0.0
  0
LINE
  5
9B03
  8
0
 10
537.69710288665874
 20
195.01718786206351
 30
0.0
 11
537.95485519635895
 21
195.979132577634
 31
0.0
  0
LINE
  5
9B04
  8
0
 10
589.55652259607405
 20
208.0586887314202
 30
0.0
 11
588.60132330808665
 21
208.0586887314202
 31
0.0
  0
LINE
  5
9B05
  8
0
 10
587.05652259607405
 20
196.4286887314201
 30
0.0
 11
589.55652259607405
 21
196.4286887314201
 31
0.0
  0
LINE
  5
9B06
  8
0
 10
581.68812160085554
 20
195.49422122601749
 30
0.0
 11
581.8159423054899
 21
195.01718786206351
 31
0.0
  0
LINE
  5
9B07
  8
0
 10
586.79710288665865
 20
195.01718786206351
 30
0.0
 11
587.05652259607405
 21
195.98535539808691
 31
0.0
  0
LINE
  5
9B08
  8
0
 10
578.55652259607405
 20
209.74368873142021
 30
0.0
 11
577.5565225960745
 21
209.74368873142021
 31
0.0
  0
LINE
  5
9B09
  8
0
 10
542.55652259607439
 20
209.74368873142021
 30
0.0
 11
541.5565225960745
 21
209.74368873142021
 31
0.0
  0
LINE
  5
9B0A
  8
0
 10
541.5565225960745
 20
194.74368873142009
 30
0.0
 11
542.55652259607439
 21
194.74368873142009
 31
0.0
  0
LINE
  5
9B0B
  8
0
 10
577.5565225960745
 20
194.74368873142009
 30
0.0
 11
578.55652259607405
 21
194.74368873142009
 31
0.0
  0
LINE
  5
9B0C
  8
0
 10
591.78952259607422
 20
198.24368873142009
 30
0.0
 11
591.78952259607422
 21
206.24368873142021
 31
0.0
  0
LINE
  5
9B0D
  8
0
 10
592.55652259607405
 20
199.0106887314204
 30
0.0
 11
592.55652259607405
 21
205.4766887314203
 31
0.0
  0
LINE
  5
9B0E
  8
0
 10
533.25652259607432
 20
195.98535539808691
 30
0.0
 11
533.25652259607432
 21
203.93006395348419
 31
0.0
  0
LINE
  5
9B0F
  8
0
 10
533.5159423054896
 20
195.01718786206351
 30
0.0
 11
537.69710288665874
 21
195.01718786206351
 31
0.0
  0
POLYLINE
  5
9B10
  8
0
 66
     1
 10
0.0
 20
0.0
 30
0.0
  0
VERTEX
  5
147F4
  8
0
 10
533.5159423054896
 20
195.01718786206351
 30
0.0
  0
VERTEX
  5
147F5
  8
0
 10
533.43509765223178
 20
195.34176175773561
 30
0.0
  0
VERTEX
  5
147F6
  8
0
 10
533.32048731347857
 20
195.95132233650739
 30
0.0
  0
VERTEX
  5
147F7
  8
0
 10
533.26371272969425
 20
196.53373050808329
 30
0.0
  0
VERTEX
  5
147F8
  8
0
 10
533.25652259607432
 20
196.82381307940261
 30
0.0
  0
SEQEND
  5
147F9
  8
0
  0
POLYLINE
  5
9B11
  8
0
 66
     1
 10
0.0
 20
0.0
 30
0.0
  0
VERTEX
  5
147FA
  8
0
 10
533.25652259607432
 20
196.82381307940261
 30
0.0
  0
VERTEX
  5
147FB
  8
0
 10
533.26371272969425
 20
197.11389565072199
 30
0.0
  0
VERTEX
  5
147FC
  8
0
 10
533.32048731347857
 20
197.69630382229789
 30
0.0
  0
VERTEX
  5
147FD
  8
0
 10
533.43509765223178
 20
198.3058644010697
 30
0.0
  0
VERTEX
  5
147FE
  8
0
 10
533.5159423054896
 20
198.6304382967418
 30
0.0
  0
SEQEND
  5
147FF
  8
0
  0
POLYLINE
  5
9B12
  8
0
 66
     1
 10
0.0
 20
0.0
 30
0.0
  0
VERTEX
  5
14800
  8
0
 10
537.90125573954492
 20
196.04054721339861
 30
0.0
  0
VERTEX
  5
14801
  8
0
 10
537.89255787867023
 20
195.95132233650739
 30
0.0
  0
VERTEX
  5
14802
  8
0
 10
537.77794753991702
 20
195.34176175773561
 30
0.0
  0
VERTEX
  5
14803
  8
0
 10
537.69710288665874
 20
195.01718786206351
 30
0.0
  0
SEQEND
  5
14804
  8
0
  0
LINE
  5
9B13
  8
0
 10
533.5159423054896
 20
198.6304382967418
 30
0.0
 11
536.13901262052104
 21
198.6304382967418
 31
0.0
  0
POLYLINE
  5
9B14
  8
0
 66
     1
 10
0.0
 20
0.0
 30
0.0
  0
VERTEX
  5
14805
  8
0
 10
533.5159423054896
 20
198.6304382967418
 30
0.0
  0
VERTEX
  5
14806
  8
0
 10
533.43509765223178
 20
199.2795860880864
 30
0.0
  0
VERTEX
  5
14807
  8
0
 10
533.32048731347857
 20
200.4987072456301
 30
0.0
  0
VERTEX
  5
14808
  8
0
 10
533.26371272969425
 20
201.66352358878149
 30
0.0
  0
VERTEX
  5
14809
  8
0
 10
533.25652259607432
 20
202.24368873142021
 30
0.0
  0
SEQEND
  5
1480A
  8
0
  0
POLYLINE
  5
9B15
  8
0
 66
     1
 10
0.0
 20
0.0
 30
0.0
  0
VERTEX
  5
1480B
  8
0
 10
533.25652259607432
 20
202.24368873142021
 30
0.0
  0
VERTEX
  5
1480C
  8
0
 10
533.26371272969425
 20
202.8238538740593
 30
0.0
  0
VERTEX
  5
1480D
  8
0
 10
533.3120299790944
 20
203.81515522768669
 30
0.0
  0
SEQEND
  5
1480E
  8
0
  0
POLYLINE
  5
9B16
  8
0
 66
     1
 10
0.0
 20
0.0
 30
0.0
  0
VERTEX
  5
1480F
  8
0
 10
533.3120299790944
 20
203.81515522768669
 30
0.0
  0
VERTEX
  5
14810
  8
0
 10
533.26371272969425
 20
202.8238538740593
 30
0.0
  0
VERTEX
  5
14811
  8
0
 10
533.25652259607432
 20
202.24368873142021
 30
0.0
  0
SEQEND
  5
14812
  8
0
  0
LINE
  5
9B17
  8
0
 10
589.55652259607405
 20
196.4286887314201
 30
0.0
 11
589.55652259607405
 21
208.0586887314202
 31
0.0
  0
LINE
  5
9B18
  8
0
 10
587.05652259607405
 20
195.98535539808691
 30
0.0
 11
587.05652259607405
 21
204.36091665391541
 31
0.0
  0
LINE
  5
9B19
  8
0
 10
581.8159423054899
 20
195.01718786206351
 30
0.0
 11
586.79710288665865
 21
195.01718786206351
 31
0.0
  0
POLYLINE
  5
9B1A
  8
0
 66
     1
 10
0.0
 20
0.0
 30
0.0
  0
VERTEX
  5
14813
  8
0
 10
581.8159423054899
 20
195.01718786206351
 30
0.0
  0
VERTEX
  5
14814
  8
0
 10
581.73509765223162
 20
195.34176175773561
 30
0.0
  0
VERTEX
  5
14815
  8
0
 10
581.70357952536415
 20
195.5093924258255
 30
0.0
  0
SEQEND
  5
14816
  8
0
  0
POLYLINE
  5
9B1B
  8
0
 66
     1
 10
0.0
 20
0.0
 30
0.0
  0
VERTEX
  5
14817
  8
0
 10
586.79710288665865
 20
198.6304382967418
 30
0.0
  0
VERTEX
  5
14818
  8
0
 10
586.87794753991693
 20
198.3058644010697
 30
0.0
  0
VERTEX
  5
14819
  8
0
 10
586.99255787867014
 20
197.69630382229789
 30
0.0
  0
VERTEX
  5
1481A
  8
0
 10
587.04933246245434
 20
197.11389565072199
 30
0.0
  0
VERTEX
  5
1481B
  8
0
 10
587.05652259607405
 20
196.82381307940261
 30
0.0
  0
SEQEND
  5
1481C
  8
0
  0
POLYLINE
  5
9B1C
  8
0
 66
     1
 10
0.0
 20
0.0
 30
0.0
  0
VERTEX
  5
1481D
  8
0
 10
587.05652259607405
 20
196.82381307940261
 30
0.0
  0
VERTEX
  5
1481E
  8
0
 10
587.04933246245434
 20
196.53373050808329
 30
0.0
  0
VERTEX
  5
1481F
  8
0
 10
586.99255787867014
 20
195.95132233650739
 30
0.0
  0
VERTEX
  5
14820
  8
0
 10
586.87794753991693
 20
195.34176175773561
 30
0.0
  0
VERTEX
  5
14821
  8
0
 10
586.79710288665865
 20
195.01718786206351
 30
0.0
  0
SEQEND
  5
14822
  8
0
  0
LINE
  5
9B1D
  8
0
 10
583.97352361796266
 20
198.6304382967418
 30
0.0
 11
586.79710288665865
 21
198.6304382967418
 31
0.0
  0
POLYLINE
  5
9B1E
  8
0
 66
     1
 10
0.0
 20
0.0
 30
0.0
  0
VERTEX
  5
14823
  8
0
 10
586.97391535100758
 20
204.1869725706517
 30
0.0
  0
VERTEX
  5
14824
  8
0
 10
586.99255787867014
 20
203.98867021721071
 30
0.0
  0
VERTEX
  5
14825
  8
0
 10
587.04933246245434
 20
202.8238538740593
 30
0.0
  0
VERTEX
  5
14826
  8
0
 10
587.05652259607405
 20
202.24368873142021
 30
0.0
  0
SEQEND
  5
14827
  8
0
  0
POLYLINE
  5
9B1F
  8
0
 66
     1
 10
0.0
 20
0.0
 30
0.0
  0
VERTEX
  5
14828
  8
0
 10
587.05652259607405
 20
202.24368873142021
 30
0.0
  0
VERTEX
  5
14829
  8
0
 10
587.04933246245434
 20
201.66352358878129
 30
0.0
  0
VERTEX
  5
1482A
  8
0
 10
586.99255787867014
 20
200.4987072456301
 30
0.0
  0
VERTEX
  5
1482B
  8
0
 10
586.87794753991693
 20
199.2795860880864
 30
0.0
  0
VERTEX
  5
1482C
  8
0
 10
586.79710288665865
 20
198.6304382967418
 30
0.0
  0
SEQEND
  5
1482D
  8
0
  0
ARC
  5
9B20
  8
0
 10
544.5565225960745
 20
143.76292266256641
 30
0.0
 40
2.0000000000000031
 50
180.0
 51
255.15539555291039
  0
ARC
  5
9B21
  8
0
 10
544.5565225960745
 20
260.72445480027397
 30
0.0
 40
2.0000000000000129
 50
104.84460444708959
 51
180.0
  0
ARC
  5
9B22
  8
0
 10
560.05652259607439
 20
202.24368873142021
 30
0.0
 40
62.499999999999837
 50
255.15539555291039
 51
284.84460444708958
  0
ARC
  5
9B23
  8
0
 10
560.05652259607439
 20
202.24368873142021
 30
0.0
 40
62.500000000000071
 50
75.155395552910377
 51
104.84460444708959
  0
ARC
  5
9B24
  8
0
 10
575.5565225960745
 20
143.76292266256641
 30
0.0
 40
1.9999999999999969
 50
284.84460444708958
 51
0.0
  0
ARC
  5
9B25
  8
0
 10
575.5565225960745
 20
260.72445480027397
 30
0.0
 40
1.9999999999999889
 50
0.0
 51
75.155395552910377
  0
LINE
  5
9B26
  8
0
 10
542.55652259607439
 20
143.76292266256641
 30
0.0
 11
542.55652259607439
 21
260.72445480027397
 31
0.0
  0
LINE
  5
9B27
  8
0
 10
577.5565225960745
 20
143.76292266256641
 30
0.0
 11
577.5565225960745
 21
260.72445480027397
 31
0.0
  0
LINE
  5
9B28
  8
1
 10
106.20679737037879
 20
307.47210013877333
 30
0.0
 11
106.20679737037879
 21
128.01527732429531
 31
0.0
  0
LINE
  5
9B29
  8
1
 10
147.81583196289651
 20
202.24368873153429
 30
0.0
 11
64.59776277786068
 21
202.24368873153449
 31
0.0
  0
LINE
  5
9B2A
  8
1
 10
560.05652259605847
 20
307.47210013865919
 30
0.0
 11
560.05652259605847
 21
128.0152773241812
 31
0.0
  0
LINE
  5
9B2B
  8
1
 10
601.66555718857614
 20
202.24368873142021
 30
0.0
 11
518.44748800354046
 21
202.24368873142041
 31
0.0
  0
LINE
  5
9B2C
  8
0
 10
537.84549168069771
 20
196.10444206544429
 30
0.0
 11
537.95485519635895
 21
195.979132577634
 31
0.0
  0
LINE
  5
9B2D
  8
0
 10
538.55652259607439
 20
195.37204995221271
 30
0.0
 11
538.55652259607439
 21
192.24368873142009
 31
0.0
  0
LINE
  5
9B2E
  8
0
 10
581.55652259607405
 20
195.37204995221271
 30
0.0
 11
581.55652259607405
 21
192.24368873142009
 31
0.0
  0
LINE
  5
9B2F
  8
2
 10
590.55652259605847
 20
233.41361630055869
 30
0.0
 11
590.55652259605847
 21
281.74368873153429
 31
0.0
  0
LINE
  5
9B30
  8
2
 10
529.55652259605858
 20
281.74368873153429
 30
0.0
 11
529.55652259605858
 21
233.41361630055869
 31
0.0
  0
LINE
  5
9B31
  8
2
 10
529.55652259605858
 20
281.74368873153429
 30
0.0
 11
590.55652259605847
 21
281.74368873153429
 31
0.0
  0
LINE
  5
9B32
  8
3
 10
592.55652259607405
 20
205.4766887314203
 30
0.0
 11
589.55652259607405
 21
205.4766887314203
 31
0.0
  0
LINE
  5
9B33
  8
3
 10
592.55652259607405
 20
199.0106887314204
 30
0.0
 11
589.55652259607405
 21
199.0106887314204
 31
0.0
  0
LINE
  5
9B34
  8
3
 10
73.706797370378808
 20
205.47668873153449
 30
0.0
 11
76.706797370378808
 21
205.47668873153449
 31
0.0
  0
LINE
  5
9B35
  8
3
 10
73.706797370378808
 20
199.01068873153449
 30
0.0
 11
76.706797370378808
 21
199.01068873153449
 31
0.0
  0
LINE
  5
9B3F
  8
0
 10
336.63325696742089
 20
205.8569391660983
 30
0.0
 11
336.63325696742089
 21
198.63043829674109
 31
0.0
  0
LINE
  5
9B40
  8
0
 10
324.11659030075452
 20
205.8569391660983
 30
0.0
 11
324.11659030075452
 21
198.63043829674109
 31
0.0
  0
LINE
  5
9B41
  8
0
 10
336.63325696742089
 20
198.63043829674109
 30
0.0
 11
330.37492363408768
 21
195.0171878620628
 31
0.0
  0
LINE
  5
9B42
  8
0
 10
324.11659030075452
 20
198.63043829674109
 30
0.0
 11
330.37492363408768
 21
195.0171878620628
 31
0.0
  0
LINE
  5
9B43
  8
0
 10
336.63325696742089
 20
205.8569391660987
 30
0.0
 11
330.37492363408768
 21
209.47018960077699
 31
0.0
  0
LINE
  5
9B44
  8
0
 10
324.11659030075452
 20
205.8569391660987
 30
0.0
 11
330.37492363408768
 21
209.47018960077699
 31
0.0
  0
CIRCLE
  5
9B45
  8
0
 10
330.37492363408819
 20
202.2436887314197
 30
0.0
 40
6.2583333333333311
  0
LINE
  5
9B46
  8
1
 10
367.37492363408819
 20
307.47210013865919
 30
0.0
 11
367.37492363408819
 21
216.85782676922031
 31
0.0
  0
LINE
  5
9B47
  8
1
 10
330.37492363408819
 20
128.0152773241806
 30
0.0
 11
330.37492363408819
 21
276.47210013865867
 31
0.0
  0
LINE
  5
9B48
  8
1
 10
256.1465122268491
 20
202.2436887314197
 30
0.0
 11
404.60333504132723
 21
202.2436887314197
 31
0.0
  0
LINE
  5
9B4A
  8
0
 10
249.89158413248239
 20
450.7940381677758
 30
0.0
 11
249.89158413248239
 21
418.75099680114221
 31
0.0
  0
LINE
  5
9B4B
  8
0
 10
254.43574439650999
 20
453.77251748446031
 30
0.0
 11
254.43574439650999
 21
415.77251748446031
 31
0.0
  0
LINE
  5
9B4C
  8
0
 10
266.89158413248242
 20
450.77251748446031
 30
0.0
 11
266.89158413248242
 21
418.77251748446008
 31
0.0
  0
LINE
  5
9B4D
  8
0
 10
269.89158413248242
 20
453.77251748446031
 30
0.0
 11
251.48569383109819
 21
453.77251748446031
 31
0.0
  0
LINE
  5
9B4E
  8
0
 10
266.89158413248242
 20
450.77251748446031
 30
0.0
 11
269.89158413248242
 21
450.77251748446031
 31
0.0
  0
LINE
  5
9B4F
  8
0
 10
269.89158413248242
 20
415.77251748446031
 30
0.0
 11
251.48569383109771
 21
415.77251748446031
 31
0.0
  0
LINE
  5
9B50
  8
0
 10
266.89158413248327
 20
418.77251748446008
 30
0.0
 11
269.89158413248327
 21
418.77251748446042
 31
0.0
  0
ARC
  5
9B51
  8
0
 10
254.2280235261241
 20
450.38896645801532
 30
0.0
 40
4.3553174057440378
 50
129.02437415616089
 51
174.66342214695109
  0
ARC
  5
9B52
  8
0
 10
254.22802352612371
 20
419.1560685109053
 30
0.0
 40
4.3553174057440378
 50
185.33657785304879
 51
230.97562584383911
  0
LINE
  5
9B53
  8
0
 10
249.89158413248239
 20
269.86604156742891
 30
0.0
 11
253.1055221809147
 21
266.03581935183399
 31
0.0
  0
LINE
  5
9B54
  8
0
 10
251.80669524027959
 20
271.4730105916455
 30
0.0
 11
249.89158413248239
 21
269.86604156742891
 31
0.0
  0
LINE
  5
9B55
  8
0
 10
254.43574439650999
 20
268.33983181460138
 30
0.0
 11
251.80669524027959
 21
271.4730105916455
 31
0.0
  0
LINE
  5
9B56
  8
0
 10
270.60115083211349
 20
266.0955497570373
 30
0.0
 11
254.43574439650999
 21
268.33983181460138
 31
0.0
  0
LINE
  5
9B57
  8
0
 10
269.91771844553801
 20
268.6461541472749
 30
0.0
 11
269.61217680291202
 21
268.82552289940941
 31
0.0
  0
LINE
  5
9B58
  8
0
 10
253.1055221809147
 20
266.03581935183399
 30
0.0
 11
271.31508888054577
 21
263.43109668683019
 31
0.0
  0
LINE
  5
9B59
  8
0
 10
267.34596441293343
 20
272.60214967266182
 30
0.0
 11
269.88999810644867
 21
272.25182632722061
 31
0.0
  0
LINE
  5
9B5A
  8
0
 10
266.89504612083329
 20
269.49170897854992
 30
0.0
 11
267.34596441293343
 21
272.60214967266182
 31
0.0
  0
LINE
  5
9B5B
  8
0
 10
269.54642572061312
 20
269.20457816917599
 30
0.0
 11
269.88999810644867
 21
272.25182632722078
 31
0.0
  0
LINE
  5
9B5C
  8
0
 10
266.89504612083329
 20
269.49170897854992
 30
0.0
 11
267.63299311338687
 21
266.5076261956159
 31
0.0
  0
LINE
  5
9B5D
  8
0
 10
269.54642572061312
 20
269.20457816917599
 30
0.0
 11
269.61217680291202
 21
268.82552289940941
 31
0.0
  0
LINE
  5
9B5E
  8
3
 10
333.607923634087
 20
467.27251748446031
 30
0.0
 11
333.607923634087
 21
464.27251748446042
 31
0.0
  0
LINE
  5
9B5F
  8
3
 10
327.14192363408671
 20
467.27251748446031
 30
0.0
 11
327.14192363408671
 21
464.27251748446042
 31
0.0
  0
LINE
  5
9B60
  8
0
 10
547.31481518700957
 20
263.43109668683019
 30
0.0
 11
541.55652259605858
 21
263.43109668683019
 31
0.0
  0
LINE
  5
9B61
  8
0
 10
572.79823000513943
 20
263.43109668683019
 30
0.0
 11
578.55652259609042
 21
263.43109668683019
 31
0.0
  0
LINE
  5
9B63
  8
0
 10
547.88309003634504
 20
276.24368873142009
 30
0.0
 11
572.22995515580385
 21
276.24368873142009
 31
0.0
  0
LINE
  5
9B64
  8
0
 10
576.64488483451805
 20
272.60214967266182
 30
0.0
 11
543.46816035763038
 21
272.60214967266182
 31
0.0
  0
LINE
  5
9B65
  8
0
 10
87.206797370377444
 20
263.4310966868299
 30
0.0
 11
125.2067973703779
 21
263.43109668683019
 31
0.0
  0
LINE
  5
9B66
  8
0
 10
125.2067973703779
 20
271.4730105916455
 30
0.0
 11
87.206797370377444
 21
271.4730105916455
 31
0.0
  0
LINE
  5
9B67
  8
0
 10
122.20679737037879
 20
272.60214967266182
 30
0.0
 11
90.206797370378794
 21
272.60214967266182
 31
0.0
  0
ARC
  5
9B6A
  8
0
 10
106.20679737037879
 20
202.24368873153429
 30
0.0
 40
62.500000000000092
 50
101.763200991137
 51
104.84460444708959
  0
LINE
  5
9B6B
  8
0
 10
90.206797370378794
 20
272.60214967266182
 30
0.0
 11
90.206797370378794
 21
271.4730105916455
 31
0.0
  0
LINE
  5
9B6C
  8
0
 10
122.20679737037879
 20
272.60214967266182
 30
0.0
 11
122.20679737037879
 21
271.4730105916455
 31
0.0
  0
LINE
  5
9DBB
  8
0
 10
125.2067973703779
 20
263.43109668683019
 30
0.0
 11
125.2067973703779
 21
271.4730105916455
 31
0.0
  0
LINE
  5
9DC5
  8
0
 10
87.206797370377885
 20
263.43109668683019
 30
0.0
 11
87.206797370377885
 21
271.4730105916455
 31
0.0
  0
LINE
  5
9E9C
  8
0
 10
87.206797370377885
 20
266.03581935183399
 30
0.0
 11
125.2067973703779
 21
266.03581935183399
 31
0.0
  0
LINE
  5
12970
  8
0
 10
84.706797370378808
 20
255.74368873142021
 30
0.0
 11
87.706797370378794
 21
255.74368873142021
 31
0.0
  0
LINE
  5
12971
  8
0
 10
124.70679737037879
 20
255.74368873142021
 30
0.0
 11
127.70679737037879
 21
255.74368873142021
 31
0.0
  0
LINE
  5
12F98
  8
0
 10
84.706797370378808
 20
268.74368873142021
 30
0.0
 11
87.206797370377885
 21
268.74368873142021
 31
0.0
  0
LINE
  5
12F99
  8
0
 10
125.2067973703779
 20
268.74368873142021
 30
0.0
 11
127.70679737037879
 21
268.74368873142021
 31
0.0
  0
LINE
  5
14289
  8
0
 10
336.6332569674201
 20
461.77251748446031
 30
0.0
 11
336.6332569674201
 21
456.27251748446042
 31
0.0
  0
LINE
  5
1428A
  8
0
 10
324.11659030075361
 20
461.77251748446031
 30
0.0
 11
324.11659030075361
 21
456.27251748446042
 31
0.0
  0
LINE
  5
1428B
  8
0
 10
324.11659030075361
 20
412.6725174844604
 30
0.0
 11
324.11659030075361
 21
407.97251748446058
 31
0.0
  0
LINE
  5
1428C
  8
0
 10
336.6332569674201
 20
412.6725174844604
 30
0.0
 11
336.6332569674201
 21
407.97251748446058
 31
0.0
  0
TEXT
  5
142E8
  8
0
 62
     3
 10
0.0
 20
0.0
 30
0.0
 40
10.0
  1
CAG1-125FBF
  7
STANDARD1
  0
LINE
  5
1430A
  8
0
 10
571.05652259605858
 20
292.44368873142002
 30
0.0
 11
571.05652259605858
 21
295.74368873142021
 31
0.0
  0
LINE
  5
1430B
  8
0
 10
549.05652259605858
 20
295.74368873142021
 30
0.0
 11
549.05652259605858
 21
292.44368873142002
 31
0.0
  0
LINE
  5
1430C
  8
0
 10
549.05652259605858
 20
295.74368873142021
 30
0.0
 11
571.05652259605858
 21
295.74368873142021
 31
0.0
  0
LINE
  5
1430D
  8
0
 10
117.20679737037879
 20
292.44368873142002
 30
0.0
 11
117.20679737037879
 21
295.74368873142021
 31
0.0
  0
LINE
  5
1430E
  8
0
 10
95.206797370378794
 20
295.74368873142021
 30
0.0
 11
95.206797370378794
 21
292.44368873142002
 31
0.0
  0
LINE
  5
1430F
  8
0
 10
95.206797370378752
 20
295.74368873142021
 30
0.0
 11
117.20679737037879
 21
295.74368873142021
 31
0.0
  0
ENDSEC
  0
EOF
