  0
SECTION
  2
HEADER
  9
$ACADVER
  1
AC1009
  9
$INSBASE
 10
0.0
 20
0.0
 30
0.0
  9
$EXTMIN
 10
0.0
 20
-2.960436562073669
 30
0.0
  9
$EXTMAX
 10
726.46399557145173
 20
527.54394044018613
 30
0.0
  9
$LIMMIN
 10
0.0
 20
0.0
  9
$LIMMAX
 10
375.0
 20
270.0
  9
$ORTHOMODE
 70
     1
  9
$REGENMODE
 70
     1
  9
$FILLMODE
 70
     1
  9
$QTEXTMODE
 70
     0
  9
$MIRRTEXT
 70
     1
  9
$DRAGMODE
 70
     2
  9
$LTSCALE
 40
10.0
  9
$OSMODE
 70
  3071
  9
$ATTMODE
 70
     1
  9
$TEXTSIZE
 40
5.0
  9
$TRACEWID
 40
0.05
  9
$TEXTSTYLE
  7
STANDARD
  9
$CLAYER
  8
0
  9
$CELTYPE
  6
BYLAYER
  9
$CECOLOR
 62
   256
  9
$DIMSCALE
 40
1.0
  9
$DIMASZ
 40
3.0
  9
$DIMEXO
 40
2.0
  9
$DIMDLI
 40
0.38
  9
$DIMRND
 40
0.0
  9
$DIMDLE
 40
0.0
  9
$DIMEXE
 40
2.0
  9
$DIMTP
 40
0.0
  9
$DIMTM
 40
0.0
  9
$DIMTXT
 40
3.2000000000000002
  9
$DIMCEN
 40
0.0
  9
$DIMTSZ
 40
0.0
  9
$DIMTOL
 70
     0
  9
$DIMLIM
 70
     0
  9
$DIMTIH
 70
     0
  9
$DIMTOH
 70
     0
  9
$DIMSE1
 70
     0
  9
$DIMSE2
 70
     0
  9
$DIMTAD
 70
     1
  9
$DIMZIN
 70
     8
  9
$DIMBLK
  1

  9
$DIMASO
 70
     0
  9
$DIMSHO
 70
     0
  9
$DIMPOST
  1

  9
$DIMAPOST
  1

  9
$DIMALT
 70
     0
  9
$DIMALTD
 70
     2
  9
$DIMALTF
 40
25.399999999999999
  9
$DIMLFAC
 40
1.0
  9
$DIMTOFL
 70
     0
  9
$DIMTVP
 40
1.6000000000000001
  9
$DIMTIX
 70
     1
  9
$DIMSOXD
 70
     0
  9
$DIMSAH
 70
     0
  9
$DIMBLK1
  1

  9
$DIMBLK2
  1

  9
$DIMSTYLE
  2
STANDARD
  9
$DIMCLRD
 70
     0
  9
$DIMCLRE
 70
     0
  9
$DIMCLRT
 70
     0
  9
$DIMTFAC
 40
1.0
  9
$DIMGAP
 40
1.1999999999999991
  9
$LUNITS
 70
     2
  9
$LUPREC
 70
     4
  9
$SKETCHINC
 40
0.1
  9
$FILLETRAD
 40
0.0
  9
$AUNITS
 70
     0
  9
$AUPREC
 70
     4
  9
$MENU
  1
ACAD
  9
$ELEVATION
 40
0.0
  9
$PELEVATION
 40
0.0
  9
$THICKNESS
 40
0.0
  9
$LIMCHECK
 70
     0
  9
$BLIPMODE
 70
     0
  9
$CHAMFERA
 40
0.0
  9
$CHAMFERB
 40
0.0
  9
$SKPOLY
 70
     0
  9
$TDCREATE
 40
2448055.7149187499
  9
$TDUPDATE
 40
2456598.577180834
  9
$TDINDWG
 40
2.0631066434999998
  9
$TDUSRTIMER
 40
2.0631066434999998
  9
$USRTIMER
 70
     1
  9
$ANGBASE
 50
0.0
  9
$ANGDIR
 70
     0
  9
$PDMODE
 70
     0
  9
$PDSIZE
 40
0.0
  9
$PLINEWID
 40
0.0
  9
$COORDS
 70
     1
  9
$SPLFRAME
 70
     0
  9
$SPLINETYPE
 70
     6
  9
$SPLINESEGS
 70
     8
  9
$ATTDIA
 70
     0
  9
$ATTREQ
 70
     1
  9
$HANDLING
 70
     1
  9
$HANDSEED
  5
148C1
  9
$SURFTAB1
 70
     6
  9
$SURFTAB2
 70
     6
  9
$SURFTYPE
 70
     6
  9
$SURFU
 70
     6
  9
$SURFV
 70
     6
  9
$UCSNAME
  2

  9
$UCSORG
 10
0.0
 20
0.0
 30
0.0
  9
$UCSXDIR
 10
1.0
 20
0.0
 30
0.0
  9
$UCSYDIR
 10
0.0
 20
1.0
 30
0.0
  9
$PUCSNAME
  2

  9
$PUCSORG
 10
0.0
 20
0.0
 30
0.0
  9
$PUCSXDIR
 10
1.0
 20
0.0
 30
0.0
  9
$PUCSYDIR
 10
0.0
 20
1.0
 30
0.0
  9
$USERI1
 70
     0
  9
$USERI2
 70
     0
  9
$USERI3
 70
     0
  9
$USERI4
 70
     0
  9
$USERI5
 70
     0
  9
$USERR1
 40
0.0
  9
$USERR2
 40
0.0
  9
$USERR3
 40
0.0
  9
$USERR4
 40
0.0
  9
$USERR5
 40
0.0
  9
$WORLDVIEW
 70
     1
  9
$SHADEDGE
 70
     3
  9
$SHADEDIF
 70
    70
  9
$TILEMODE
 70
     1
  9
$MAXACTVP
 70
    16
  9
$PLIMCHECK
 70
     0
  9
$PEXTMIN
 10
1.0000000000000000E+020
 20
1.0000000000000000E+020
 30
1.0000000000000000E+020
  9
$PEXTMAX
 10
-1.0000000000000000E+020
 20
-1.0000000000000000E+020
 30
-1.0000000000000000E+020
  9
$PLIMMIN
 10
0.0
 20
0.0
  9
$PLIMMAX
 10
12.0
 20
9.0
  9
$UNITMODE
 70
     0
  9
$VISRETAIN
 70
     0
  9
$PLINEGEN
 70
     1
  9
$PSLTSCALE
 70
     0
  0
ENDSEC
  0
SECTION
  2
TABLES
  0
TABLE
  2
VPORT
 70
     1
  0
VPORT
  2
*ACTIVE
 70
     0
 10
0.0
 20
0.0
 11
1.0
 21
1.0
 12
377.93309233781298
 22
262.2827803305936
 13
0.0
 23
0.0
 14
5.0
 24
5.0
 15
10.0
 25
10.0
 16
0.0
 26
0.0
 36
1.0
 17
0.0
 27
0.0
 37
0.0
 40
535.31285791744563
 41
1.831871345029239
 42
50.0
 43
0.0
 44
0.0
 50
0.0
 51
0.0
 71
     0
 72
   500
 73
     1
 74
     1
 75
     0
 76
     0
 77
     0
 78
     2
  0
ENDTAB
  0
TABLE
  2
LTYPE
 70
     3
  0
LTYPE
  2
CONTINUOUS
 70
     0
  3
実線
 72
    65
 73
     0
 40
0.0
  0
LTYPE
  2
CENTER
 70
     0
  3
____ _ ____ _ ____ _ ____ _ ____ _ ____ _ ____
 72
    65
 73
     4
 40
2.0
 49
1.25
 49
-0.25
 49
0.25
 49
-0.25
  0
LTYPE
  2
PHANTOM2
 70
     0
  3
___ _ _ ___ _ _ ___ _ _ ___ _ _
 72
    65
 73
     6
 40
1.25
 49
0.625
 49
-0.125
 49
0.125
 49
-0.125
 49
0.125
 49
-0.125
  0
ENDTAB
  0
TABLE
  2
LAYER
 70
     3
  0
LAYER
  2
0
 70
     0
 62
     7
  6
CONTINUOUS
  0
LAYER
  2
1
 70
     0
 62
     1
  6
CENTER
  0
LAYER
  2
DEFPOINTS
 70
     0
 62
     7
  6
CONTINUOUS
  0
ENDTAB
  0
TABLE
  2
STYLE
 70
     3
  0
STYLE
  2
STANDARD
 70
     0
 40
0.0
 41
1.0
 50
0.0
 71
     0
 42
5.0
  3
simplex.shx
  4
bigfont.shx
  0
STYLE
  2
07500
 70
     0
 40
0.0
 41
0.75
 50
0.0
 71
     0
 42
0.2
  3
simplex.shx
  4
bigfont.shx
  0
STYLE
  2
STANDARD1
 70
     0
 40
0.0
 41
1.0
 50
0.0
 71
     0
 42
3.0
  3
txt
  4

  0
ENDTAB
  0
TABLE
  2
VIEW
 70
     2
  0
VIEW
  2
ALL
 70
     0
 40
270.0
 10
220.99159663865549
 20
135.0
 41
0.0
 11
0.0
 21
0.0
 31
1.0
 12
0.0
 22
0.0
 32
0.0
 42
0.0
 43
0.0
 44
0.0
 50
0.0
 71
     0
  0
VIEW
  2
OLE1
 70
     0
 40
168.2487151179721
 10
2892.3009567448912
 20
702.51600084347126
 41
162.5749581879237
 11
0.0
 21
0.0
 31
1.0
 12
0.0
 22
0.0
 32
0.0
 42
50.0
 43
0.0
 44
0.0
 50
0.0
 71
     0
  0
ENDTAB
  0
TABLE
  2
UCS
 70
     0
  0
ENDTAB
  0
TABLE
  2
APPID
 70
    48
  0
APPID
  2
ACAD
 70
     0
  0
APPID
  2
DCO15
 70
     0
  0
APPID
  2
GENIUS_GENOREF_13
 70
     0
  0
APPID
  2
GENIUS_GENOENT_13
 70
     0
  0
APPID
  2
GENIUS_GENBH_13
 70
     0
  0
APPID
  2
GENIUS_GENOBJ_13
 70
     0
  0
APPID
  2
GENIUS_GENODEF_13
 70
     0
  0
APPID
  2
GENIUS_GENOLIS_13
 70
     0
  0
APPID
  2
GENIUS_GENOBJ-NBEHI-BHF_13
 70
     0
  0
APPID
  2
GENIUS_GENOBJ-NBEHI-BHB_13
 70
     0
  0
APPID
  2
GENIUS_GENOBJ-F-PART_13
 70
     0
  0
APPID
  2
GENIUS_GEFSTDP_13
 70
     0
  0
APPID
  2
GENIUS_GENOBJ-N-RSSYM_13
 70
     0
  0
APPID
  2
GENIUS_GENSYMENT_13
 70
     0
  0
APPID
  2
GENIUS_GENOBJ-N-TIT_13
 70
     0
  0
APPID
  2
GENIUS_GENTITLE_13
 70
     0
  0
APPID
  2
GENIUS_GENZVEED_13
 70
     0
  0
APPID
  2
GENIUS_GENOBJ-N-LEADER_13
 70
     0
  0
APPID
  2
GENIUS_GENOBJ-N-FIL_13
 70
     0
  0
APPID
  2
GENIUS_GENOBJ-N-SEC_13
 70
     0
  0
APPID
  2
GENIUS_GENOBJ-N-CRS_13
 70
     0
  0
APPID
  2
GENIUS_GENOBJ-N-ZOO_13
 70
     0
  0
APPID
  2
GENIUS_GENZOO_13
 70
     0
  0
APPID
  2
GENIUS_GENOBJ-F-TOL_13
 70
     0
  0
APPID
  2
GENIUS_GENFIL_13
 70
     0
  0
APPID
  2
GENIUS_GENOBJ-N-CHA_13
 70
     0
  0
APPID
  2
_CALL_MAC$
 70
     0
  0
APPID
  2
ASM_BASE
 70
     0
  0
APPID
  2
ASM_EXPLO_VER_2_00
 70
     0
  0
APPID
  2
ASM_CADM_VER_12_00
 70
     0
  0
APPID
  2
ASM_BASEFORO
 70
     0
  0
APPID
  2
ASM_BASETRAVI
 70
     0
  0
APPID
  2
ASM_BASETRAVI1
 70
     0
  0
APPID
  2
ASM_GRUPPI
 70
     0
  0
APPID
  2
ASM_CADM_ALBERO
 70
     0
  0
APPID
  2
ASM_GOLE
 70
     0
  0
APPID
  2
ACAD_MLEADERVER
 70
     0
  0
APPID
  2
ACAD_DSTYLE_DIMJAG
 70
     0
  0
APPID
  2
ACAD_DSTYLE_DIMTALN
 70
     0
  0
APPID
  2
ACAD_EXEMPT_FROM_CAD_STANDARDS
 70
     0
  0
APPID
  2
ACAD_DSTYLE_DIMRADIAL_EXTENSION
 70
     0
  0
APPID
  2
ACAD_PSEXT
 70
     0
  0
APPID
  2
ACAD_DSTYLE_DIMBREAK
 70
     0
  0
APPID
  2
ACAECLAYERSTANDARD
 70
     0
  0
APPID
  2
ACCMTRANSPARENCY
 70
     0
  0
APPID
  2
GRADIENTCOLOR1ACI
 70
     0
  0
APPID
  2
GRADIENTCOLOR2ACI
 70
     0
  0
APPID
  2
ACAD_NAV_VCDISPLAY
 70
     0
  0
ENDTAB
  0
TABLE
  2
DIMSTYLE
 70
     1
  0
DIMSTYLE
  2
STANDARD
 70
     0
  3

  4

  5

  6

  7

 40
1.0
 41
0.18
 42
0.0625
 43
0.38
 44
0.18
 45
0.0
 46
0.0
 47
0.0
 48
0.0
140
0.18
141
0.09
142
0.0
143
25.399999999999999
144
1.0
145
0.0
146
1.0
147
0.09
 71
     0
 72
     0
 73
     1
 74
     1
 75
     0
 76
     0
 77
     0
 78
     0
170
     0
171
     2
172
     0
173
     0
174
     0
175
     0
176
     0
177
     0
178
     0
  0
ENDTAB
  0
ENDSEC
  0
SECTION
  2
BLOCKS
  0
BLOCK
  8
0
  2
$MODEL_SPACE
 70
     0
 10
0.0
 20
0.0
 30
0.0
  3
$MODEL_SPACE
  1

  0
ENDBLK
  5
36
  8
0
  0
BLOCK
 67
     1
  8
0
  2
$PAPER_SPACE
 70
     0
 10
0.0
 20
0.0
 30
0.0
  3
$PAPER_SPACE
  1

  0
ENDBLK
  5
34
 67
     1
  8
0
  0
ENDSEC
  0
SECTION
  2
ENTITIES
  0
LINE
  5
C40D
  8
0
 10
415.54928809197128
 20
428.1755133779584
 30
0.0
 11
415.54928809197128
 21
427.90690611222351
 31
0.0
  0
LINE
  5
C40E
  8
0
 10
398.9192880919714
 20
427.90690611222351
 30
0.0
 11
398.9192880919714
 21
428.1755133779584
 31
0.0
  0
LINE
  5
C412
  8
0
 10
412.16078809197143
 20
519.30690611222337
 30
0.0
 11
413.16078809197131
 21
518.30690611222337
 31
0.0
  0
LINE
  5
C415
  8
0
 10
401.30778809197142
 20
518.30690611222337
 30
0.0
 11
402.3077880919713
 21
519.30690611222337
 31
0.0
  0
LINE
  5
C416
  8
0
 10
415.54928809197128
 20
518.30690611222337
 30
0.0
 11
415.54928809197128
 21
514.55690611222349
 31
0.0
  0
LINE
  5
C417
  8
0
 10
398.9192880919714
 20
514.55690611222349
 30
0.0
 11
398.9192880919714
 21
518.30690611222337
 31
0.0
  0
LINE
  5
C41F
  8
0
 10
402.3077880919713
 20
519.30690611222337
 30
0.0
 11
412.16078809197143
 21
519.30690611222337
 31
0.0
  0
LINE
  5
C420
  8
0
 10
398.57178809197143
 20
421.00690611222348
 30
0.0
 11
415.8967880919713
 21
421.00690611222348
 31
0.0
  0
LINE
  5
C421
  8
0
 10
398.57178809197143
 20
427.90690611222351
 30
0.0
 11
415.8967880919713
 21
427.90690611222351
 31
0.0
  0
POLYLINE
  5
C42C
  8
0
 66
     1
 10
0.0
 20
0.0
 30
0.0
  0
VERTEX
  5
13EC1
  8
0
 10
411.56553809197129
 20
427.90690611222351
 30
0.0
  0
VERTEX
  5
13EC2
  8
0
 10
410.87008663642371
 20
427.89695385670029
 30
0.0
  0
VERTEX
  5
13EC3
  8
0
 10
409.47380622977022
 20
427.81836906329983
 30
0.0
  0
VERTEX
  5
13EC4
  8
0
 10
408.01242994017417
 20
427.65973065166997
 30
0.0
  0
VERTEX
  5
13EC5
  8
0
 10
407.23428809197128
 20
427.5478291642375
 30
0.0
  0
SEQEND
  5
13EC6
  8
0
  0
POLYLINE
  5
C42D
  8
0
 66
     1
 10
0.0
 20
0.0
 30
0.0
  0
VERTEX
  5
13EC7
  8
0
 10
407.23428809197128
 20
421.36598306020932
 30
0.0
  0
VERTEX
  5
13EC8
  8
0
 10
408.01242994017417
 20
421.25408157277678
 30
0.0
  0
VERTEX
  5
13EC9
  8
0
 10
409.47380622977022
 20
421.09544316114727
 30
0.0
  0
VERTEX
  5
13ECA
  8
0
 10
410.87008663642371
 20
421.01685836774658
 30
0.0
  0
VERTEX
  5
13ECB
  8
0
 10
411.56553809197129
 20
421.00690611222348
 30
0.0
  0
SEQEND
  5
13ECC
  8
0
  0
POLYLINE
  5
C42E
  8
0
 66
     1
 10
0.0
 20
0.0
 30
0.0
  0
VERTEX
  5
13ECD
  8
0
 10
411.56553809197129
 20
421.00690611222348
 30
0.0
  0
VERTEX
  5
13ECE
  8
0
 10
412.26098954751888
 20
421.01685836774658
 30
0.0
  0
VERTEX
  5
13ECF
  8
0
 10
413.65726995417248
 20
421.09544316114727
 30
0.0
  0
VERTEX
  5
13ED0
  8
0
 10
415.11864624376852
 20
421.25408157277678
 30
0.0
  0
VERTEX
  5
13ED1
  8
0
 10
415.8967880919713
 20
421.36598306020932
 30
0.0
  0
SEQEND
  5
13ED2
  8
0
  0
POLYLINE
  5
C42F
  8
0
 66
     1
 10
0.0
 20
0.0
 30
0.0
  0
VERTEX
  5
13ED3
  8
0
 10
415.8967880919713
 20
427.5478291642375
 30
0.0
  0
VERTEX
  5
13ED4
  8
0
 10
415.11864624376852
 20
427.65973065166997
 30
0.0
  0
VERTEX
  5
13ED5
  8
0
 10
413.65726995417248
 20
427.81836906329983
 30
0.0
  0
VERTEX
  5
13ED6
  8
0
 10
412.26098954751888
 20
427.89695385670029
 30
0.0
  0
VERTEX
  5
13ED7
  8
0
 10
411.56553809197129
 20
427.90690611222351
 30
0.0
  0
SEQEND
  5
13ED8
  8
0
  0
POLYLINE
  5
C430
  8
0
 66
     1
 10
0.0
 20
0.0
 30
0.0
  0
VERTEX
  5
13ED9
  8
0
 10
402.90303809197138
 20
427.90690611222351
 30
0.0
  0
VERTEX
  5
13EDA
  8
0
 10
402.2075866364238
 20
427.89695385670029
 30
0.0
  0
VERTEX
  5
13EDB
  8
0
 10
400.81130622977008
 20
427.81836906329983
 30
0.0
  0
VERTEX
  5
13EDC
  8
0
 10
399.34992994017432
 20
427.65973065167032
 30
0.0
  0
VERTEX
  5
13EDD
  8
0
 10
398.57178809197143
 20
427.5478291642375
 30
0.0
  0
SEQEND
  5
13EDE
  8
0
  0
POLYLINE
  5
C432
  8
0
 66
     1
 10
0.0
 20
0.0
 30
0.0
  0
VERTEX
  5
13EDF
  8
0
 10
398.57178809197143
 20
421.36598306020932
 30
0.0
  0
VERTEX
  5
13EE0
  8
0
 10
399.34992994017432
 20
421.25408157277678
 30
0.0
  0
VERTEX
  5
13EE1
  8
0
 10
400.81130622977008
 20
421.09544316114727
 30
0.0
  0
VERTEX
  5
13EE2
  8
0
 10
402.2075866364238
 20
421.01685836774658
 30
0.0
  0
VERTEX
  5
13EE3
  8
0
 10
402.90303809197138
 20
421.00690611222348
 30
0.0
  0
SEQEND
  5
13EE4
  8
0
  0
POLYLINE
  5
C433
  8
0
 66
     1
 10
0.0
 20
0.0
 30
0.0
  0
VERTEX
  5
13EE5
  8
0
 10
402.90303809197138
 20
421.00690611222348
 30
0.0
  0
VERTEX
  5
13EE6
  8
0
 10
403.59848954751891
 20
421.01685836774658
 30
0.0
  0
VERTEX
  5
13EE7
  8
0
 10
404.99476995417251
 20
421.09544316114727
 30
0.0
  0
VERTEX
  5
13EE8
  8
0
 10
406.45614624376839
 20
421.25408157277678
 30
0.0
  0
VERTEX
  5
13EE9
  8
0
 10
407.23428809197128
 20
421.36598306020932
 30
0.0
  0
SEQEND
  5
13EEA
  8
0
  0
LINE
  5
C434
  8
0
 10
407.23428809197128
 20
421.36598306020932
 30
0.0
 11
407.23428809197128
 21
427.5478291642375
 31
0.0
  0
POLYLINE
  5
C435
  8
0
 66
     1
 10
0.0
 20
0.0
 30
0.0
  0
VERTEX
  5
13EEB
  8
0
 10
407.23428809197128
 20
427.5478291642375
 30
0.0
  0
VERTEX
  5
13EEC
  8
0
 10
406.45614624376839
 20
427.65973065166997
 30
0.0
  0
VERTEX
  5
13EED
  8
0
 10
404.99476995417251
 20
427.81836906329983
 30
0.0
  0
VERTEX
  5
13EEE
  8
0
 10
403.59848954751891
 20
427.89695385670029
 30
0.0
  0
VERTEX
  5
13EEF
  8
0
 10
402.90303809197138
 20
427.90690611222351
 30
0.0
  0
SEQEND
  5
13EF0
  8
0
  0
LINE
  5
C439
  8
0
 10
398.9192880919714
 20
518.30690611222337
 30
0.0
 11
415.54928809197128
 21
518.30690611222337
 31
0.0
  0
LINE
  5
C43D
  8
0
 10
398.57178809197143
 20
514.55690611222349
 30
0.0
 11
415.8967880919713
 21
514.55690611222349
 31
0.0
  0
POLYLINE
  5
C449
  8
0
 66
     1
 10
0.0
 20
0.0
 30
0.0
  0
VERTEX
  5
13EF1
  8
0
 10
411.56553809197129
 20
514.55690611222349
 30
0.0
  0
VERTEX
  5
13EF2
  8
0
 10
410.87008663642371
 20
514.54695385670027
 30
0.0
  0
VERTEX
  5
13EF3
  8
0
 10
409.47380622977022
 20
514.46836906329975
 30
0.0
  0
VERTEX
  5
13EF4
  8
0
 10
408.01242994017429
 20
514.30973065167007
 30
0.0
  0
VERTEX
  5
13EF5
  8
0
 10
407.23428809197128
 20
514.19782916423765
 30
0.0
  0
SEQEND
  5
13EF6
  8
0
  0
POLYLINE
  5
C44A
  8
0
 66
     1
 10
0.0
 20
0.0
 30
0.0
  0
VERTEX
  5
13EF7
  8
0
 10
407.23428809197128
 20
506.66598306020961
 30
0.0
  0
VERTEX
  5
13EF8
  8
0
 10
408.01242994017429
 20
506.55408157277702
 30
0.0
  0
VERTEX
  5
13EF9
  8
0
 10
409.47380622977022
 20
506.39544316114728
 30
0.0
  0
VERTEX
  5
13EFA
  8
0
 10
410.87008663642371
 20
506.31685836774682
 30
0.0
  0
VERTEX
  5
13EFB
  8
0
 10
411.56553809197129
 20
506.30690611222337
 30
0.0
  0
SEQEND
  5
13EFC
  8
0
  0
POLYLINE
  5
C44B
  8
0
 66
     1
 10
0.0
 20
0.0
 30
0.0
  0
VERTEX
  5
13EFD
  8
0
 10
411.56553809197129
 20
506.30690611222337
 30
0.0
  0
VERTEX
  5
13EFE
  8
0
 10
412.26098954751882
 20
506.31685836774682
 30
0.0
  0
VERTEX
  5
13EFF
  8
0
 10
413.65726995417248
 20
506.39544316114728
 30
0.0
  0
VERTEX
  5
13F00
  8
0
 10
415.11864624376852
 20
506.55408157277702
 30
0.0
  0
VERTEX
  5
13F01
  8
0
 10
415.8967880919713
 20
506.66598306020961
 30
0.0
  0
SEQEND
  5
13F02
  8
0
  0
POLYLINE
  5
C44C
  8
0
 66
     1
 10
0.0
 20
0.0
 30
0.0
  0
VERTEX
  5
13F03
  8
0
 10
415.8967880919713
 20
514.19782916423765
 30
0.0
  0
VERTEX
  5
13F04
  8
0
 10
415.11864624376852
 20
514.30973065167007
 30
0.0
  0
VERTEX
  5
13F05
  8
0
 10
413.65726995417248
 20
514.46836906329963
 30
0.0
  0
VERTEX
  5
13F06
  8
0
 10
412.26098954751882
 20
514.54695385670027
 30
0.0
  0
VERTEX
  5
13F07
  8
0
 10
411.56553809197129
 20
514.55690611222349
 30
0.0
  0
SEQEND
  5
13F08
  8
0
  0
POLYLINE
  5
C44D
  8
0
 66
     1
 10
0.0
 20
0.0
 30
0.0
  0
VERTEX
  5
13F09
  8
0
 10
402.90303809197138
 20
514.55690611222349
 30
0.0
  0
VERTEX
  5
13F0A
  8
0
 10
402.2075866364238
 20
514.54695385670027
 30
0.0
  0
VERTEX
  5
13F0B
  8
0
 10
400.8113062297702
 20
514.46836906329963
 30
0.0
  0
VERTEX
  5
13F0C
  8
0
 10
399.34992994017432
 20
514.30973065167007
 30
0.0
  0
VERTEX
  5
13F0D
  8
0
 10
398.57178809197143
 20
514.19782916423765
 30
0.0
  0
SEQEND
  5
13F0E
  8
0
  0
POLYLINE
  5
C44F
  8
0
 66
     1
 10
0.0
 20
0.0
 30
0.0
  0
VERTEX
  5
13F0F
  8
0
 10
398.57178809197143
 20
506.66598306020961
 30
0.0
  0
VERTEX
  5
13F10
  8
0
 10
399.34992994017432
 20
506.55408157277702
 30
0.0
  0
VERTEX
  5
13F11
  8
0
 10
400.8113062297702
 20
506.39544316114728
 30
0.0
  0
VERTEX
  5
13F12
  8
0
 10
402.2075866364238
 20
506.31685836774682
 30
0.0
  0
VERTEX
  5
13F13
  8
0
 10
402.90303809197138
 20
506.30690611222337
 30
0.0
  0
SEQEND
  5
13F14
  8
0
  0
POLYLINE
  5
C450
  8
0
 66
     1
 10
0.0
 20
0.0
 30
0.0
  0
VERTEX
  5
13F15
  8
0
 10
402.90303809197138
 20
506.30690611222337
 30
0.0
  0
VERTEX
  5
13F16
  8
0
 10
403.59848954751891
 20
506.31685836774682
 30
0.0
  0
VERTEX
  5
13F17
  8
0
 10
404.99476995417251
 20
506.39544316114728
 30
0.0
  0
VERTEX
  5
13F18
  8
0
 10
406.45614624376839
 20
506.55408157277702
 30
0.0
  0
VERTEX
  5
13F19
  8
0
 10
407.23428809197128
 20
506.66598306020961
 30
0.0
  0
SEQEND
  5
13F1A
  8
0
  0
LINE
  5
C451
  8
0
 10
407.23428809197128
 20
506.66598306020961
 30
0.0
 11
407.23428809197128
 21
514.19782916423765
 31
0.0
  0
POLYLINE
  5
C452
  8
0
 66
     1
 10
0.0
 20
0.0
 30
0.0
  0
VERTEX
  5
13F1B
  8
0
 10
407.23428809197128
 20
514.19782916423765
 30
0.0
  0
VERTEX
  5
13F1C
  8
0
 10
406.45614624376839
 20
514.30973065167007
 30
0.0
  0
VERTEX
  5
13F1D
  8
0
 10
404.99476995417251
 20
514.46836906329963
 30
0.0
  0
VERTEX
  5
13F1E
  8
0
 10
403.59848954751891
 20
514.54695385670027
 30
0.0
  0
VERTEX
  5
13F1F
  8
0
 10
402.90303809197138
 20
514.55690611222349
 30
0.0
  0
SEQEND
  5
13F20
  8
0
  0
LINE
  5
C4BA
  8
0
 10
432.23428809197128
 20
458.66720342996467
 30
0.0
 11
382.23428809197139
 21
458.66720342996467
 31
0.0
  0
LINE
  5
C4BB
  8
0
 10
432.23428809197128
 20
475.94660879448219
 30
0.0
 11
382.23428809197139
 21
475.94660879448219
 31
0.0
  0
LINE
  5
C4BE
  8
0
 10
433.87399077423009
 20
474.30690611222337
 30
0.0
 11
433.87399077423009
 21
460.30690611222337
 31
0.0
  0
LINE
  5
C4BF
  8
0
 10
380.59458540971258
 20
474.30690611222337
 30
0.0
 11
380.59458540971258
 21
460.30690611222337
 31
0.0
  0
ARC
  5
C4C2
  8
0
 10
382.23428809197139
 20
460.30690611222337
 30
0.0
 40
1.6397026822587399
 50
180.0
 51
270.0
  0
LINE
  5
C4C5
  8
0
 10
438.65009562928088
 20
524.30690611222337
 30
0.0
 11
468.65991393417539
 21
524.30690611222337
 31
0.0
  0
ARC
  5
C4C6
  8
0
 10
438.65009562928088
 20
514.30690611222337
 30
0.0
 40
10.00000000000003
 50
90.0
 51
150.0
  0
LINE
  5
C4C7
  8
0
 10
426.95875267819099
 20
514.05690611222337
 30
0.0
 11
429.9898415914364
 21
519.30690611222337
 31
0.0
  0
ARC
  5
C4C8
  8
0
 10
413.5353589195322
 20
521.80690611222349
 30
0.0
 40
15.49999999999997
 50
270.0
 51
330.0
  0
LINE
  5
C4C9
  8
0
 10
400.93321726441047
 20
506.30690611222337
 30
0.0
 11
413.5353589195322
 21
506.30690611222337
 31
0.0
  0
ARC
  5
C4CA
  8
0
 10
400.93321726441047
 20
521.80690611222349
 30
0.0
 40
15.499999999999989
 50
210.0
 51
270.0
  0
LINE
  5
C4CB
  8
0
 10
384.47873459250621
 20
519.30690611222337
 30
0.0
 11
387.5098235057518
 21
514.05690611222337
 31
0.0
  0
ARC
  5
C4CC
  8
0
 10
375.8184805546619
 20
514.30690611222337
 30
0.0
 40
10.00000000000005
 50
30.0
 51
90.0
  0
LINE
  5
C4CD
  8
0
 10
345.80866224976739
 20
524.30690611222337
 30
0.0
 11
375.8184805546619
 21
524.30690611222337
 31
0.0
  0
LINE
  5
C4CE
  8
0
 10
337.23428809197139
 20
492.30690611222349
 30
0.0
 11
345.80866224976739
 21
524.30690611222337
 31
0.0
  0
LINE
  5
C4CF
  8
0
 10
337.23428809197139
 20
442.30690611222349
 30
0.0
 11
337.23428809197139
 21
492.30690611222349
 31
0.0
  0
LINE
  5
C4D0
  8
0
 10
345.80866224976739
 20
410.30690611222337
 30
0.0
 11
337.23428809197139
 21
442.30690611222349
 31
0.0
  0
LINE
  5
C4D1
  8
0
 10
375.8184805546619
 20
410.30690611222337
 30
0.0
 11
345.80866224976739
 21
410.30690611222337
 31
0.0
  0
ARC
  5
C4D2
  8
0
 10
375.81848055466179
 20
420.30690611222337
 30
0.0
 40
10.00000000000005
 50
270.0
 51
330.0
  0
LINE
  5
C4D3
  8
0
 10
387.5098235057518
 20
420.55690611222337
 30
0.0
 11
384.47873459250621
 21
415.30690611222337
 31
0.0
  0
ARC
  5
C4D4
  8
0
 10
400.93321726441047
 20
412.80690611222371
 30
0.0
 40
15.49999999999992
 50
90.0
 51
150.0
  0
LINE
  5
C4D5
  8
0
 10
413.5353589195322
 20
428.30690611222337
 30
0.0
 11
400.93321726441047
 21
428.30690611222337
 31
0.0
  0
ARC
  5
C4D6
  8
0
 10
413.5353589195322
 20
412.80690611222349
 30
0.0
 40
15.5
 50
30.0
 51
90.0
  0
LINE
  5
C4D7
  8
0
 10
429.9898415914364
 20
415.30690611222337
 30
0.0
 11
426.95875267819099
 21
420.55690611222337
 31
0.0
  0
ARC
  5
C4D8
  8
0
 10
438.65009562928088
 20
420.30690611222337
 30
0.0
 40
10.000000000000011
 50
210.0
 51
270.0
  0
LINE
  5
C4D9
  8
0
 10
468.65991393417539
 20
410.30690611222337
 30
0.0
 11
438.65009562928088
 21
410.30690611222337
 31
0.0
  0
LINE
  5
C4DA
  8
0
 10
477.23428809197139
 20
442.30690611222349
 30
0.0
 11
468.65991393417539
 21
410.30690611222337
 31
0.0
  0
LINE
  5
C4DB
  8
0
 10
477.23428809197139
 20
492.30690611222349
 30
0.0
 11
477.23428809197139
 21
442.30690611222349
 31
0.0
  0
LINE
  5
C4DC
  8
0
 10
468.65991393417539
 20
524.30690611222337
 30
0.0
 11
477.23428809197139
 21
492.30690611222349
 31
0.0
  0
ARC
  5
C4DD
  8
0
 10
354.73428809197139
 20
430.80690611222337
 30
0.0
 40
5.5
 50
0.0
 51
180.0
  0
LINE
  5
C4DE
  8
0
 10
360.23428809197139
 20
430.80690611222337
 30
0.0
 11
360.23428809197139
 21
424.80690611222349
 31
0.0
  0
ARC
  5
C4DF
  8
0
 10
354.73428809197139
 20
424.80690611222349
 30
0.0
 40
5.5
 50
180.0
 51
0.0
  0
LINE
  5
C4E0
  8
0
 10
349.23428809197139
 20
424.80690611222349
 30
0.0
 11
349.23428809197139
 21
430.80690611222337
 31
0.0
  0
LINE
  5
C4E1
  8
0
 10
349.23428809197139
 20
503.80690611222349
 30
0.0
 11
349.23428809197139
 21
509.80690611222349
 31
0.0
  0
ARC
  5
C4E2
  8
0
 10
354.73428809197139
 20
509.80690611222349
 30
0.0
 40
5.5
 50
0.0
 51
180.0
  0
LINE
  5
C4E3
  8
0
 10
360.23428809197139
 20
509.80690611222349
 30
0.0
 11
360.23428809197139
 21
503.80690611222349
 31
0.0
  0
ARC
  5
C4E4
  8
0
 10
354.73428809197139
 20
503.80690611222349
 30
0.0
 40
5.5
 50
180.0
 51
0.0
  0
LINE
  5
C4E5
  8
0
 10
454.23428809197128
 20
424.80690611222349
 30
0.0
 11
454.23428809197128
 21
430.80690611222337
 31
0.0
  0
ARC
  5
C4E6
  8
0
 10
459.73428809197139
 20
430.80690611222337
 30
0.0
 40
5.5
 50
0.0
 51
180.0
  0
LINE
  5
C4E7
  8
0
 10
465.23428809197139
 20
430.80690611222337
 30
0.0
 11
465.23428809197139
 21
424.80690611222349
 31
0.0
  0
ARC
  5
C4E8
  8
0
 10
459.73428809197139
 20
424.80690611222349
 30
0.0
 40
5.5
 50
180.0
 51
0.0
  0
ARC
  5
C4E9
  8
0
 10
459.73428809197139
 20
509.80690611222349
 30
0.0
 40
5.5
 50
0.0
 51
180.0
  0
LINE
  5
C4EA
  8
0
 10
465.23428809197139
 20
509.80690611222349
 30
0.0
 11
465.23428809197139
 21
503.80690611222349
 31
0.0
  0
ARC
  5
C4EB
  8
0
 10
459.73428809197139
 20
503.80690611222349
 30
0.0
 40
5.5
 50
180.0
 51
0.0
  0
LINE
  5
C4EC
  8
0
 10
454.23428809197128
 20
503.80690611222349
 30
0.0
 11
454.23428809197128
 21
509.80690611222349
 31
0.0
  0
LINE
  5
C4ED
  8
0
 10
438.96403400479761
 20
460.30690611222337
 30
0.0
 11
438.96403400479761
 21
474.30690611222337
 31
0.0
  0
LINE
  5
C4EE
  8
0
 10
382.23428809197139
 20
453.57716019939721
 30
0.0
 11
432.23428809197128
 21
453.57716019939721
 31
0.0
  0
ARC
  5
C4EF
  8
0
 10
382.23428809197139
 20
460.30690611222337
 30
0.0
 40
6.7297459128262069
 50
180.0
 51
270.0
  0
LINE
  5
C4F0
  8
0
 10
375.50454217914518
 20
460.30690611222337
 30
0.0
 11
375.50454217914518
 21
474.30690611222337
 31
0.0
  0
LINE
  5
C4F1
  8
0
 10
382.23428809197139
 20
481.0366520250497
 30
0.0
 11
432.23428809197128
 21
481.0366520250497
 31
0.0
  0
ARC
  5
C4F2
  8
0
 10
382.23428809197139
 20
474.30690611222337
 30
0.0
 40
1.6397026822587499
 50
90.0
 51
180.0
  0
ARC
  5
C4F5
  8
0
 10
382.23428809197139
 20
474.30690611222337
 30
0.0
 40
6.7297459128262238
 50
90.0
 51
180.0
  0
ARC
  5
C4FD
  8
0
 10
432.23428809197128
 20
460.30690611222337
 30
0.0
 40
6.729745912826214
 50
270.0
 51
0.0
  0
ARC
  5
C4FF
  8
0
 10
432.23428809197128
 20
460.30690611222337
 30
0.0
 40
1.6397026822587391
 50
270.0
 51
0.0
  0
ARC
  5
C505
  8
0
 10
432.23428809197128
 20
474.30690611222337
 30
0.0
 40
1.639702682258747
 50
0.0
 51
90.0
  0
ARC
  5
C507
  8
0
 10
432.23428809197128
 20
474.30690611222337
 30
0.0
 40
6.7297459128262203
 50
359.99999914622629
 51
90.0
  0
LINE
  5
C509
  8
1
 10
346.05781205711759
 20
430.80690611222337
 30
0.0
 11
363.41076412682509
 21
430.80690611222337
 31
0.0
  0
LINE
  5
C50A
  8
1
 10
354.73428809197139
 20
439.48338214707718
 30
0.0
 11
354.73428809197139
 21
416.13043007736968
 31
0.0
  0
LINE
  5
C50B
  8
1
 10
346.05781205711759
 20
424.80690611222349
 30
0.0
 11
363.41076412682509
 21
424.80690611222349
 31
0.0
  0
LINE
  5
C50C
  8
1
 10
346.05781205711759
 20
509.80690611222349
 30
0.0
 11
363.41076412682509
 21
509.80690611222349
 31
0.0
  0
LINE
  5
C50D
  8
1
 10
354.73428809197139
 20
518.48338214707724
 30
0.0
 11
354.73428809197139
 21
495.13043007736968
 31
0.0
  0
LINE
  5
C50E
  8
1
 10
346.05781205711759
 20
503.80690611222349
 30
0.0
 11
363.41076412682509
 21
503.80690611222349
 31
0.0
  0
LINE
  5
C50F
  8
1
 10
451.05781205711759
 20
430.80690611222337
 30
0.0
 11
468.41076412682509
 21
430.80690611222337
 31
0.0
  0
LINE
  5
C510
  8
1
 10
459.73428809197139
 20
439.48338214707718
 30
0.0
 11
459.73428809197139
 21
416.13043007736968
 31
0.0
  0
LINE
  5
C511
  8
1
 10
451.05781205711759
 20
424.80690611222349
 30
0.0
 11
468.41076412682509
 21
424.80690611222349
 31
0.0
  0
LINE
  5
C512
  8
1
 10
451.05781205711759
 20
509.80690611222349
 30
0.0
 11
468.41076412682509
 21
509.80690611222349
 31
0.0
  0
LINE
  5
C513
  8
1
 10
459.73428809197139
 20
518.48338214707724
 30
0.0
 11
459.73428809197139
 21
495.13043007736968
 31
0.0
  0
LINE
  5
C514
  8
1
 10
451.05781205711759
 20
503.80690611222349
 30
0.0
 11
468.41076412682509
 21
503.80690611222349
 31
0.0
  0
ARC
  5
C533
  8
0
 10
337.17181596887252
 20
446.80690611222349
 30
0.0
 40
1.9999999999999569
 50
196.30926544641201
 51
270.0
  0
ARC
  5
C534
  8
0
 10
477.29676021507032
 20
446.80690611222349
 30
0.0
 40
1.9999999999999689
 50
270.0
 51
343.69073455358802
  0
ARC
  5
C535
  8
0
 10
407.23428809197122
 20
467.30690611222349
 30
0.0
 40
75.000000000000057
 50
163.6907345535879
 51
196.30926544641201
  0
ARC
  5
C536
  8
0
 10
407.23428809197151
 20
467.30690611222349
 30
0.0
 40
75.000000000000043
 50
343.69073455358802
 51
16.309265446412031
  0
ARC
  5
C537
  8
0
 10
337.17181596887252
 20
487.80690611222349
 30
0.0
 40
1.9999999999999989
 50
90.0
 51
163.6907345535879
  0
ARC
  5
C538
  8
0
 10
477.29676021507021
 20
487.80690611222349
 30
0.0
 40
1.9999999999999889
 50
16.309265446412031
 51
90.0
  0
LINE
  5
C543
  8
0
 10
337.17181596887252
 20
444.80690611222337
 30
0.0
 11
337.18339315507779
 21
444.80690611222337
 31
0.0
  0
LINE
  5
C545
  8
0
 10
477.28518302886499
 20
444.80690611222337
 30
0.0
 11
477.29676021507021
 21
444.80690611222337
 31
0.0
  0
LINE
  5
C549
  8
0
 10
337.17181596887252
 20
489.80690611222337
 30
0.0
 11
337.18339315507779
 21
489.80690611222337
 31
0.0
  0
LINE
  5
C54B
  8
0
 10
477.28518302886499
 20
489.80690611222337
 30
0.0
 11
477.29676021507021
 21
489.80690611222337
 31
0.0
  0
LINE
  5
C556
  8
0
 10
703.36783339788485
 20
148.52272068512929
 30
0.0
 11
702.48514249370089
 21
148.52272068512929
 31
0.0
  0
LINE
  5
C557
  8
0
 10
702.48514249370089
 20
160.52272068512929
 30
0.0
 11
703.36783339788485
 21
160.52272068512929
 31
0.0
  0
LINE
  5
C559
  8
0
 10
718.28514249370085
 20
149.59622068512931
 30
0.0
 11
717.28514249370085
 21
148.59622068512931
 31
0.0
  0
LINE
  5
C55D
  8
0
 10
620.34421944168696
 20
144.52012727141911
 30
0.0
 11
619.98514249370089
 21
145.86022068512941
 31
0.0
  0
LINE
  5
C560
  8
0
 10
717.28514249370085
 20
146.20772068512929
 30
0.0
 11
713.53514249370096
 21
146.20772068512929
 31
0.0
  0
LINE
  5
C567
  8
0
 10
713.53514249370096
 20
145.86022068512941
 30
0.0
 11
713.17606554571512
 21
144.52012727141911
 31
0.0
  0
LINE
  5
C568
  8
0
 10
629.48514249370101
 20
148.52272068512929
 30
0.0
 11
629.2024515895173
 21
148.52272068512929
 31
0.0
  0
LINE
  5
C56B
  8
0
 10
629.2024515895173
 20
160.52272068512929
 30
0.0
 11
629.48514249370101
 21
160.52272068512929
 31
0.0
  0
LINE
  5
C56C
  8
0
 10
702.48514249370089
 20
144.52272068512929
 30
0.0
 11
688.78514249370085
 21
144.52272068512929
 31
0.0
  0
LINE
  5
C56E
  8
0
 10
643.78514249370085
 20
144.52272068512929
 30
0.0
 11
629.48514249370101
 21
144.52272068512929
 31
0.0
  0
LINE
  5
C56F
  8
0
 10
629.48514249370101
 20
164.52272068512929
 30
0.0
 11
643.78514249370085
 21
164.52272068512929
 31
0.0
  0
LINE
  5
C571
  8
0
 10
688.78514249370085
 20
164.52272068512929
 30
0.0
 11
702.48514249370089
 21
164.52272068512929
 31
0.0
  0
LINE
  5
C573
  8
0
 10
718.28514249370085
 20
158.12755750089309
 30
0.0
 11
718.28514249370085
 21
149.59622068512931
 31
0.0
  0
LINE
  5
C574
  8
0
 10
619.98514249370089
 20
152.47874523023569
 30
0.0
 11
619.98514249370089
 21
145.86022068512941
 31
0.0
  0
POLYLINE
  5
C577
  8
0
 66
     1
 10
0.0
 20
0.0
 30
0.0
  0
VERTEX
  5
13F21
  8
0
 10
620.34421944168696
 20
149.52142397827421
 30
0.0
  0
VERTEX
  5
13F22
  8
0
 10
620.23231795425431
 20
149.0721635727466
 30
0.0
  0
VERTEX
  5
13F23
  8
0
 10
620.07367954262475
 20
148.22843757856089
 30
0.0
  0
VERTEX
  5
13F24
  8
0
 10
619.99509474922434
 20
147.42229470991529
 30
0.0
  0
VERTEX
  5
13F25
  8
0
 10
619.98514249370089
 20
147.02077562484669
 30
0.0
  0
SEQEND
  5
13F26
  8
0
  0
POLYLINE
  5
C578
  8
0
 66
     1
 10
0.0
 20
0.0
 30
0.0
  0
VERTEX
  5
13F27
  8
0
 10
619.98514249370089
 20
147.02077562484669
 30
0.0
  0
VERTEX
  5
13F28
  8
0
 10
619.99509474922434
 20
146.61925653977801
 30
0.0
  0
VERTEX
  5
13F29
  8
0
 10
620.07367954262475
 20
145.81311367113219
 30
0.0
  0
VERTEX
  5
13F2A
  8
0
 10
620.23231795425454
 20
144.96938767694681
 30
0.0
  0
VERTEX
  5
13F2B
  8
0
 10
620.34421944168696
 20
144.52012727141911
 30
0.0
  0
SEQEND
  5
13F2C
  8
0
  0
LINE
  5
C57B
  8
0
 10
620.34421944168696
 20
144.52012727141911
 30
0.0
 11
625.51713458166034
 21
144.52012727141911
 31
0.0
  0
POLYLINE
  5
C592
  8
0
 66
     1
 10
0.0
 20
0.0
 30
0.0
  0
VERTEX
  5
13F2D
  8
0
 10
620.05349566805762
 20
152.40502399513571
 30
0.0
  0
VERTEX
  5
13F2E
  8
0
 10
620.08558160903385
 20
151.94693377967991
 30
0.0
  0
VERTEX
  5
13F2F
  8
0
 10
620.16877711845518
 20
151.0094473452989
 30
0.0
  0
VERTEX
  5
13F30
  8
0
 10
620.27862009872717
 20
150.03103568224719
 30
0.0
  0
VERTEX
  5
13F31
  8
0
 10
620.34421944168696
 20
149.52142397827421
 30
0.0
  0
SEQEND
  5
13F32
  8
0
  0
LINE
  5
C593
  8
0
 10
620.34421944168696
 20
149.52142397827421
 30
0.0
 11
622.2311990958417
 21
149.52142397827421
 31
0.0
  0
LINE
  5
C596
  8
0
 10
717.28514249370085
 20
157.18864667845671
 30
0.0
 11
717.28514249370085
 21
146.20772068512929
 31
0.0
  0
LINE
  5
C59B
  8
0
 10
713.53514249370096
 20
153.43661604241331
 30
0.0
 11
713.53514249370096
 21
145.86022068512941
 31
0.0
  0
POLYLINE
  5
C59E
  8
0
 66
     1
 10
0.0
 20
0.0
 30
0.0
  0
VERTEX
  5
13F33
  8
0
 10
713.17606554571512
 20
144.52012727141911
 30
0.0
  0
VERTEX
  5
13F34
  8
0
 10
713.28796703314765
 20
144.96938767694681
 30
0.0
  0
VERTEX
  5
13F35
  8
0
 10
713.44660544477733
 20
145.81311367113219
 30
0.0
  0
VERTEX
  5
13F36
  8
0
 10
713.52519023817786
 20
146.61925653977801
 30
0.0
  0
VERTEX
  5
13F37
  8
0
 10
713.53514249370096
 20
147.02077562484669
 30
0.0
  0
SEQEND
  5
13F38
  8
0
  0
POLYLINE
  5
C59F
  8
0
 66
     1
 10
0.0
 20
0.0
 30
0.0
  0
VERTEX
  5
13F39
  8
0
 10
713.53514249370096
 20
147.02077562484669
 30
0.0
  0
VERTEX
  5
13F3A
  8
0
 10
713.52519023817786
 20
147.42229470991529
 30
0.0
  0
VERTEX
  5
13F3B
  8
0
 10
713.44660544477733
 20
148.22843757856089
 30
0.0
  0
VERTEX
  5
13F3C
  8
0
 10
713.28796703314765
 20
149.0721635727466
 30
0.0
  0
VERTEX
  5
13F3D
  8
0
 10
713.17606554571512
 20
149.52142397827421
 30
0.0
  0
SEQEND
  5
13F3E
  8
0
  0
LINE
  5
C5A1
  8
0
 10
707.05315040574169
 20
144.52012727141911
 30
0.0
 11
713.17606554571512
 21
144.52012727141911
 31
0.0
  0
LINE
  5
C5B8
  8
0
 10
710.33908589156044
 20
149.52142397827421
 30
0.0
 11
713.17606554571512
 21
149.52142397827421
 31
0.0
  0
POLYLINE
  5
C5B9
  8
0
 66
     1
 10
0.0
 20
0.0
 30
0.0
  0
VERTEX
  5
13F3F
  8
0
 10
713.17606554571512
 20
149.52142397827421
 30
0.0
  0
VERTEX
  5
13F40
  8
0
 10
713.26433548425621
 20
150.21792976171531
 30
0.0
  0
VERTEX
  5
13F41
  8
0
 10
713.40137350144118
 20
151.53969548091271
 30
0.0
  0
VERTEX
  5
13F42
  8
0
 10
713.4896919985074
 20
152.80007728579511
 30
0.0
  0
VERTEX
  5
13F43
  8
0
 10
713.51637512413117
 20
153.41892624422979
 30
0.0
  0
SEQEND
  5
13F44
  8
0
  0
LINE
  5
C5BB
  8
0
 10
629.48514249370101
 20
164.52272068512929
 30
0.0
 11
629.48514249370101
 21
144.52272068512929
 31
0.0
  0
LINE
  5
C5BC
  8
0
 10
702.48514249370089
 20
164.52272068512929
 30
0.0
 11
702.48514249370089
 21
144.52272068512929
 31
0.0
  0
LINE
  5
C5C2
  8
1
 10
606.10628941594985
 20
154.52272068512929
 30
0.0
 11
726.46399557145173
 21
154.52272068512929
 31
0.0
  0
LINE
  5
C5D6
  8
0
 10
721.28514249370085
 20
271.52272068512929
 30
0.0
 11
721.28514249370085
 21
167.7246961325877
 31
0.0
  0
LINE
  5
C5D7
  8
0
 10
721.28514249370085
 20
271.52272068512929
 30
0.0
 11
611.28514249370096
 21
271.52272068512929
 31
0.0
  0
LINE
  5
C5D8
  8
0
 10
703.28514249370085
 20
271.52272068512929
 30
0.0
 11
703.28514249370085
 21
162.28780319763769
 31
0.0
  0
LINE
  5
C5DB
  8
0
 10
611.28514249370096
 20
271.52272068512929
 30
0.0
 11
611.28514249370096
 21
167.7246961325877
 31
0.0
  0
POLYLINE
  5
C5DE
  8
0
 66
     1
 10
0.0
 20
0.0
 30
0.0
  0
VERTEX
  5
13F45
  8
0
 10
609.45676850074733
 20
165.1822457651146
 30
0.0
  0
VERTEX
  5
13F46
  8
0
 10
609.44578102404012
 20
165.2422834591718
 30
0.0
  0
VERTEX
  5
13F47
  8
0
 10
609.42509409329364
 20
165.36439427045019
 30
0.0
  0
VERTEX
  5
13F48
  8
0
 10
609.40608891015529
 20
165.48918520596769
 30
0.0
  0
VERTEX
  5
13F49
  8
0
 10
609.3972027990294
 20
165.5525720176536
 30
0.0
  0
VERTEX
  5
13F4A
  8
0
 10
609.38871969077047
 20
165.61661189621921
 30
0.0
  0
VERTEX
  5
13F4B
  8
0
 10
609.37293731095656
 20
165.74662591788481
 30
0.0
  0
VERTEX
  5
13F4C
  8
0
 10
609.35868949759367
 20
165.8791751786982
 30
0.0
  0
VERTEX
  5
13F4D
  8
0
 10
609.34592105351362
 20
166.01420431277819
 30
0.0
  0
VERTEX
  5
13F4E
  8
0
 10
609.33457410950689
 20
166.15165508524129
 30
0.0
  0
VERTEX
  5
13F4F
  8
0
 10
609.32458839763046
 20
166.29146680533671
 30
0.0
  0
VERTEX
  5
13F50
  8
0
 10
609.32008658505094
 20
166.3622384868693
 30
0.0
  0
VERTEX
  5
13F51
  8
0
 10
609.31590154050991
 20
166.43357674772321
 30
0.0
  0
VERTEX
  5
13F52
  8
0
 10
609.30844935185223
 20
166.5779205818169
 30
0.0
  0
VERTEX
  5
13F53
  8
0
 10
609.30216609368654
 20
166.72443410325209
 30
0.0
  0
VERTEX
  5
13F54
  8
0
 10
609.2969849281651
 20
166.8730507291468
 30
0.0
  0
VERTEX
  5
13F55
  8
0
 10
609.29283824392166
 20
167.02369850072839
 30
0.0
  0
VERTEX
  5
13F56
  8
0
 10
609.28965776294217
 20
167.17630277129379
 30
0.0
  0
VERTEX
  5
13F57
  8
0
 10
609.28840839124985
 20
167.25331461462861
 30
0.0
  0
VERTEX
  5
13F58
  8
0
 10
609.28737479222582
 20
167.3307865424074
 30
0.0
  0
VERTEX
  5
13F59
  8
0
 10
609.28592048387713
 20
167.4870707918933
 30
0.0
  0
VERTEX
  5
13F5A
  8
0
 10
609.28522609960635
 20
167.64507480952099
 30
0.0
  0
VERTEX
  5
13F5B
  8
0
 10
609.28514249370085
 20
167.7246961325877
 30
0.0
  0
SEQEND
  5
13F5C
  8
0
  0
POLYLINE
  5
C5E0
  8
0
 66
     1
 10
0.0
 20
0.0
 30
0.0
  0
VERTEX
  5
13F5D
  8
0
 10
612.65366343458754
 20
159.54210169129121
 30
0.0
  0
VERTEX
  5
13F5E
  8
0
 10
612.51751297287228
 20
159.6649755293588
 30
0.0
  0
VERTEX
  5
13F5F
  8
0
 10
612.25208593993671
 20
159.91810966441329
 30
0.0
  0
VERTEX
  5
13F60
  8
0
 10
611.99612036546398
 20
160.18080725638509
 30
0.0
  0
VERTEX
  5
13F61
  8
0
 10
611.87179374338655
 20
160.31563239999559
 30
0.0
  0
VERTEX
  5
13F62
  8
0
 10
611.74996059584657
 20
160.45271490240631
 30
0.0
  0
VERTEX
  5
13F63
  8
0
 10
611.51393778588408
 20
160.7334668094706
 30
0.0
  0
VERTEX
  5
13F64
  8
0
 10
611.28836945328703
 20
161.02268528652939
 30
0.0
  0
VERTEX
  5
13F65
  8
0
 10
611.07355905152417
 20
161.3199812525925
 30
0.0
  0
VERTEX
  5
13F66
  8
0
 10
610.86979556159235
 20
161.6249547601528
 30
0.0
  0
VERTEX
  5
13F67
  8
0
 10
610.67735310325486
 20
161.9371955332301
 30
0.0
  0
VERTEX
  5
13F68
  8
0
 10
610.58545876857147
 20
162.09591024445709
 30
0.0
  0
VERTEX
  5
13F69
  8
0
 10
610.49649056627197
 20
162.25628351930769
 30
0.0
  0
VERTEX
  5
13F6A
  8
0
 10
610.32745126212114
 20
162.5817894544227
 30
0.0
  0
VERTEX
  5
13F6B
  8
0
 10
610.17046259667404
 20
162.9132754406485
 30
0.0
  0
VERTEX
  5
13F6C
  8
0
 10
610.02573576427062
 20
163.25029553519059
 30
0.0
  0
VERTEX
  5
13F6D
  8
0
 10
609.89346546360275
 20
163.59239635030821
 30
0.0
  0
VERTEX
  5
13F6E
  8
0
 10
609.77382963579021
 20
163.9391176632478
 30
0.0
  0
VERTEX
  5
13F6F
  8
0
 10
609.71880061427782
 20
164.11406547003071
 30
0.0
  0
VERTEX
  5
13F70
  8
0
 10
609.66698922499813
 20
164.28999303537401
 30
0.0
  0
VERTEX
  5
13F71
  8
0
 10
609.5730879619216
 20
164.644550439662
 30
0.0
  0
VERTEX
  5
13F72
  8
0
 10
609.49225217042772
 20
165.0023128957084
 30
0.0
  0
VERTEX
  5
13F73
  8
0
 10
609.45676850074733
 20
165.1822457651146
 30
0.0
  0
SEQEND
  5
13F74
  8
0
  0
POLYLINE
  5
C5E3
  8
0
 66
     1
 10
0.0
 20
0.0
 30
0.0
  0
VERTEX
  5
13F75
  8
0
 10
614.28514249370085
 20
158.12755750089309
 30
0.0
  0
VERTEX
  5
13F76
  8
0
 10
614.00417314538504
 20
158.36556631912521
 30
0.0
  0
VERTEX
  5
13F77
  8
0
 10
613.45109982948509
 20
158.84180207115969
 30
0.0
  0
VERTEX
  5
13F78
  8
0
 10
612.91429406640123
 20
159.31177952592179
 30
0.0
  0
VERTEX
  5
13F79
  8
0
 10
612.65366343458754
 20
159.54210169129121
 30
0.0
  0
SEQEND
  5
13F7A
  8
0
  0
LINE
  5
C5E6
  8
0
 10
629.28514249370085
 20
143.02272068512929
 30
0.0
 11
627.16508829555687
 21
143.02272068512929
 31
0.0
  0
POLYLINE
  5
C5E7
  8
0
 66
     1
 10
0.0
 20
0.0
 30
0.0
  0
VERTEX
  5
13F7B
  8
0
 10
623.10739350499
 20
148.02272068512929
 30
0.0
  0
VERTEX
  5
13F7C
  8
0
 10
623.24329702041439
 20
147.7759241524802
 30
0.0
  0
VERTEX
  5
13F7D
  8
0
 10
623.52065261624045
 20
147.2993359746738
 30
0.0
  0
VERTEX
  5
13F7E
  8
0
 10
623.8016572501765
 20
146.84687791079361
 30
0.0
  0
VERTEX
  5
13F7F
  8
0
 10
623.94218355648923
 20
146.63022828966561
 30
0.0
  0
VERTEX
  5
13F80
  8
0
 10
624.08204380395875
 20
146.4202378137517
 30
0.0
  0
VERTEX
  5
13F81
  8
0
 10
624.35784735262473
 20
146.02099007802261
 30
0.0
  0
VERTEX
  5
13F82
  8
0
 10
624.63205404909672
 20
145.6415829416116
 30
0.0
  0
VERTEX
  5
13F83
  8
0
 10
624.90714418702987
 20
145.27679713593031
 30
0.0
  0
VERTEX
  5
13F84
  8
0
 10
625.17957536721065
 20
144.93013070495661
 30
0.0
  0
VERTEX
  5
13F85
  8
0
 10
625.44593009961397
 20
144.60480110657161
 30
0.0
  0
VERTEX
  5
13F86
  8
0
 10
625.57581082674756
 20
144.45106546739569
 30
0.0
  0
VERTEX
  5
13F87
  8
0
 10
625.70297288016923
 20
144.30374873926689
 30
0.0
  0
VERTEX
  5
13F88
  8
0
 10
625.94765900787149
 20
144.0296776574489
 30
0.0
  0
VERTEX
  5
13F89
  8
0
 10
626.17720892011221
 20
143.7850027836416
 30
0.0
  0
VERTEX
  5
13F8A
  8
0
 10
626.38929094043192
 20
143.57169126706501
 30
0.0
  0
VERTEX
  5
13F8B
  8
0
 10
626.58174624437527
 20
143.39157175909099
 30
0.0
  0
VERTEX
  5
13F8C
  8
0
 10
626.75270689310378
 20
143.2461860520454
 30
0.0
  0
VERTEX
  5
13F8D
  8
0
 10
626.82966069929171
 20
143.1868820581451
 30
0.0
  0
VERTEX
  5
13F8E
  8
0
 10
626.84191840000744
 20
143.17787697796371
 30
0.0
  0
VERTEX
  5
13F8F
  8
0
 10
626.86594174387824
 20
143.1606237265093
 30
0.0
  0
VERTEX
  5
13F90
  8
0
 10
626.88930546012205
 20
143.14438194866099
 30
0.0
  0
VERTEX
  5
13F91
  8
0
 10
626.90073870050105
 20
143.1366411302856
 30
0.0
  0
VERTEX
  5
13F92
  8
0
 10
626.91200556585329
 20
143.129154057634
 30
0.0
  0
VERTEX
  5
13F93
  8
0
 10
626.93403840791689
 20
143.11494210829349
 30
0.0
  0
VERTEX
  5
13F94
  8
0
 10
626.9554006751938
 20
143.1017477822397
 30
0.0
  0
VERTEX
  5
13F95
  8
0
 10
626.97608940996133
 20
143.08957237425619
 30
0.0
  0
VERTEX
  5
13F96
  8
0
 10
626.99610201826465
 20
143.07841678016459
 30
0.0
  0
VERTEX
  5
13F97
  8
0
 10
627.01543627926594
 20
143.06828148613789
 30
0.0
  0
VERTEX
  5
13F98
  8
0
 10
627.02484843960178
 20
143.06359648927219
 30
0.0
  0
VERTEX
  5
13F99
  8
0
 10
627.03409035352934
 20
143.05916655951319
 30
0.0
  0
VERTEX
  5
13F9A
  8
0
 10
627.05206279021081
 20
143.0510716411527
 30
0.0
  0
VERTEX
  5
13F9B
  8
0
 10
627.06935253311713
 20
143.04399593939769
 30
0.0
  0
VERTEX
  5
13F9C
  8
0
 10
627.08595892560265
 20
143.0379382256576
 30
0.0
  0
VERTEX
  5
13F9D
  8
0
 10
627.10188171427694
 20
143.0328968316812
 30
0.0
  0
VERTEX
  5
13F9E
  8
0
 10
627.11712105149275
 20
143.028869648549
 30
0.0
  0
VERTEX
  5
13F9F
  8
0
 10
627.1244845846926
 20
143.0272356066659
 30
0.0
  0
VERTEX
  5
13FA0
  8
0
 10
627.13167749659533
 20
143.0258541274288
 30
0.0
  0
VERTEX
  5
13FA1
  8
0
 10
627.14555201590395
 20
143.0238472821359
 30
0.0
  0
VERTEX
  5
13FA2
  8
0
 10
627.15874598141386
 20
143.02284569353259
 30
0.0
  0
VERTEX
  5
13FA3
  8
0
 10
627.16508829555687
 20
143.02272068512929
 30
0.0
  0
SEQEND
  5
13FA4
  8
0
  0
LINE
  5
C5E9
  8
0
 10
620.53514249370085
 20
155.93778419459039
 30
0.0
 11
619.00189280886593
 21
157.4710338794257
 31
0.0
  0
LINE
  5
C5EA
  8
0
 10
615.00189280886559
 20
157.4710338794257
 30
0.0
 11
619.53514249370085
 21
152.93778419459039
 31
0.0
  0
POLYLINE
  5
C5EB
  8
0
 66
     1
 10
0.0
 20
0.0
 30
0.0
  0
VERTEX
  5
13FA5
  8
0
 10
619.53514249370085
 20
152.93778419459039
 30
0.0
  0
VERTEX
  5
13FA6
  8
0
 10
619.6450296885414
 20
152.8268533170324
 30
0.0
  0
VERTEX
  5
13FA7
  8
0
 10
619.86320899304235
 20
152.6003249724406
 30
0.0
  0
VERTEX
  5
13FA8
  8
0
 10
620.079212608131
 20
152.36762552584219
 30
0.0
  0
VERTEX
  5
13FA9
  8
0
 10
620.18638032854824
 20
152.24898116033219
 30
0.0
  0
VERTEX
  5
13FAA
  8
0
 10
620.29298235691795
 20
152.12881765086351
 30
0.0
  0
VERTEX
  5
13FAB
  8
0
 10
620.50446066416805
 20
151.88396566633219
 30
0.0
  0
VERTEX
  5
13FAC
  8
0
 10
620.71359057180678
 20
151.63313551895311
 30
0.0
  0
VERTEX
  5
13FAD
  8
0
 10
620.92031575426086
 20
151.3763947655479
 30
0.0
  0
VERTEX
  5
13FAE
  8
0
 10
621.12458053362889
 20
151.11381255485909
 30
0.0
  0
VERTEX
  5
13FAF
  8
0
 10
621.32632989467686
 20
150.84545960892569
 30
0.0
  0
VERTEX
  5
13FB0
  8
0
 10
621.42624428591887
 20
150.7091416363989
 30
0.0
  0
VERTEX
  5
13FB1
  8
0
 10
621.52550949965644
 20
150.571408204036
 30
0.0
  0
VERTEX
  5
13FB2
  8
0
 10
621.72206570293793
 20
150.2917321512609
 30
0.0
  0
VERTEX
  5
13FB3
  8
0
 10
621.91594556546124
 20
150.00650677657489
 30
0.0
  0
VERTEX
  5
13FB4
  8
0
 10
622.10709686899281
 20
149.71580890056649
 30
0.0
  0
VERTEX
  5
13FB5
  8
0
 10
622.29546813018942
 20
149.41971681775021
 30
0.0
  0
VERTEX
  5
13FB6
  8
0
 10
622.48100861446574
 20
149.1183102754776
 30
0.0
  0
VERTEX
  5
13FB7
  8
0
 10
622.57270166880562
 20
148.9656393950749
 30
0.0
  0
VERTEX
  5
13FB8
  8
0
 10
622.66366834965686
 20
148.81167045245911
 30
0.0
  0
VERTEX
  5
13FB9
  8
0
 10
622.84339813947906
 20
148.49987993690041
 30
0.0
  0
VERTEX
  5
13FBA
  8
0
 10
623.02014957677989
 20
148.18302270425829
 30
0.0
  0
VERTEX
  5
13FBB
  8
0
 10
623.10739350499
 20
148.02272068512929
 30
0.0
  0
SEQEND
  5
13FBC
  8
0
  0
POLYLINE
  5
C5ED
  8
0
 66
     1
 10
0.0
 20
0.0
 30
0.0
  0
VERTEX
  5
13FBD
  8
0
 10
619.00189280886593
 20
157.4710338794257
 30
0.0
  0
VERTEX
  5
13FBE
  8
0
 10
618.93851758386381
 20
157.5338802570711
 30
0.0
  0
VERTEX
  5
13FBF
  8
0
 10
618.80940076885872
 20
157.65876646103081
 30
0.0
  0
VERTEX
  5
13FC0
  8
0
 10
618.67715163069124
 20
157.78255527203481
 30
0.0
  0
VERTEX
  5
13FC1
  8
0
 10
618.60986115703463
 20
157.8440299628939
 30
0.0
  0
VERTEX
  5
13FC2
  8
0
 10
618.54179814483405
 20
157.90522050427529
 30
0.0
  0
VERTEX
  5
13FC3
  8
0
 10
618.40336894344182
 20
158.0267362096217
 30
0.0
  0
VERTEX
  5
13FC4
  8
0
 10
618.26189330929458
 20
158.14707668310979
 30
0.0
  0
VERTEX
  5
13FC5
  8
0
 10
618.11740116960266
 20
158.26621646838021
 30
0.0
  0
VERTEX
  5
13FC6
  8
0
 10
617.96992308967651
 20
158.3841303630615
 30
0.0
  0
VERTEX
  5
13FC7
  8
0
 10
617.81949026646021
 20
158.50079342410299
 30
0.0
  0
VERTEX
  5
13FC8
  8
0
 10
617.74317574625479
 20
158.55864816951291
 30
0.0
  0
VERTEX
  5
13FC9
  8
0
 10
617.66613452193383
 20
158.6161809730504
 30
0.0
  0
VERTEX
  5
13FCA
  8
0
 10
617.5098882963805
 20
158.73026860126629
 30
0.0
  0
VERTEX
  5
13FCB
  8
0
 10
617.35078464152434
 20
158.84303217509361
 30
0.0
  0
VERTEX
  5
13FCC
  8
0
 10
617.18885721353945
 20
158.95444784096051
 30
0.0
  0
VERTEX
  5
13FCD
  8
0
 10
617.02414026592976
 20
159.06449203042641
 30
0.0
  0
VERTEX
  5
13FCE
  8
0
 10
616.85666864228347
 20
159.17314146516759
 30
0.0
  0
VERTEX
  5
13FCF
  8
0
 10
616.77191087510801
 20
159.22693595558229
 30
0.0
  0
VERTEX
  5
13FD0
  8
0
 10
616.68647776890271
 20
159.28037316190151
 30
0.0
  0
VERTEX
  5
13FD1
  8
0
 10
616.5136036473084
 20
159.3861644372484
 30
0.0
  0
VERTEX
  5
13FD2
  8
0
 10
616.33808284662609
 20
159.49049291252931
 30
0.0
  0
VERTEX
  5
13FD3
  8
0
 10
616.24934152278183
 20
159.54210169129121
 30
0.0
  0
SEQEND
  5
13FD4
  8
0
  0
POLYLINE
  5
C5EF
  8
0
 66
     1
 10
0.0
 20
0.0
 30
0.0
  0
VERTEX
  5
13FD5
  8
0
 10
614.28514249370085
 20
158.12755750089281
 30
0.0
  0
VERTEX
  5
13FD6
  8
0
 10
614.41069785844138
 20
158.02039831881049
 30
0.0
  0
VERTEX
  5
13FD7
  8
0
 10
614.65455282250355
 20
157.80331152050729
 30
0.0
  0
VERTEX
  5
13FD8
  8
0
 10
614.88859806134417
 20
157.58265484626281
 30
0.0
  0
VERTEX
  5
13FD9
  8
0
 10
615.00189280886559
 20
157.4710338794257
 30
0.0
  0
SEQEND
  5
13FDA
  8
0
  0
LINE
  5
C5F1
  8
0
 10
616.24934152278183
 20
159.54210169129121
 30
0.0
 11
615.28514249370096
 21
160.09878226028329
 31
0.0
  0
POLYLINE
  5
C5F2
  8
0
 66
     1
 10
0.0
 20
0.0
 30
0.0
  0
VERTEX
  5
13FDB
  8
0
 10
615.28514249370096
 20
160.09878226028329
 30
0.0
  0
VERTEX
  5
13FDC
  8
0
 10
615.12942691014382
 20
160.1910489791085
 30
0.0
  0
VERTEX
  5
13FDD
  8
0
 10
614.82445607850605
 20
160.38603098798191
 30
0.0
  0
VERTEX
  5
13FDE
  8
0
 10
614.52861747020745
 20
160.59460881464179
 30
0.0
  0
VERTEX
  5
13FDF
  8
0
 10
614.38431278339931
 20
160.7038637812586
 30
0.0
  0
VERTEX
  5
13FE0
  8
0
 10
614.24251674634866
 20
160.81635544424779
 30
0.0
  0
VERTEX
  5
13FE1
  8
0
 10
613.96673963196486
 20
161.0508169018828
 30
0.0
  0
VERTEX
  5
13FE2
  8
0
 10
613.70185071688945
 20
161.29751318196099
 30
0.0
  0
VERTEX
  5
13FE3
  8
0
 10
613.44839229988725
 20
161.55593923092829
 30
0.0
  0
VERTEX
  5
13FE4
  8
0
 10
613.20688327842265
 20
161.82556598124339
 30
0.0
  0
VERTEX
  5
13FE5
  8
0
 10
612.97781808633806
 20
162.10584143451999
 30
0.0
  0
VERTEX
  5
13FE6
  8
0
 10
612.86809949745054
 20
162.24979393230251
 30
0.0
  0
VERTEX
  5
13FE7
  8
0
 10
612.76166568161386
 20
162.3961917916167
 30
0.0
  0
VERTEX
  5
13FE8
  8
0
 10
612.55886858628617
 20
162.69602262735719
 30
0.0
  0
VERTEX
  5
13FE9
  8
0
 10
612.36984198048538
 20
163.00472010747919
 30
0.0
  0
VERTEX
  5
13FEA
  8
0
 10
612.19497285245075
 20
163.32165224531721
 30
0.0
  0
VERTEX
  5
13FEB
  8
0
 10
612.03461920626114
 20
163.64617019564929
 30
0.0
  0
VERTEX
  5
13FEC
  8
0
 10
611.88910932890553
 20
163.97760958305841
 30
0.0
  0
VERTEX
  5
13FED
  8
0
 10
611.82201510078949
 20
164.14571328592911
 30
0.0
  0
VERTEX
  5
13FEE
  8
0
 10
611.75874111818985
 20
164.31529186208559
 30
0.0
  0
VERTEX
  5
13FEF
  8
0
 10
611.64378147286152
 20
164.6585257063962
 30
0.0
  0
VERTEX
  5
13FF0
  8
0
 10
611.54446574619567
 20
165.00660842411
 30
0.0
  0
VERTEX
  5
13FF1
  8
0
 10
611.50073915462815
 20
165.1822457651146
 30
0.0
  0
SEQEND
  5
13FF2
  8
0
  0
POLYLINE
  5
C5F5
  8
0
 66
     1
 10
0.0
 20
0.0
 30
0.0
  0
VERTEX
  5
13FF3
  8
0
 10
611.50073915462815
 20
165.1822457651146
 30
0.0
  0
VERTEX
  5
13FF4
  8
0
 10
611.48644604293122
 20
165.24417416722781
 30
0.0
  0
VERTEX
  5
13FF5
  8
0
 10
611.45995186798586
 20
165.36852088599969
 30
0.0
  0
VERTEX
  5
13FF6
  8
0
 10
611.4361271492271
 20
165.49317449284311
 30
0.0
  0
VERTEX
  5
13FF7
  8
0
 10
611.4251235613051
 20
165.5557472807775
 30
0.0
  0
VERTEX
  5
13FF8
  8
0
 10
611.41460946465429
 20
165.61901141478819
 30
0.0
  0
VERTEX
  5
13FF9
  8
0
 10
611.3950180259144
 20
165.7476204828547
 30
0.0
  0
VERTEX
  5
13FFA
  8
0
 10
611.37729566856285
 20
165.87896167526529
 30
0.0
  0
VERTEX
  5
13FFB
  8
0
 10
611.36138269130083
 20
166.01297994202901
 30
0.0
  0
VERTEX
  5
13FFC
  8
0
 10
611.34721527889155
 20
166.1496157496926
 30
0.0
  0
VERTEX
  5
13FFD
  8
0
 10
611.33472579391173
 20
166.2888055882417
 30
0.0
  0
VERTEX
  5
13FFE
  8
0
 10
611.32908817391694
 20
166.35933746035079
 30
0.0
  0
VERTEX
  5
13FFF
  8
0
 10
611.32384311095586
 20
166.43048248118629
 30
0.0
  0
VERTEX
  5
14000
  8
0
 10
611.31449298369955
 20
166.57457649838989
 30
0.0
  0
VERTEX
  5
14001
  8
0
 10
611.30659843629883
 20
166.72101527186689
 30
0.0
  0
VERTEX
  5
14002
  8
0
 10
611.30008017160162
 20
166.8697245153291
 30
0.0
  0
VERTEX
  5
14003
  8
0
 10
611.294856982807
 20
167.0206287714106
 30
0.0
  0
VERTEX
  5
14004
  8
0
 10
611.29084619824562
 20
167.173651355506
 30
0.0
  0
VERTEX
  5
14005
  8
0
 10
611.28926934879473
 20
167.25093142660779
 30
0.0
  0
VERTEX
  5
14006
  8
0
 10
611.28796416337173
 20
167.3287099161584
 30
0.0
  0
VERTEX
  5
14007
  8
0
 10
611.28612646838519
 20
167.48571886019971
 30
0.0
  0
VERTEX
  5
14008
  8
0
 10
611.28524829167316
 20
167.64459016498259
 30
0.0
  0
VERTEX
  5
14009
  8
0
 10
611.28514249370096
 20
167.7246961325877
 30
0.0
  0
SEQEND
  5
1400A
  8
0
  0
LINE
  5
C5FB
  8
0
 10
609.28514249370085
 20
273.52272068512929
 30
0.0
 11
609.28514249370085
 21
167.7246961325877
 31
0.0
  0
POLYLINE
  5
C5FC
  8
0
 66
     1
 10
0.0
 20
0.0
 30
0.0
  0
VERTEX
  5
1400B
  8
0
 10
723.28514249370096
 20
167.7246961325877
 30
0.0
  0
VERTEX
  5
1400C
  8
0
 10
723.28505888779569
 20
167.64507480952099
 30
0.0
  0
VERTEX
  5
1400D
  8
0
 10
723.28436450352478
 20
167.4870707918933
 30
0.0
  0
VERTEX
  5
1400E
  8
0
 10
723.28291019517633
 20
167.3307865424074
 30
0.0
  0
VERTEX
  5
1400F
  8
0
 10
723.28187659615207
 20
167.25331461462861
 30
0.0
  0
VERTEX
  5
14010
  8
0
 10
723.28062722445998
 20
167.17630277129379
 30
0.0
  0
VERTEX
  5
14011
  8
0
 10
723.27744674348025
 20
167.02369850072839
 30
0.0
  0
VERTEX
  5
14012
  8
0
 10
723.27330005923704
 20
166.8730507291468
 30
0.0
  0
VERTEX
  5
14013
  8
0
 10
723.26811889371561
 20
166.72443410325209
 30
0.0
  0
VERTEX
  5
14014
  8
0
 10
723.26183563554991
 20
166.5779205818169
 30
0.0
  0
VERTEX
  5
14015
  8
0
 10
723.25438344689223
 20
166.43357674772321
 30
0.0
  0
VERTEX
  5
14016
  8
0
 10
723.25019840235097
 20
166.3622384868693
 30
0.0
  0
VERTEX
  5
14017
  8
0
 10
723.24569658977146
 20
166.29146680533671
 30
0.0
  0
VERTEX
  5
14018
  8
0
 10
723.23571087789514
 20
166.15165508524129
 30
0.0
  0
VERTEX
  5
14019
  8
0
 10
723.22436393388853
 20
166.01420431277819
 30
0.0
  0
VERTEX
  5
1401A
  8
0
 10
723.21159548980825
 20
165.8791751786982
 30
0.0
  0
VERTEX
  5
1401B
  8
0
 10
723.19734767644559
 20
165.74662591788481
 30
0.0
  0
VERTEX
  5
1401C
  8
0
 10
723.18156529663133
 20
165.61661189621921
 30
0.0
  0
VERTEX
  5
1401D
  8
0
 10
723.17308218837275
 20
165.5525720176536
 30
0.0
  0
VERTEX
  5
1401E
  8
0
 10
723.16419607724674
 20
165.48918520596769
 30
0.0
  0
VERTEX
  5
1401F
  8
0
 10
723.1451908941084
 20
165.36439427045019
 30
0.0
  0
VERTEX
  5
14020
  8
0
 10
723.12450396336203
 20
165.24228345917211
 30
0.0
  0
VERTEX
  5
14021
  8
0
 10
723.11351648665482
 20
165.1822457651146
 30
0.0
  0
SEQEND
  5
14022
  8
0
  0
POLYLINE
  5
C5FF
  8
0
 66
     1
 10
0.0
 20
0.0
 30
0.0
  0
VERTEX
  5
14023
  8
0
 10
723.11351648665482
 20
165.1822457651146
 30
0.0
  0
VERTEX
  5
14024
  8
0
 10
723.07803281697443
 20
165.0023128957084
 30
0.0
  0
VERTEX
  5
14025
  8
0
 10
722.99719702548055
 20
164.644550439662
 30
0.0
  0
VERTEX
  5
14026
  8
0
 10
722.90329576240401
 20
164.28999303537401
 30
0.0
  0
VERTEX
  5
14027
  8
0
 10
722.85148437312432
 20
164.11406547003071
 30
0.0
  0
VERTEX
  5
14028
  8
0
 10
722.79645535161171
 20
163.9391176632478
 30
0.0
  0
VERTEX
  5
14029
  8
0
 10
722.67681952379905
 20
163.59239635030821
 30
0.0
  0
VERTEX
  5
1402A
  8
0
 10
722.54454922313153
 20
163.25029553519079
 30
0.0
  0
VERTEX
  5
1402B
  8
0
 10
722.3998223907281
 20
162.9132754406485
 30
0.0
  0
VERTEX
  5
1402C
  8
0
 10
722.24283372528078
 20
162.5817894544227
 30
0.0
  0
VERTEX
  5
1402D
  8
0
 10
722.07379442112995
 20
162.25628351930769
 30
0.0
  0
VERTEX
  5
1402E
  8
0
 10
721.98482621883068
 20
162.09591024445709
 30
0.0
  0
VERTEX
  5
1402F
  8
0
 10
721.89293188414706
 20
161.9371955332301
 30
0.0
  0
VERTEX
  5
14030
  8
0
 10
721.70048942580968
 20
161.624954760153
 30
0.0
  0
VERTEX
  5
14031
  8
0
 10
721.49672593587786
 20
161.3199812525925
 30
0.0
  0
VERTEX
  5
14032
  8
0
 10
721.28191553411511
 20
161.02268528652939
 30
0.0
  0
VERTEX
  5
14033
  8
0
 10
721.05634720151807
 20
160.7334668094706
 30
0.0
  0
VERTEX
  5
14034
  8
0
 10
720.82032439155535
 20
160.45271490240631
 30
0.0
  0
VERTEX
  5
14035
  8
0
 10
720.69849124401537
 20
160.31563239999559
 30
0.0
  0
VERTEX
  5
14036
  8
0
 10
720.57416462193805
 20
160.18080725638509
 30
0.0
  0
VERTEX
  5
14037
  8
0
 10
720.31819904746544
 20
159.91810966441329
 30
0.0
  0
VERTEX
  5
14038
  8
0
 10
720.05277201452986
 20
159.6649755293588
 30
0.0
  0
VERTEX
  5
14039
  8
0
 10
719.9166215528146
 20
159.54210169129121
 30
0.0
  0
SEQEND
  5
1403A
  8
0
  0
POLYLINE
  5
C600
  8
0
 66
     1
 10
0.0
 20
0.0
 30
0.0
  0
VERTEX
  5
1403B
  8
0
 10
719.9166215528146
 20
159.54210169129121
 30
0.0
  0
VERTEX
  5
1403C
  8
0
 10
719.65599092100126
 20
159.31177952592199
 30
0.0
  0
VERTEX
  5
1403D
  8
0
 10
719.11918515791456
 20
158.8418020711579
 30
0.0
  0
VERTEX
  5
1403E
  8
0
 10
718.56611184201552
 20
158.3655663191239
 30
0.0
  0
VERTEX
  5
1403F
  8
0
 10
718.28514249370119
 20
158.12755750089309
 30
0.0
  0
SEQEND
  5
14040
  8
0
  0
POLYLINE
  5
C605
  8
0
 66
     1
 10
0.0
 20
0.0
 30
0.0
  0
VERTEX
  5
14041
  8
0
 10
706.73496997992925
 20
144.15392321447891
 30
0.0
  0
VERTEX
  5
14042
  8
0
 10
706.69179963065369
 20
144.1058509942556
 30
0.0
  0
VERTEX
  5
14043
  8
0
 10
706.60682676685565
 20
144.01243092837851
 30
0.0
  0
VERTEX
  5
14044
  8
0
 10
706.52377909246036
 20
143.92273167038209
 30
0.0
  0
VERTEX
  5
14045
  8
0
 10
706.48301393529607
 20
143.87930911146921
 30
0.0
  0
VERTEX
  5
14046
  8
0
 10
706.4427734276469
 20
143.8368541287841
 30
0.0
  0
VERTEX
  5
14047
  8
0
 10
706.36391084009074
 20
143.75488307895151
 30
0.0
  0
VERTEX
  5
14048
  8
0
 10
706.28728119157824
 20
143.67689297761399
 30
0.0
  0
VERTEX
  5
14049
  8
0
 10
706.21298855884493
 20
143.6029738077354
 30
0.0
  0
VERTEX
  5
1404A
  8
0
 10
706.14113242799817
 20
143.53321088089041
 30
0.0
  0
VERTEX
  5
1404B
  8
0
 10
706.07180674130007
 20
143.46768380945471
 30
0.0
  0
VERTEX
  5
1404C
  8
0
 10
706.0381205183503
 20
143.43653189416071
 30
0.0
  0
VERTEX
  5
1404D
  8
0
 10
706.00509934296099
 20
143.40646591942931
 30
0.0
  0
VERTEX
  5
1404E
  8
0
 10
705.94109146721576
 20
143.34962373126899
 30
0.0
  0
VERTEX
  5
1404F
  8
0
 10
705.87985727701334
 20
143.29721652005739
 30
0.0
  0
VERTEX
  5
14050
  8
0
 10
705.82146346253785
 20
143.2492959679864
 30
0.0
  0
VERTEX
  5
14051
  8
0
 10
705.76596891062798
 20
143.2059059243613
 30
0.0
  0
VERTEX
  5
14052
  8
0
 10
705.71342479158875
 20
143.1670825287469
 30
0.0
  0
VERTEX
  5
14053
  8
0
 10
705.68827331903935
 20
143.1493927222736
 30
0.0
  0
VERTEX
  5
14054
  8
0
 10
705.66387566541994
 20
143.13285498608909
 30
0.0
  0
VERTEX
  5
14055
  8
0
 10
705.6173595196683
 20
143.1032453139635
 30
0.0
  0
VERTEX
  5
14056
  8
0
 10
705.57390718509816
 20
143.07826761747009
 30
0.0
  0
VERTEX
  5
14057
  8
0
 10
705.55333749764065
 20
143.06751785248289
 30
0.0
  0
SEQEND
  5
14058
  8
0
  0
LINE
  5
C607
  8
0
 10
705.40519669184528
 20
143.02272068512929
 30
0.0
 11
703.28514249370085
 21
143.02272068512929
 31
0.0
  0
POLYLINE
  5
C608
  8
0
 66
     1
 10
0.0
 20
0.0
 30
0.0
  0
VERTEX
  5
14059
  8
0
 10
706.84981444005837
 20
148.02272068512929
 30
0.0
  0
VERTEX
  5
1405A
  8
0
 10
706.73773054074115
 20
147.77277932447211
 30
0.0
  0
VERTEX
  5
1405B
  8
0
 10
706.50755346676692
 20
147.29033380481431
 30
0.0
  0
VERTEX
  5
1405C
  8
0
 10
706.27260516013075
 20
146.83277524199681
 30
0.0
  0
VERTEX
  5
1405D
  8
0
 10
706.15452544063908
 20
146.61390607411539
 30
0.0
  0
VERTEX
  5
1405E
  8
0
 10
706.03665205897346
 20
146.40193186395501
 30
0.0
  0
VERTEX
  5
1405F
  8
0
 10
705.80326058285266
 20
145.99943947083989
 30
0.0
  0
VERTEX
  5
14060
  8
0
 10
705.5701642883422
 20
145.61778859431661
 30
0.0
  0
VERTEX
  5
14061
  8
0
 10
705.33552343932217
 20
145.25192055058179
 30
0.0
  0
VERTEX
  5
14062
  8
0
 10
705.10246487708139
 20
144.90526630610839
 30
0.0
  0
VERTEX
  5
14063
  8
0
 10
704.87403338808963
 20
144.5809403730097
 30
0.0
  0
VERTEX
  5
14064
  8
0
 10
704.76246539546776
 20
144.42803721221861
 30
0.0
  0
VERTEX
  5
14065
  8
0
 10
704.65313131667335
 20
144.28174790559589
 30
0.0
  0
VERTEX
  5
14066
  8
0
 10
704.44250123037273
 20
144.01022989913639
 30
0.0
  0
VERTEX
  5
14067
  8
0
 10
704.24465197275799
 20
143.76861328840661
 30
0.0
  0
VERTEX
  5
14068
  8
0
 10
704.06169503295985
 20
143.55866096206381
 30
0.0
  0
VERTEX
  5
14069
  8
0
 10
703.89556930791105
 20
143.38197318819789
 30
0.0
  0
VERTEX
  5
1406A
  8
0
 10
703.74793705702382
 20
143.23984623959859
 30
0.0
  0
VERTEX
  5
1406B
  8
0
 10
703.68146697195539
 20
143.182027801148
 30
0.0
  0
VERTEX
  5
1406C
  8
0
 10
703.62006086522126
 20
143.13313376968239
 30
0.0
  0
VERTEX
  5
1406D
  8
0
 10
703.51279489618776
 20
143.06223605751211
 30
0.0
  0
VERTEX
  5
1406E
  8
0
 10
703.42658297118373
 20
143.02707366343469
 30
0.0
  0
VERTEX
  5
1406F
  8
0
 10
703.39138692257666
 20
143.02272068512929
 30
0.0
  0
SEQEND
  5
14070
  8
0
  0
POLYLINE
  5
C609
  8
0
 66
     1
 10
0.0
 20
0.0
 30
0.0
  0
VERTEX
  5
14071
  8
0
 10
712.03514249370119
 20
155.93778419459039
 30
0.0
  0
VERTEX
  5
14072
  8
0
 10
711.86831187423979
 20
155.76881935639949
 30
0.0
  0
VERTEX
  5
14073
  8
0
 10
711.53793321434182
 20
155.42136850830749
 30
0.0
  0
VERTEX
  5
14074
  8
0
 10
711.21206540370713
 20
155.06136464921079
 30
0.0
  0
VERTEX
  5
14075
  8
0
 10
711.05087283008675
 20
154.87670998248609
 30
0.0
  0
VERTEX
  5
14076
  8
0
 10
710.89086740278867
 20
154.68898339134989
 30
0.0
  0
VERTEX
  5
14077
  8
0
 10
710.5744958940752
 20
154.3044063847417
 30
0.0
  0
VERTEX
  5
14078
  8
0
 10
710.26310520566165
 20
153.90782122856959
 30
0.0
  0
VERTEX
  5
14079
  8
0
 10
709.95684723596537
 20
153.49942137967059
 30
0.0
  0
VERTEX
  5
1407A
  8
0
 10
709.65587137963018
 20
153.07940605816651
 30
0.0
  0
VERTEX
  5
1407B
  8
0
 10
709.36032445465071
 20
152.64798015028231
 30
0.0
  0
VERTEX
  5
1407C
  8
0
 10
709.21463199983873
 20
152.42805377817851
 30
0.0
  0
VERTEX
  5
1407D
  8
0
 10
709.07035063075296
 20
152.20535410840239
 30
0.0
  0
VERTEX
  5
1407E
  8
0
 10
708.78609135906754
 20
151.7517438484094
 30
0.0
  0
VERTEX
  5
1407F
  8
0
 10
708.50768530312962
 20
151.2873706443597
 30
0.0
  0
VERTEX
  5
14080
  8
0
 10
708.23526827123692
 20
150.8124610205443
 30
0.0
  0
VERTEX
  5
14081
  8
0
 10
707.96897315020226
 20
150.3272466409887
 30
0.0
  0
VERTEX
  5
14082
  8
0
 10
707.70892984053012
 20
149.8319641964458
 30
0.0
  0
VERTEX
  5
14083
  8
0
 10
707.58129237666958
 20
149.58062276179589
 30
0.0
  0
VERTEX
  5
14084
  8
0
 10
707.45526519305031
 20
149.32685528893671
 30
0.0
  0
VERTEX
  5
14085
  8
0
 10
707.20810294703983
 20
148.8121663138952
 30
0.0
  0
VERTEX
  5
14086
  8
0
 10
706.96756366986119
 20
148.28814833997509
 30
0.0
  0
VERTEX
  5
14087
  8
0
 10
706.84981444005837
 20
148.02272068512929
 30
0.0
  0
SEQEND
  5
14088
  8
0
  0
LINE
  5
C60B
  8
0
 10
713.03514249370096
 20
152.93778419459039
 30
0.0
 11
717.56839217853621
 21
157.4710338794257
 31
0.0
  0
LINE
  5
C60C
  8
0
 10
713.56839217853621
 20
157.4710338794257
 30
0.0
 11
712.03514249370085
 21
155.93778419459039
 31
0.0
  0
POLYLINE
  5
C60E
  8
0
 66
     1
 10
0.0
 20
0.0
 30
0.0
  0
VERTEX
  5
14089
  8
0
 10
717.56839217853621
 20
157.4710338794257
 30
0.0
  0
VERTEX
  5
1408A
  8
0
 10
717.68168692605764
 20
157.58265484626281
 30
0.0
  0
VERTEX
  5
1408B
  8
0
 10
717.9157321648986
 20
157.80331152050729
 30
0.0
  0
VERTEX
  5
1408C
  8
0
 10
718.15958712896077
 20
158.02039831881049
 30
0.0
  0
VERTEX
  5
1408D
  8
0
 10
718.28514249370085
 20
158.12755750089309
 30
0.0
  0
SEQEND
  5
1408E
  8
0
  0
POLYLINE
  5
C60F
  8
0
 66
     1
 10
0.0
 20
0.0
 30
0.0
  0
VERTEX
  5
1408F
  8
0
 10
718.28514249370085
 20
158.12755750089309
 30
0.0
  0
VERTEX
  5
14090
  8
0
 10
718.56611184201711
 20
158.36556631912521
 30
0.0
  0
VERTEX
  5
14091
  8
0
 10
719.11918515791695
 20
158.84180207115969
 30
0.0
  0
VERTEX
  5
14092
  8
0
 10
719.65599092100092
 20
159.31177952592179
 30
0.0
  0
VERTEX
  5
14093
  8
0
 10
719.9166215528146
 20
159.54210169129121
 30
0.0
  0
SEQEND
  5
14094
  8
0
  0
POLYLINE
  5
C610
  8
0
 66
     1
 10
0.0
 20
0.0
 30
0.0
  0
VERTEX
  5
14095
  8
0
 10
716.32094346462054
 20
159.54210169129121
 30
0.0
  0
VERTEX
  5
14096
  8
0
 10
716.23220214077605
 20
159.49049291252931
 30
0.0
  0
VERTEX
  5
14097
  8
0
 10
716.05668134009375
 20
159.3861644372484
 30
0.0
  0
VERTEX
  5
14098
  8
0
 10
715.88380721849944
 20
159.28037316190151
 30
0.0
  0
VERTEX
  5
14099
  8
0
 10
715.79837411229437
 20
159.22693595558229
 30
0.0
  0
VERTEX
  5
1409A
  8
0
 10
715.71361634511868
 20
159.17314146516759
 30
0.0
  0
VERTEX
  5
1409B
  8
0
 10
715.5461447214725
 20
159.06449203042641
 30
0.0
  0
VERTEX
  5
1409C
  8
0
 10
715.3814277738627
 20
158.95444784096051
 30
0.0
  0
VERTEX
  5
1409D
  8
0
 10
715.2195003458778
 20
158.84303217509361
 30
0.0
  0
VERTEX
  5
1409E
  8
0
 10
715.06039669102165
 20
158.73026860126629
 30
0.0
  0
VERTEX
  5
1409F
  8
0
 10
714.90415046546821
 20
158.6161809730504
 30
0.0
  0
VERTEX
  5
140A0
  8
0
 10
714.82710924114735
 20
158.55864816951291
 30
0.0
  0
VERTEX
  5
140A1
  8
0
 10
714.75079472094194
 20
158.50079342410299
 30
0.0
  0
VERTEX
  5
140A2
  8
0
 10
714.60036189772586
 20
158.3841303630615
 30
0.0
  0
VERTEX
  5
140A3
  8
0
 10
714.45288381779926
 20
158.26621646838021
 30
0.0
  0
VERTEX
  5
140A4
  8
0
 10
714.30839167810745
 20
158.14707668310979
 30
0.0
  0
VERTEX
  5
140A5
  8
0
 10
714.16691604396033
 20
158.0267362096217
 30
0.0
  0
VERTEX
  5
140A6
  8
0
 10
714.02848684256833
 20
157.90522050427529
 30
0.0
  0
VERTEX
  5
140A7
  8
0
 10
713.96042383036752
 20
157.8440299628939
 30
0.0
  0
VERTEX
  5
140A8
  8
0
 10
713.8931333567109
 20
157.78255527203481
 30
0.0
  0
VERTEX
  5
140A9
  8
0
 10
713.76088421854342
 20
157.65876646103081
 30
0.0
  0
VERTEX
  5
140AA
  8
0
 10
713.63176740353833
 20
157.5338802570711
 30
0.0
  0
VERTEX
  5
140AB
  8
0
 10
713.56839217853644
 20
157.4710338794257
 30
0.0
  0
SEQEND
  5
140AC
  8
0
  0
LINE
  5
C611
  8
0
 10
717.28514249370085
 20
160.09878226028329
 30
0.0
 11
716.32094346462054
 21
159.54210169129121
 31
0.0
  0
POLYLINE
  5
C613
  8
0
 66
     1
 10
0.0
 20
0.0
 30
0.0
  0
VERTEX
  5
140AD
  8
0
 10
719.9166215528146
 20
159.54210169129121
 30
0.0
  0
VERTEX
  5
140AE
  8
0
 10
720.05277201452986
 20
159.6649755293588
 30
0.0
  0
VERTEX
  5
140AF
  8
0
 10
720.31819904746544
 20
159.91810966441349
 30
0.0
  0
VERTEX
  5
140B0
  8
0
 10
720.57416462193805
 20
160.18080725638509
 30
0.0
  0
VERTEX
  5
140B1
  8
0
 10
720.69849124401537
 20
160.31563239999559
 30
0.0
  0
VERTEX
  5
140B2
  8
0
 10
720.82032439155535
 20
160.45271490240631
 30
0.0
  0
VERTEX
  5
140B3
  8
0
 10
721.05634720151807
 20
160.7334668094706
 30
0.0
  0
VERTEX
  5
140B4
  8
0
 10
721.28191553411511
 20
161.02268528652939
 30
0.0
  0
VERTEX
  5
140B5
  8
0
 10
721.49672593587786
 20
161.3199812525925
 30
0.0
  0
VERTEX
  5
140B6
  8
0
 10
721.70048942580968
 20
161.624954760153
 30
0.0
  0
VERTEX
  5
140B7
  8
0
 10
721.89293188414706
 20
161.9371955332301
 30
0.0
  0
VERTEX
  5
140B8
  8
0
 10
721.98482621883068
 20
162.09591024445709
 30
0.0
  0
VERTEX
  5
140B9
  8
0
 10
722.07379442112995
 20
162.25628351930769
 30
0.0
  0
VERTEX
  5
140BA
  8
0
 10
722.24283372528078
 20
162.5817894544227
 30
0.0
  0
VERTEX
  5
140BB
  8
0
 10
722.39982239072788
 20
162.9132754406485
 30
0.0
  0
VERTEX
  5
140BC
  8
0
 10
722.54454922313153
 20
163.25029553519059
 30
0.0
  0
VERTEX
  5
140BD
  8
0
 10
722.67681952379905
 20
163.59239635030821
 30
0.0
  0
VERTEX
  5
140BE
  8
0
 10
722.79645535161171
 20
163.9391176632478
 30
0.0
  0
VERTEX
  5
140BF
  8
0
 10
722.85148437312432
 20
164.11406547003071
 30
0.0
  0
VERTEX
  5
140C0
  8
0
 10
722.90329576240401
 20
164.28999303537401
 30
0.0
  0
VERTEX
  5
140C1
  8
0
 10
722.99719702548055
 20
164.644550439662
 30
0.0
  0
VERTEX
  5
140C2
  8
0
 10
723.07803281697443
 20
165.0023128957084
 30
0.0
  0
VERTEX
  5
140C3
  8
0
 10
723.11351648665482
 20
165.1822457651146
 30
0.0
  0
SEQEND
  5
140C4
  8
0
  0
POLYLINE
  5
C614
  8
0
 66
     1
 10
0.0
 20
0.0
 30
0.0
  0
VERTEX
  5
140C5
  8
0
 10
721.06954583277377
 20
165.1822457651146
 30
0.0
  0
VERTEX
  5
140C6
  8
0
 10
721.02581924120625
 20
165.00660842411
 30
0.0
  0
VERTEX
  5
140C7
  8
0
 10
720.92650351454063
 20
164.6585257063962
 30
0.0
  0
VERTEX
  5
140C8
  8
0
 10
720.81154386921219
 20
164.31529186208559
 30
0.0
  0
VERTEX
  5
140C9
  8
0
 10
720.74826988661255
 20
164.14571328592911
 30
0.0
  0
VERTEX
  5
140CA
  8
0
 10
720.68117565849661
 20
163.97760958305841
 30
0.0
  0
VERTEX
  5
140CB
  8
0
 10
720.53566578114078
 20
163.64617019564929
 30
0.0
  0
VERTEX
  5
140CC
  8
0
 10
720.3753121349514
 20
163.32165224531721
 30
0.0
  0
VERTEX
  5
140CD
  8
0
 10
720.20044300691654
 20
163.00472010747899
 30
0.0
  0
VERTEX
  5
140CE
  8
0
 10
720.01141640111575
 20
162.69602262735719
 30
0.0
  0
VERTEX
  5
140CF
  8
0
 10
719.80861930578806
 20
162.3961917916167
 30
0.0
  0
VERTEX
  5
140D0
  8
0
 10
719.70218548995149
 20
162.24979393230251
 30
0.0
  0
VERTEX
  5
140D1
  8
0
 10
719.59246690106386
 20
162.10584143451999
 30
0.0
  0
VERTEX
  5
140D2
  8
0
 10
719.36340170897915
 20
161.82556598124339
 30
0.0
  0
VERTEX
  5
140D3
  8
0
 10
719.12189268751456
 20
161.55593923092829
 30
0.0
  0
VERTEX
  5
140D4
  8
0
 10
718.86843427051247
 20
161.29751318196099
 30
0.0
  0
VERTEX
  5
140D5
  8
0
 10
718.60354535543729
 20
161.0508169018828
 30
0.0
  0
VERTEX
  5
140D6
  8
0
 10
718.32776824105315
 20
160.81635544424779
 30
0.0
  0
VERTEX
  5
140D7
  8
0
 10
718.18597220400284
 20
160.7038637812586
 30
0.0
  0
VERTEX
  5
140D8
  8
0
 10
718.04166751719458
 20
160.59460881464179
 30
0.0
  0
VERTEX
  5
140D9
  8
0
 10
717.74582890889576
 20
160.38603098798191
 30
0.0
  0
VERTEX
  5
140DA
  8
0
 10
717.44085807725799
 20
160.1910489791085
 30
0.0
  0
VERTEX
  5
140DB
  8
0
 10
717.28514249370085
 20
160.09878226028329
 30
0.0
  0
SEQEND
  5
140DC
  8
0
  0
POLYLINE
  5
C615
  8
0
 66
     1
 10
0.0
 20
0.0
 30
0.0
  0
VERTEX
  5
140DD
  8
0
 10
721.28514249370085
 20
167.7246961325877
 30
0.0
  0
VERTEX
  5
140DE
  8
0
 10
721.28503669572876
 20
167.64459016498259
 30
0.0
  0
VERTEX
  5
140DF
  8
0
 10
721.28415851901696
 20
167.4857188602
 30
0.0
  0
VERTEX
  5
140E0
  8
0
 10
721.28232082403042
 20
167.3287099161584
 30
0.0
  0
VERTEX
  5
140E1
  8
0
 10
721.28101563860719
 20
167.25093142660779
 30
0.0
  0
VERTEX
  5
140E2
  8
0
 10
721.27943878915653
 20
167.173651355506
 30
0.0
  0
VERTEX
  5
140E3
  8
0
 10
721.27542800459514
 20
167.0206287714106
 30
0.0
  0
VERTEX
  5
140E4
  8
0
 10
721.27020481580053
 20
166.8697245153291
 30
0.0
  0
VERTEX
  5
140E5
  8
0
 10
721.26368655110332
 20
166.72101527186689
 30
0.0
  0
VERTEX
  5
140E6
  8
0
 10
721.25579200370237
 20
166.57457649838989
 30
0.0
  0
VERTEX
  5
140E7
  8
0
 10
721.24644187644606
 20
166.43048248118629
 30
0.0
  0
VERTEX
  5
140E8
  8
0
 10
721.24119681348509
 20
166.35933746035079
 30
0.0
  0
VERTEX
  5
140E9
  8
0
 10
721.23555919349042
 20
166.2888055882417
 30
0.0
  0
VERTEX
  5
140EA
  8
0
 10
721.22306970851059
 20
166.1496157496926
 30
0.0
  0
VERTEX
  5
140EB
  8
0
 10
721.20890229610131
 20
166.01297994202901
 30
0.0
  0
VERTEX
  5
140EC
  8
0
 10
721.19298931883895
 20
165.87896167526529
 30
0.0
  0
VERTEX
  5
140ED
  8
0
 10
721.17526696148775
 20
165.7476204828547
 30
0.0
  0
VERTEX
  5
140EE
  8
0
 10
721.15567552274774
 20
165.61901141478819
 30
0.0
  0
VERTEX
  5
140EF
  8
0
 10
721.14516142609705
 20
165.5557472807775
 30
0.0
  0
VERTEX
  5
140F0
  8
0
 10
721.13415783817504
 20
165.49317449284311
 30
0.0
  0
VERTEX
  5
140F1
  8
0
 10
721.11033311941628
 20
165.36852088599969
 30
0.0
  0
VERTEX
  5
140F2
  8
0
 10
721.08383894447093
 20
165.24417416722781
 30
0.0
  0
VERTEX
  5
140F3
  8
0
 10
721.06954583277377
 20
165.1822457651146
 30
0.0
  0
SEQEND
  5
140F4
  8
0
  0
POLYLINE
  5
C617
  8
0
 66
     1
 10
0.0
 20
0.0
 30
0.0
  0
VERTEX
  5
140F5
  8
0
 10
723.11351648665482
 20
165.1822457651146
 30
0.0
  0
VERTEX
  5
140F6
  8
0
 10
723.12450396336203
 20
165.24228345917211
 30
0.0
  0
VERTEX
  5
140F7
  8
0
 10
723.1451908941084
 20
165.36439427045019
 30
0.0
  0
VERTEX
  5
140F8
  8
0
 10
723.16419607724674
 20
165.48918520596769
 30
0.0
  0
VERTEX
  5
140F9
  8
0
 10
723.17308218837275
 20
165.5525720176536
 30
0.0
  0
VERTEX
  5
140FA
  8
0
 10
723.18156529663133
 20
165.61661189621921
 30
0.0
  0
VERTEX
  5
140FB
  8
0
 10
723.19734767644559
 20
165.74662591788481
 30
0.0
  0
VERTEX
  5
140FC
  8
0
 10
723.21159548980825
 20
165.8791751786982
 30
0.0
  0
VERTEX
  5
140FD
  8
0
 10
723.22436393388853
 20
166.01420431277819
 30
0.0
  0
VERTEX
  5
140FE
  8
0
 10
723.23571087789514
 20
166.15165508524129
 30
0.0
  0
VERTEX
  5
140FF
  8
0
 10
723.24569658977146
 20
166.29146680533671
 30
0.0
  0
VERTEX
  5
14100
  8
0
 10
723.25019840235097
 20
166.3622384868693
 30
0.0
  0
VERTEX
  5
14101
  8
0
 10
723.25438344689223
 20
166.43357674772321
 30
0.0
  0
VERTEX
  5
14102
  8
0
 10
723.26183563554991
 20
166.5779205818169
 30
0.0
  0
VERTEX
  5
14103
  8
0
 10
723.26811889371561
 20
166.72443410325209
 30
0.0
  0
VERTEX
  5
14104
  8
0
 10
723.27330005923704
 20
166.8730507291468
 30
0.0
  0
VERTEX
  5
14105
  8
0
 10
723.27744674348025
 20
167.02369850072839
 30
0.0
  0
VERTEX
  5
14106
  8
0
 10
723.28062722445998
 20
167.17630277129379
 30
0.0
  0
VERTEX
  5
14107
  8
0
 10
723.28187659615207
 20
167.25331461462861
 30
0.0
  0
VERTEX
  5
14108
  8
0
 10
723.28291019517633
 20
167.3307865424074
 30
0.0
  0
VERTEX
  5
14109
  8
0
 10
723.28436450352478
 20
167.4870707918933
 30
0.0
  0
VERTEX
  5
1410A
  8
0
 10
723.28505888779569
 20
167.64507480952099
 30
0.0
  0
VERTEX
  5
1410B
  8
0
 10
723.28514249370096
 20
167.7246961325877
 30
0.0
  0
SEQEND
  5
1410C
  8
0
  0
LINE
  5
C61B
  8
0
 10
723.28514249370096
 20
167.7246961325877
 30
0.0
 11
723.28514249370096
 21
273.52272068512929
 31
0.0
  0
POLYLINE
  5
C624
  8
0
 66
     1
 10
0.0
 20
0.0
 30
0.0
  0
VERTEX
  5
1410D
  8
0
 10
709.46289148241203
 20
148.02272068512929
 30
0.0
  0
VERTEX
  5
1410E
  8
0
 10
709.55013541062226
 20
148.18302270425829
 30
0.0
  0
VERTEX
  5
1410F
  8
0
 10
709.72688684792274
 20
148.49987993690041
 30
0.0
  0
VERTEX
  5
14110
  8
0
 10
709.90661663774506
 20
148.81167045245911
 30
0.0
  0
VERTEX
  5
14111
  8
0
 10
709.99758331859653
 20
148.9656393950749
 30
0.0
  0
VERTEX
  5
14112
  8
0
 10
710.08927637293641
 20
149.1183102754776
 30
0.0
  0
VERTEX
  5
14113
  8
0
 10
710.2748168572125
 20
149.41971681775021
 30
0.0
  0
VERTEX
  5
14114
  8
0
 10
710.46318811840933
 20
149.71580890056649
 30
0.0
  0
VERTEX
  5
14115
  8
0
 10
710.6543394219409
 20
150.00650677657489
 30
0.0
  0
VERTEX
  5
14116
  8
0
 10
710.84821928446422
 20
150.2917321512611
 30
0.0
  0
VERTEX
  5
14117
  8
0
 10
711.04477548774571
 20
150.571408204036
 30
0.0
  0
VERTEX
  5
14118
  8
0
 10
711.14404070148305
 20
150.7091416363989
 30
0.0
  0
VERTEX
  5
14119
  8
0
 10
711.24395509272495
 20
150.84545960892569
 30
0.0
  0
VERTEX
  5
1411A
  8
0
 10
711.44570445377303
 20
151.11381255485909
 30
0.0
  0
VERTEX
  5
1411B
  8
0
 10
711.64996923314118
 20
151.3763947655479
 30
0.0
  0
VERTEX
  5
1411C
  8
0
 10
711.85669441559514
 20
151.63313551895311
 30
0.0
  0
VERTEX
  5
1411D
  8
0
 10
712.06582432323387
 20
151.88396566633219
 30
0.0
  0
VERTEX
  5
1411E
  8
0
 10
712.2773026304842
 20
152.12881765086351
 30
0.0
  0
VERTEX
  5
1411F
  8
0
 10
712.38390465885391
 20
152.24898116033219
 30
0.0
  0
VERTEX
  5
14120
  8
0
 10
712.49107237927115
 20
152.36762552584219
 30
0.0
  0
VERTEX
  5
14121
  8
0
 10
712.70707599435957
 20
152.6003249724406
 30
0.0
  0
VERTEX
  5
14122
  8
0
 10
712.92525529886052
 20
152.8268533170324
 30
0.0
  0
VERTEX
  5
14123
  8
0
 10
713.03514249370096
 20
152.93778419459039
 30
0.0
  0
SEQEND
  5
14124
  8
0
  0
POLYLINE
  5
C625
  8
0
 66
     1
 10
0.0
 20
0.0
 30
0.0
  0
VERTEX
  5
14125
  8
0
 10
705.40519669184528
 20
143.02272068512929
 30
0.0
  0
VERTEX
  5
14126
  8
0
 10
705.41153900598795
 20
143.02284569353259
 30
0.0
  0
VERTEX
  5
14127
  8
0
 10
705.42473297149797
 20
143.0238472821359
 30
0.0
  0
VERTEX
  5
14128
  8
0
 10
705.43860749080682
 20
143.0258541274288
 30
0.0
  0
VERTEX
  5
14129
  8
0
 10
705.44580040270944
 20
143.0272356066659
 30
0.0
  0
VERTEX
  5
1412A
  8
0
 10
705.45316393590917
 20
143.028869648549
 30
0.0
  0
VERTEX
  5
1412B
  8
0
 10
705.4684032731252
 20
143.0328968316812
 30
0.0
  0
VERTEX
  5
1412C
  8
0
 10
705.48432606179938
 20
143.0379382256576
 30
0.0
  0
VERTEX
  5
1412D
  8
0
 10
705.50093245428502
 20
143.04399593939769
 30
0.0
  0
VERTEX
  5
1412E
  8
0
 10
705.51822219719133
 20
143.0510716411527
 30
0.0
  0
VERTEX
  5
1412F
  8
0
 10
705.5361946338727
 20
143.05916655951319
 30
0.0
  0
VERTEX
  5
14130
  8
0
 10
705.54543654780025
 20
143.06359648927219
 30
0.0
  0
VERTEX
  5
14131
  8
0
 10
705.55484870813609
 20
143.06828148613789
 30
0.0
  0
VERTEX
  5
14132
  8
0
 10
705.57418296913727
 20
143.07841678016459
 30
0.0
  0
VERTEX
  5
14133
  8
0
 10
705.5941955774407
 20
143.08957237425619
 30
0.0
  0
VERTEX
  5
14134
  8
0
 10
705.61488431220823
 20
143.1017477822397
 30
0.0
  0
VERTEX
  5
14135
  8
0
 10
705.63624657948515
 20
143.11494210829349
 30
0.0
  0
VERTEX
  5
14136
  8
0
 10
705.65827942154851
 20
143.129154057634
 30
0.0
  0
VERTEX
  5
14137
  8
0
 10
705.6695462869011
 20
143.1366411302856
 30
0.0
  0
VERTEX
  5
14138
  8
0
 10
705.68097952727976
 20
143.14438194866099
 30
0.0
  0
VERTEX
  5
14139
  8
0
 10
705.70434324352379
 20
143.1606237265093
 30
0.0
  0
VERTEX
  5
1413A
  8
0
 10
705.7283665873947
 20
143.17787697796371
 30
0.0
  0
VERTEX
  5
1413B
  8
0
 10
705.74062428811021
 20
143.1868820581451
 30
0.0
  0
VERTEX
  5
1413C
  8
0
 10
705.81757809429826
 20
143.2461860520454
 30
0.0
  0
VERTEX
  5
1413D
  8
0
 10
705.98853874302665
 20
143.39157175909099
 30
0.0
  0
VERTEX
  5
1413E
  8
0
 10
706.18099404697023
 20
143.57169126706501
 30
0.0
  0
VERTEX
  5
1413F
  8
0
 10
706.39307606728971
 20
143.7850027836416
 30
0.0
  0
VERTEX
  5
14140
  8
0
 10
706.62262597953054
 20
144.0296776574489
 30
0.0
  0
VERTEX
  5
14141
  8
0
 10
706.86731210723258
 20
144.30374873926689
 30
0.0
  0
VERTEX
  5
14142
  8
0
 10
706.99447416065459
 20
144.45106546739569
 30
0.0
  0
VERTEX
  5
14143
  8
0
 10
707.12435488778794
 20
144.60480110657161
 30
0.0
  0
VERTEX
  5
14144
  8
0
 10
707.3907096201915
 20
144.93013070495661
 30
0.0
  0
VERTEX
  5
14145
  8
0
 10
707.66314080037228
 20
145.27679713593031
 30
0.0
  0
VERTEX
  5
14146
  8
0
 10
707.93823093830542
 20
145.6415829416116
 30
0.0
  0
VERTEX
  5
14147
  8
0
 10
708.21243763477707
 20
146.02099007802261
 30
0.0
  0
VERTEX
  5
14148
  8
0
 10
708.48824118344305
 20
146.4202378137517
 30
0.0
  0
VERTEX
  5
14149
  8
0
 10
708.62810143091292
 20
146.63022828966561
 30
0.0
  0
VERTEX
  5
1414A
  8
0
 10
708.76862773722564
 20
146.84687791079361
 30
0.0
  0
VERTEX
  5
1414B
  8
0
 10
709.04963237116147
 20
147.2993359746738
 30
0.0
  0
VERTEX
  5
1414C
  8
0
 10
709.32698796698742
 20
147.7759241524802
 30
0.0
  0
VERTEX
  5
1414D
  8
0
 10
709.46289148241203
 20
148.02272068512929
 30
0.0
  0
SEQEND
  5
1414E
  8
0
  0
LINE
  5
C627
  8
0
 10
703.28514249370085
 20
146.757638172621
 30
0.0
 11
703.28514249370085
 21
143.02272068512929
 31
0.0
  0
LINE
  5
C62A
  8
0
 10
629.28514249370085
 20
271.52272068512929
 30
0.0
 11
629.28514249370085
 21
162.28780319763769
 31
0.0
  0
POLYLINE
  5
C62C
  8
0
 66
     1
 10
0.0
 20
0.0
 30
0.0
  0
VERTEX
  5
1414F
  8
0
 10
625.72047054734344
 20
148.02272068512929
 30
0.0
  0
VERTEX
  5
14150
  8
0
 10
625.60272131754095
 20
148.28814833997509
 30
0.0
  0
VERTEX
  5
14151
  8
0
 10
625.36218204036231
 20
148.8121663138952
 30
0.0
  0
VERTEX
  5
14152
  8
0
 10
625.11501979435184
 20
149.32685528893671
 30
0.0
  0
VERTEX
  5
14153
  8
0
 10
624.98899261073245
 20
149.58062276179589
 30
0.0
  0
VERTEX
  5
14154
  8
0
 10
624.86135514687203
 20
149.8319641964458
 30
0.0
  0
VERTEX
  5
14155
  8
0
 10
624.60131183719977
 20
150.3272466409887
 30
0.0
  0
VERTEX
  5
14156
  8
0
 10
624.33501671616523
 20
150.8124610205443
 30
0.0
  0
VERTEX
  5
14157
  8
0
 10
624.06259968427253
 20
151.2873706443597
 30
0.0
  0
VERTEX
  5
14158
  8
0
 10
623.78419362833461
 20
151.7517438484094
 30
0.0
  0
VERTEX
  5
14159
  8
0
 10
623.49993435664908
 20
152.20535410840239
 30
0.0
  0
VERTEX
  5
1415A
  8
0
 10
623.35565298756342
 20
152.42805377817851
 30
0.0
  0
VERTEX
  5
1415B
  8
0
 10
623.20996053275144
 20
152.64798015028231
 30
0.0
  0
VERTEX
  5
1415C
  8
0
 10
622.91441360777185
 20
153.07940605816651
 30
0.0
  0
VERTEX
  5
1415D
  8
0
 10
622.61343775143678
 20
153.49942137967059
 30
0.0
  0
VERTEX
  5
1415E
  8
0
 10
622.30717978174039
 20
153.90782122856959
 30
0.0
  0
VERTEX
  5
1415F
  8
0
 10
621.99578909332695
 20
154.3044063847417
 30
0.0
  0
VERTEX
  5
14160
  8
0
 10
621.67941758461347
 20
154.68898339134989
 30
0.0
  0
VERTEX
  5
14161
  8
0
 10
621.5194121573154
 20
154.87670998248609
 30
0.0
  0
VERTEX
  5
14162
  8
0
 10
621.3582195836949
 20
155.06136464921079
 30
0.0
  0
VERTEX
  5
14163
  8
0
 10
621.03235177306033
 20
155.42136850830749
 30
0.0
  0
VERTEX
  5
14164
  8
0
 10
620.70197311316224
 20
155.76881935639949
 30
0.0
  0
VERTEX
  5
14165
  8
0
 10
620.53514249370085
 20
155.93778419459039
 30
0.0
  0
SEQEND
  5
14166
  8
0
  0
POLYLINE
  5
C62D
  8
0
 66
     1
 10
0.0
 20
0.0
 30
0.0
  0
VERTEX
  5
14167
  8
0
 10
629.17889806482549
 20
143.02272068512929
 30
0.0
  0
VERTEX
  5
14168
  8
0
 10
629.14370201621841
 20
143.02707366343469
 30
0.0
  0
VERTEX
  5
14169
  8
0
 10
629.05749009121416
 20
143.06223605751211
 30
0.0
  0
VERTEX
  5
1416A
  8
0
 10
628.95022412218066
 20
143.13313376968239
 30
0.0
  0
VERTEX
  5
1416B
  8
0
 10
628.88881801544665
 20
143.182027801148
 30
0.0
  0
VERTEX
  5
1416C
  8
0
 10
628.82234793037833
 20
143.23984623959859
 30
0.0
  0
VERTEX
  5
1416D
  8
0
 10
628.6747156794911
 20
143.38197318819789
 30
0.0
  0
VERTEX
  5
1416E
  8
0
 10
628.50858995444207
 20
143.55866096206381
 30
0.0
  0
VERTEX
  5
1416F
  8
0
 10
628.32563301464415
 20
143.76861328840661
 30
0.0
  0
VERTEX
  5
14170
  8
0
 10
628.12778375702942
 20
144.01022989913639
 30
0.0
  0
VERTEX
  5
14171
  8
0
 10
627.91715367072879
 20
144.28174790559589
 30
0.0
  0
VERTEX
  5
14172
  8
0
 10
627.80781959193416
 20
144.42803721221861
 30
0.0
  0
VERTEX
  5
14173
  8
0
 10
627.69625159931252
 20
144.5809403730097
 30
0.0
  0
VERTEX
  5
14174
  8
0
 10
627.46782011032064
 20
144.90526630610839
 30
0.0
  0
VERTEX
  5
14175
  8
0
 10
627.23476154807975
 20
145.25192055058179
 30
0.0
  0
VERTEX
  5
14176
  8
0
 10
627.00012069905983
 20
145.61778859431661
 30
0.0
  0
VERTEX
  5
14177
  8
0
 10
626.76702440454926
 20
145.99943947083989
 30
0.0
  0
VERTEX
  5
14178
  8
0
 10
626.53363292842869
 20
146.40193186395501
 30
0.0
  0
VERTEX
  5
14179
  8
0
 10
626.41575954676296
 20
146.61390607411539
 30
0.0
  0
VERTEX
  5
1417A
  8
0
 10
626.29767982727128
 20
146.83277524199681
 30
0.0
  0
VERTEX
  5
1417B
  8
0
 10
626.06273152063523
 20
147.29033380481431
 30
0.0
  0
VERTEX
  5
1417C
  8
0
 10
625.83255444666077
 20
147.77277932447211
 30
0.0
  0
VERTEX
  5
1417D
  8
0
 10
625.72047054734344
 20
148.02272068512929
 30
0.0
  0
SEQEND
  5
1417E
  8
0
  0
LINE
  5
C62E
  8
0
 10
629.28514249370085
 20
146.757638172621
 30
0.0
 11
629.28514249370085
 21
143.02272068512929
 31
0.0
  0
POLYLINE
  5
C632
  8
0
 66
     1
 10
0.0
 20
0.0
 30
0.0
  0
VERTEX
  5
1417F
  8
0
 10
703.28514249370085
 20
146.757638172621
 30
0.0
  0
VERTEX
  5
14180
  8
0
 10
703.28526091889444
 20
146.81032627601371
 30
0.0
  0
VERTEX
  5
14181
  8
0
 10
703.28619093652765
 20
146.91707980476889
 30
0.0
  0
VERTEX
  5
14182
  8
0
 10
703.2880060542866
 20
147.0255990444202
 30
0.0
  0
VERTEX
  5
14183
  8
0
 10
703.28923065134825
 20
147.08049329874461
 30
0.0
  0
VERTEX
  5
14184
  8
0
 10
703.29065857699084
 20
147.13579543194919
 30
0.0
  0
VERTEX
  5
14185
  8
0
 10
703.29410007402805
 20
147.24757614966501
 30
0.0
  0
VERTEX
  5
14186
  8
0
 10
703.29828152590221
 20
147.36084434799631
 30
0.0
  0
VERTEX
  5
14187
  8
0
 10
703.30315348301349
 20
147.47549937302961
 30
0.0
  0
VERTEX
  5
14188
  8
0
 10
703.30866623407314
 20
147.59143700897539
 30
0.0
  0
VERTEX
  5
14189
  8
0
 10
703.31476998169717
 20
147.70854973581021
 30
0.0
  0
VERTEX
  5
1418A
  8
0
 10
703.3180279383572
 20
147.7675123217943
 30
0.0
  0
VERTEX
  5
1418B
  8
0
 10
703.32141502293905
 20
147.8267270029155
 30
0.0
  0
VERTEX
  5
1418C
  8
0
 10
703.32855193269893
 20
147.94585552010491
 30
0.0
  0
VERTEX
  5
1418D
  8
0
 10
703.33613316454728
 20
148.0658414628524
 30
0.0
  0
VERTEX
  5
1418E
  8
0
 10
703.34418447962094
 20
148.18766319817269
 30
0.0
  0
VERTEX
  5
1418F
  8
0
 10
703.35271277740856
 20
148.31186582165631
 30
0.0
  0
VERTEX
  5
14190
  8
0
 10
703.36168674565602
 20
148.4384006166012
 30
0.0
  0
VERTEX
  5
14191
  8
0
 10
703.36633060949134
 20
148.50252646851229
 30
0.0
  0
VERTEX
  5
14192
  8
0
 10
703.37107340094281
 20
148.5672156518267
 30
0.0
  0
VERTEX
  5
14193
  8
0
 10
703.38083826139825
 20
148.69825603746489
 30
0.0
  0
VERTEX
  5
14194
  8
0
 10
703.39094552627421
 20
148.8314641905522
 30
0.0
  0
VERTEX
  5
14195
  8
0
 10
703.39611605740379
 20
148.89886251669799
 30
0.0
  0
VERTEX
  5
14196
  8
0
 10
703.40135826075425
 20
148.96678011188959
 30
0.0
  0
VERTEX
  5
14197
  8
0
 10
703.41203858443623
 20
149.10414167567569
 30
0.0
  0
VERTEX
  5
14198
  8
0
 10
703.42294786194384
 20
149.24348493341611
 30
0.0
  0
VERTEX
  5
14199
  8
0
 10
703.42847612546325
 20
149.31387929355151
 30
0.0
  0
VERTEX
  5
1419A
  8
0
 10
703.43404689416661
 20
149.3847444336279
 30
0.0
  0
VERTEX
  5
1419B
  8
0
 10
703.44529610797497
 20
149.5278535505204
 30
0.0
  0
VERTEX
  5
1419C
  8
0
 10
703.45665570187475
 20
149.67274429809251
 30
0.0
  0
VERTEX
  5
1419D
  8
0
 10
703.46808570975145
 20
149.8193461361511
 30
0.0
  0
VERTEX
  5
1419E
  8
0
 10
703.47954614279126
 20
149.96758576682009
 30
0.0
  0
VERTEX
  5
1419F
  8
0
 10
703.49099716716557
 20
150.117387382407
 30
0.0
  0
VERTEX
  5
141A0
  8
0
 10
703.49670678912753
 20
150.19284962246979
 30
0.0
  0
VERTEX
  5
141A1
  8
0
 10
703.50239928153405
 20
150.2686729267275
 30
0.0
  0
VERTEX
  5
141A2
  8
0
 10
703.51371349255874
 20
150.42136236671899
 30
0.0
  0
VERTEX
  5
141A3
  8
0
 10
703.52490148702316
 20
150.57537397604051
 30
0.0
  0
VERTEX
  5
141A4
  8
0
 10
703.53592579917006
 20
150.7306246324072
 30
0.0
  0
VERTEX
  5
141A5
  8
0
 10
703.54674997188965
 20
150.88703013044139
 30
0.0
  0
VERTEX
  5
141A6
  8
0
 10
703.55733871040297
 20
151.0445055118239
 30
0.0
  0
VERTEX
  5
141A7
  8
0
 10
703.5625342562796
 20
151.12361989454439
 30
0.0
  0
VERTEX
  5
141A8
  8
0
 10
703.56765889801659
 20
151.202979019228
 30
0.0
  0
VERTEX
  5
141A9
  8
0
 10
703.57767940538429
 20
151.36238976268189
 30
0.0
  0
VERTEX
  5
141AA
  8
0
 10
703.58736879849425
 20
151.52264989903369
 30
0.0
  0
VERTEX
  5
141AB
  8
0
 10
703.59669711643073
 20
151.6836687642712
 30
0.0
  0
VERTEX
  5
141AC
  8
0
 10
703.60563604588424
 20
151.84535374195951
 30
0.0
  0
VERTEX
  5
141AD
  8
0
 10
703.61415904867545
 20
152.0076105730848
 30
0.0
  0
VERTEX
  5
141AE
  8
0
 10
703.6182567987712
 20
152.0889236073881
 30
0.0
  0
VERTEX
  5
141AF
  8
0
 10
703.62224147858933
 20
152.1703436772234
 30
0.0
  0
VERTEX
  5
141B0
  8
0
 10
703.62986068623968
 20
152.33345648623359
 30
0.0
  0
VERTEX
  5
141B1
  8
0
 10
703.63699611077323
 20
152.49685179172749
 30
0.0
  0
VERTEX
  5
141B2
  8
0
 10
703.64362935731788
 20
152.6604321076334
 30
0.0
  0
VERTEX
  5
141B3
  8
0
 10
703.64974425917546
 20
152.82410004918799
 30
0.0
  0
VERTEX
  5
141B4
  8
0
 10
703.65532691683507
 20
152.98775851293681
 30
0.0
  0
VERTEX
  5
141B5
  8
0
 10
703.65791492602898
 20
153.06955360890791
 30
0.0
  0
VERTEX
  5
141B6
  8
0
 10
703.66036568113191
 20
153.15130939134241
 30
0.0
  0
VERTEX
  5
141B7
  8
0
 10
703.66485116281024
 20
153.3146526747673
 30
0.0
  0
VERTEX
  5
141B8
  8
0
 10
703.66877627842814
 20
153.4776867501225
 30
0.0
  0
VERTEX
  5
141B9
  8
0
 10
703.67213628302193
 20
153.64030877813931
 30
0.0
  0
VERTEX
  5
141BA
  8
0
 10
703.67492878590929
 20
153.80241507070809
 30
0.0
  0
VERTEX
  5
141BB
  8
0
 10
703.67715374927707
 20
153.9639014685547
 30
0.0
  0
VERTEX
  5
141BC
  8
0
 10
703.67805403091666
 20
154.04437962147489
 30
0.0
  0
VERTEX
  5
141BD
  8
0
 10
703.67881346937861
 20
154.1246637197732
 30
0.0
  0
VERTEX
  5
141BE
  8
0
 10
703.67991254035724
 20
154.2845978600028
 30
0.0
  0
VERTEX
  5
141BF
  8
0
 10
703.68045780087505
 20
154.44360059528799
 30
0.0
  0
VERTEX
  5
141C0
  8
0
 10
703.68052548608352
 20
154.52272068512929
 30
0.0
  0
VERTEX
  5
141C1
  8
0
 10
703.68045780087505
 20
154.6018407749705
 30
0.0
  0
VERTEX
  5
141C2
  8
0
 10
703.67991254035724
 20
154.7608435102558
 30
0.0
  0
VERTEX
  5
141C3
  8
0
 10
703.67881346937861
 20
154.92077765048541
 30
0.0
  0
VERTEX
  5
141C4
  8
0
 10
703.67805403091666
 20
155.00106174878371
 30
0.0
  0
VERTEX
  5
141C5
  8
0
 10
703.67715374927707
 20
155.08153990170399
 30
0.0
  0
VERTEX
  5
141C6
  8
0
 10
703.67492878590929
 20
155.24302629955031
 30
0.0
  0
VERTEX
  5
141C7
  8
0
 10
703.67213628302193
 20
155.40513259211929
 30
0.0
  0
VERTEX
  5
141C8
  8
0
 10
703.66877627842814
 20
155.5677546201359
 30
0.0
  0
VERTEX
  5
141C9
  8
0
 10
703.66485116281024
 20
155.7307886954913
 30
0.0
  0
VERTEX
  5
141CA
  8
0
 10
703.66036568113191
 20
155.89413197891619
 30
0.0
  0
VERTEX
  5
141CB
  8
0
 10
703.65791492602898
 20
155.97588776135061
 30
0.0
  0
VERTEX
  5
141CC
  8
0
 10
703.65532691683507
 20
156.05768285732191
 30
0.0
  0
VERTEX
  5
141CD
  8
0
 10
703.64974425917546
 20
156.22134132107061
 30
0.0
  0
VERTEX
  5
141CE
  8
0
 10
703.64362935731788
 20
156.38500926262529
 30
0.0
  0
VERTEX
  5
141CF
  8
0
 10
703.63699611077323
 20
156.54858957853111
 30
0.0
  0
VERTEX
  5
141D0
  8
0
 10
703.62986068623968
 20
156.71198488402499
 30
0.0
  0
VERTEX
  5
141D1
  8
0
 10
703.62224147858933
 20
156.87509769303529
 30
0.0
  0
VERTEX
  5
141D2
  8
0
 10
703.6182567987712
 20
156.95651776287059
 30
0.0
  0
VERTEX
  5
141D3
  8
0
 10
703.61415904867545
 20
157.03783079717391
 30
0.0
  0
VERTEX
  5
141D4
  8
0
 10
703.60563604588424
 20
157.20008762829889
 30
0.0
  0
VERTEX
  5
141D5
  8
0
 10
703.59669711643073
 20
157.3617726059874
 30
0.0
  0
VERTEX
  5
141D6
  8
0
 10
703.58736879849425
 20
157.52279147122499
 30
0.0
  0
VERTEX
  5
141D7
  8
0
 10
703.57767940538429
 20
157.68305160757649
 30
0.0
  0
VERTEX
  5
141D8
  8
0
 10
703.56765889801659
 20
157.84246235103069
 30
0.0
  0
VERTEX
  5
141D9
  8
0
 10
703.5625342562796
 20
157.92182147571401
 30
0.0
  0
VERTEX
  5
141DA
  8
0
 10
703.55733871040297
 20
158.00093585843479
 30
0.0
  0
VERTEX
  5
141DB
  8
0
 10
703.54674997188965
 20
158.15841123981721
 30
0.0
  0
VERTEX
  5
141DC
  8
0
 10
703.53592579917006
 20
158.31481673785129
 30
0.0
  0
VERTEX
  5
141DD
  8
0
 10
703.52490148702316
 20
158.4700673942182
 30
0.0
  0
VERTEX
  5
141DE
  8
0
 10
703.51371349255874
 20
158.62407900353969
 30
0.0
  0
VERTEX
  5
141DF
  8
0
 10
703.50239928153405
 20
158.7767684435309
 30
0.0
  0
VERTEX
  5
141E0
  8
0
 10
703.49670678912753
 20
158.85259174778889
 30
0.0
  0
VERTEX
  5
141E1
  8
0
 10
703.49099716716557
 20
158.9280539878514
 30
0.0
  0
VERTEX
  5
141E2
  8
0
 10
703.47954614279126
 20
159.07785560343859
 30
0.0
  0
VERTEX
  5
141E3
  8
0
 10
703.46808570975145
 20
159.22609523410731
 30
0.0
  0
VERTEX
  5
141E4
  8
0
 10
703.45665570187475
 20
159.37269707216609
 30
0.0
  0
VERTEX
  5
141E5
  8
0
 10
703.44529610797497
 20
159.51758781973831
 30
0.0
  0
VERTEX
  5
141E6
  8
0
 10
703.43404689416661
 20
159.6606969366307
 30
0.0
  0
VERTEX
  5
141E7
  8
0
 10
703.42847612546325
 20
159.73156207670721
 30
0.0
  0
VERTEX
  5
141E8
  8
0
 10
703.42294786194384
 20
159.8019564368426
 30
0.0
  0
VERTEX
  5
141E9
  8
0
 10
703.41203858443623
 20
159.94129969458299
 30
0.0
  0
VERTEX
  5
141EA
  8
0
 10
703.40135826075425
 20
160.07866125836881
 30
0.0
  0
VERTEX
  5
141EB
  8
0
 10
703.39611605740379
 20
160.14657885356061
 30
0.0
  0
VERTEX
  5
141EC
  8
0
 10
703.39094552627421
 20
160.21397717970649
 30
0.0
  0
VERTEX
  5
141ED
  8
0
 10
703.38083826139825
 20
160.34718533279371
 30
0.0
  0
VERTEX
  5
141EE
  8
0
 10
703.37107340094281
 20
160.47822571843199
 30
0.0
  0
VERTEX
  5
141EF
  8
0
 10
703.36633060949134
 20
160.54291490174629
 30
0.0
  0
VERTEX
  5
141F0
  8
0
 10
703.36168674565602
 20
160.6070407536574
 30
0.0
  0
VERTEX
  5
141F1
  8
0
 10
703.35271277740856
 20
160.7335755486024
 30
0.0
  0
VERTEX
  5
141F2
  8
0
 10
703.34418447962094
 20
160.857778172086
 30
0.0
  0
VERTEX
  5
141F3
  8
0
 10
703.33613316454728
 20
160.97959990740631
 30
0.0
  0
VERTEX
  5
141F4
  8
0
 10
703.32855193269893
 20
161.09958585015369
 30
0.0
  0
VERTEX
  5
141F5
  8
0
 10
703.32141502293905
 20
161.21871436734321
 30
0.0
  0
VERTEX
  5
141F6
  8
0
 10
703.3180279383572
 20
161.2779290484643
 30
0.0
  0
VERTEX
  5
141F7
  8
0
 10
703.31476998169717
 20
161.33689163444839
 30
0.0
  0
VERTEX
  5
141F8
  8
0
 10
703.30866623407314
 20
161.4540043612833
 30
0.0
  0
VERTEX
  5
141F9
  8
0
 10
703.30315348301349
 20
161.56994199722911
 30
0.0
  0
VERTEX
  5
141FA
  8
0
 10
703.29828152590221
 20
161.6845970222623
 30
0.0
  0
VERTEX
  5
141FB
  8
0
 10
703.29410007402805
 20
161.79786522059359
 30
0.0
  0
VERTEX
  5
141FC
  8
0
 10
703.29065857699084
 20
161.9096459383095
 30
0.0
  0
VERTEX
  5
141FD
  8
0
 10
703.28923065134825
 20
161.96494807151399
 30
0.0
  0
VERTEX
  5
141FE
  8
0
 10
703.2880060542866
 20
162.0198423258384
 30
0.0
  0
VERTEX
  5
141FF
  8
0
 10
703.28619093652765
 20
162.12836156548971
 30
0.0
  0
VERTEX
  5
14200
  8
0
 10
703.28526091889444
 20
162.23511509424489
 30
0.0
  0
VERTEX
  5
14201
  8
0
 10
703.28514249370085
 20
162.28780319763769
 30
0.0
  0
SEQEND
  5
14202
  8
0
  0
POLYLINE
  5
C635
  8
0
 66
     1
 10
0.0
 20
0.0
 30
0.0
  0
VERTEX
  5
14203
  8
0
 10
629.28514249370085
 20
162.28780319763769
 30
0.0
  0
VERTEX
  5
14204
  8
0
 10
629.2850240685076
 20
162.23511509424489
 30
0.0
  0
VERTEX
  5
14205
  8
0
 10
629.2840940508745
 20
162.12836156548971
 30
0.0
  0
VERTEX
  5
14206
  8
0
 10
629.28227893311532
 20
162.0198423258384
 30
0.0
  0
VERTEX
  5
14207
  8
0
 10
629.28105433605378
 20
161.96494807151399
 30
0.0
  0
VERTEX
  5
14208
  8
0
 10
629.2796264104112
 20
161.9096459383095
 30
0.0
  0
VERTEX
  5
14209
  8
0
 10
629.27618491337387
 20
161.79786522059359
 30
0.0
  0
VERTEX
  5
1420A
  8
0
 10
629.27200346149993
 20
161.6845970222623
 30
0.0
  0
VERTEX
  5
1420B
  8
0
 10
629.26713150438854
 20
161.56994199722911
 30
0.0
  0
VERTEX
  5
1420C
  8
0
 10
629.26161875332889
 20
161.4540043612833
 30
0.0
  0
VERTEX
  5
1420D
  8
0
 10
629.25551500570475
 20
161.33689163444839
 30
0.0
  0
VERTEX
  5
1420E
  8
0
 10
629.25225704904483
 20
161.2779290484643
 30
0.0
  0
VERTEX
  5
1420F
  8
0
 10
629.24886996446287
 20
161.21871436734321
 30
0.0
  0
VERTEX
  5
14210
  8
0
 10
629.2417330547031
 20
161.09958585015369
 30
0.0
  0
VERTEX
  5
14211
  8
0
 10
629.23415182285476
 20
160.97959990740631
 30
0.0
  0
VERTEX
  5
14212
  8
0
 10
629.2261005077811
 20
160.857778172086
 30
0.0
  0
VERTEX
  5
14213
  8
0
 10
629.21757220999336
 20
160.7335755486024
 30
0.0
  0
VERTEX
  5
14214
  8
0
 10
629.20859824174613
 20
160.6070407536574
 30
0.0
  0
VERTEX
  5
14215
  8
0
 10
629.20395437791069
 20
160.54291490174629
 30
0.0
  0
VERTEX
  5
14216
  8
0
 10
629.19921158645934
 20
160.47822571843199
 30
0.0
  0
VERTEX
  5
14217
  8
0
 10
629.18944672600367
 20
160.34718533279371
 30
0.0
  0
VERTEX
  5
14218
  8
0
 10
629.17933946112794
 20
160.21397717970649
 30
0.0
  0
VERTEX
  5
14219
  8
0
 10
629.17416892999825
 20
160.14657885356061
 30
0.0
  0
VERTEX
  5
1421A
  8
0
 10
629.16892672664767
 20
160.07866125836901
 30
0.0
  0
VERTEX
  5
1421B
  8
0
 10
629.15824640296591
 20
159.94129969458299
 30
0.0
  0
VERTEX
  5
1421C
  8
0
 10
629.14733712545831
 20
159.8019564368426
 30
0.0
  0
VERTEX
  5
1421D
  8
0
 10
629.1418088619389
 20
159.73156207670721
 30
0.0
  0
VERTEX
  5
1421E
  8
0
 10
629.13623809323553
 20
159.6606969366307
 30
0.0
  0
VERTEX
  5
1421F
  8
0
 10
629.12498887942695
 20
159.51758781973831
 30
0.0
  0
VERTEX
  5
14220
  8
0
 10
629.11362928552705
 20
159.37269707216609
 30
0.0
  0
VERTEX
  5
14221
  8
0
 10
629.10219927765058
 20
159.22609523410731
 30
0.0
  0
VERTEX
  5
14222
  8
0
 10
629.09073884461066
 20
159.07785560343859
 30
0.0
  0
VERTEX
  5
14223
  8
0
 10
629.07928782023635
 20
158.9280539878514
 30
0.0
  0
VERTEX
  5
14224
  8
0
 10
629.07357819827462
 20
158.85259174778889
 30
0.0
  0
VERTEX
  5
14225
  8
0
 10
629.06788570586798
 20
158.7767684435309
 30
0.0
  0
VERTEX
  5
14226
  8
0
 10
629.05657149484307
 20
158.62407900353969
 30
0.0
  0
VERTEX
  5
14227
  8
0
 10
629.04538350037888
 20
158.4700673942182
 30
0.0
  0
VERTEX
  5
14228
  8
0
 10
629.03435918823197
 20
158.31481673785129
 30
0.0
  0
VERTEX
  5
14229
  8
0
 10
629.02353501551227
 20
158.15841123981721
 30
0.0
  0
VERTEX
  5
1422A
  8
0
 10
629.01294627699906
 20
158.00093585843479
 30
0.0
  0
VERTEX
  5
1422B
  8
0
 10
629.00775073112254
 20
157.92182147571401
 30
0.0
  0
VERTEX
  5
1422C
  8
0
 10
629.00262608938544
 20
157.84246235103069
 30
0.0
  0
VERTEX
  5
1422D
  8
0
 10
628.99260558201786
 20
157.6830516075768
 30
0.0
  0
VERTEX
  5
1422E
  8
0
 10
628.98291618890789
 20
157.52279147122499
 30
0.0
  0
VERTEX
  5
1422F
  8
0
 10
628.97358787097141
 20
157.3617726059874
 30
0.0
  0
VERTEX
  5
14230
  8
0
 10
628.96464894151779
 20
157.20008762829889
 30
0.0
  0
VERTEX
  5
14231
  8
0
 10
628.9561259387267
 20
157.03783079717391
 30
0.0
  0
VERTEX
  5
14232
  8
0
 10
628.95202818863095
 20
156.95651776287059
 30
0.0
  0
VERTEX
  5
14233
  8
0
 10
628.94804350881282
 20
156.87509769303529
 30
0.0
  0
VERTEX
  5
14234
  8
0
 10
628.94042430116235
 20
156.71198488402499
 30
0.0
  0
VERTEX
  5
14235
  8
0
 10
628.93328887662881
 20
156.54858957853111
 30
0.0
  0
VERTEX
  5
14236
  8
0
 10
628.92665563008427
 20
156.38500926262529
 30
0.0
  0
VERTEX
  5
14237
  8
0
 10
628.92054072822646
 20
156.22134132107061
 30
0.0
  0
VERTEX
  5
14238
  8
0
 10
628.91495807056708
 20
156.05768285732191
 30
0.0
  0
VERTEX
  5
14239
  8
0
 10
628.91237006137305
 20
155.97588776135061
 30
0.0
  0
VERTEX
  5
1423A
  8
0
 10
628.90991930627024
 20
155.89413197891619
 30
0.0
  0
VERTEX
  5
1423B
  8
0
 10
628.90543382459191
 20
155.7307886954913
 30
0.0
  0
VERTEX
  5
1423C
  8
0
 10
628.90150870897389
 20
155.5677546201359
 30
0.0
  0
VERTEX
  5
1423D
  8
0
 10
628.89814870438022
 20
155.40513259211929
 30
0.0
  0
VERTEX
  5
1423E
  8
0
 10
628.89535620149286
 20
155.24302629955031
 30
0.0
  0
VERTEX
  5
1423F
  8
0
 10
628.89313123812508
 20
155.08153990170399
 30
0.0
  0
VERTEX
  5
14240
  8
0
 10
628.89223095648526
 20
155.00106174878371
 30
0.0
  0
VERTEX
  5
14241
  8
0
 10
628.89147151802354
 20
154.92077765048541
 30
0.0
  0
VERTEX
  5
14242
  8
0
 10
628.89037244704491
 20
154.7608435102558
 30
0.0
  0
VERTEX
  5
14243
  8
0
 10
628.8898271865271
 20
154.6018407749705
 30
0.0
  0
VERTEX
  5
14244
  8
0
 10
628.88975950131862
 20
154.52272068512929
 30
0.0
  0
VERTEX
  5
14245
  8
0
 10
628.8898271865271
 20
154.44360059528799
 30
0.0
  0
VERTEX
  5
14246
  8
0
 10
628.89037244704491
 20
154.2845978600028
 30
0.0
  0
VERTEX
  5
14247
  8
0
 10
628.89147151802354
 20
154.1246637197732
 30
0.0
  0
VERTEX
  5
14248
  8
0
 10
628.89223095648526
 20
154.04437962147489
 30
0.0
  0
VERTEX
  5
14249
  8
0
 10
628.89313123812508
 20
153.9639014685547
 30
0.0
  0
VERTEX
  5
1424A
  8
0
 10
628.89535620149286
 20
153.80241507070809
 30
0.0
  0
VERTEX
  5
1424B
  8
0
 10
628.89814870438022
 20
153.64030877813931
 30
0.0
  0
VERTEX
  5
1424C
  8
0
 10
628.90150870897389
 20
153.4776867501225
 30
0.0
  0
VERTEX
  5
1424D
  8
0
 10
628.90543382459191
 20
153.3146526747673
 30
0.0
  0
VERTEX
  5
1424E
  8
0
 10
628.90991930627024
 20
153.15130939134241
 30
0.0
  0
VERTEX
  5
1424F
  8
0
 10
628.91237006137305
 20
153.06955360890791
 30
0.0
  0
VERTEX
  5
14250
  8
0
 10
628.91495807056708
 20
152.98775851293681
 30
0.0
  0
VERTEX
  5
14251
  8
0
 10
628.92054072822646
 20
152.82410004918799
 30
0.0
  0
VERTEX
  5
14252
  8
0
 10
628.92665563008427
 20
152.6604321076334
 30
0.0
  0
VERTEX
  5
14253
  8
0
 10
628.93328887662881
 20
152.49685179172749
 30
0.0
  0
VERTEX
  5
14254
  8
0
 10
628.94042430116235
 20
152.33345648623359
 30
0.0
  0
VERTEX
  5
14255
  8
0
 10
628.94804350881282
 20
152.1703436772234
 30
0.0
  0
VERTEX
  5
14256
  8
0
 10
628.95202818863095
 20
152.0889236073881
 30
0.0
  0
VERTEX
  5
14257
  8
0
 10
628.9561259387267
 20
152.0076105730848
 30
0.0
  0
VERTEX
  5
14258
  8
0
 10
628.96464894151779
 20
151.84535374195951
 30
0.0
  0
VERTEX
  5
14259
  8
0
 10
628.97358787097141
 20
151.6836687642712
 30
0.0
  0
VERTEX
  5
1425A
  8
0
 10
628.98291618890789
 20
151.52264989903369
 30
0.0
  0
VERTEX
  5
1425B
  8
0
 10
628.99260558201786
 20
151.36238976268189
 30
0.0
  0
VERTEX
  5
1425C
  8
0
 10
629.00262608938544
 20
151.202979019228
 30
0.0
  0
VERTEX
  5
1425D
  8
0
 10
629.00775073112254
 20
151.12361989454459
 30
0.0
  0
VERTEX
  5
1425E
  8
0
 10
629.01294627699906
 20
151.0445055118239
 30
0.0
  0
VERTEX
  5
1425F
  8
0
 10
629.02353501551227
 20
150.88703013044139
 30
0.0
  0
VERTEX
  5
14260
  8
0
 10
629.03435918823197
 20
150.7306246324072
 30
0.0
  0
VERTEX
  5
14261
  8
0
 10
629.04538350037888
 20
150.57537397604051
 30
0.0
  0
VERTEX
  5
14262
  8
0
 10
629.05657149484307
 20
150.42136236671899
 30
0.0
  0
VERTEX
  5
14263
  8
0
 10
629.06788570586798
 20
150.2686729267275
 30
0.0
  0
VERTEX
  5
14264
  8
0
 10
629.07357819827462
 20
150.19284962246979
 30
0.0
  0
VERTEX
  5
14265
  8
0
 10
629.07928782023635
 20
150.117387382407
 30
0.0
  0
VERTEX
  5
14266
  8
0
 10
629.09073884461066
 20
149.96758576682009
 30
0.0
  0
VERTEX
  5
14267
  8
0
 10
629.10219927765058
 20
149.8193461361511
 30
0.0
  0
VERTEX
  5
14268
  8
0
 10
629.11362928552705
 20
149.67274429809251
 30
0.0
  0
VERTEX
  5
14269
  8
0
 10
629.12498887942695
 20
149.5278535505204
 30
0.0
  0
VERTEX
  5
1426A
  8
0
 10
629.13623809323553
 20
149.3847444336279
 30
0.0
  0
VERTEX
  5
1426B
  8
0
 10
629.1418088619389
 20
149.31387929355151
 30
0.0
  0
VERTEX
  5
1426C
  8
0
 10
629.14733712545831
 20
149.24348493341611
 30
0.0
  0
VERTEX
  5
1426D
  8
0
 10
629.15824640296591
 20
149.10414167567569
 30
0.0
  0
VERTEX
  5
1426E
  8
0
 10
629.16892672664767
 20
148.96678011188959
 30
0.0
  0
VERTEX
  5
1426F
  8
0
 10
629.17416892999825
 20
148.89886251669799
 30
0.0
  0
VERTEX
  5
14270
  8
0
 10
629.17933946112794
 20
148.8314641905522
 30
0.0
  0
VERTEX
  5
14271
  8
0
 10
629.18944672600367
 20
148.69825603746489
 30
0.0
  0
VERTEX
  5
14272
  8
0
 10
629.19921158645934
 20
148.5672156518267
 30
0.0
  0
VERTEX
  5
14273
  8
0
 10
629.20395437791069
 20
148.50252646851229
 30
0.0
  0
VERTEX
  5
14274
  8
0
 10
629.20859824174613
 20
148.4384006166012
 30
0.0
  0
VERTEX
  5
14275
  8
0
 10
629.21757220999336
 20
148.31186582165631
 30
0.0
  0
VERTEX
  5
14276
  8
0
 10
629.2261005077811
 20
148.18766319817269
 30
0.0
  0
VERTEX
  5
14277
  8
0
 10
629.23415182285476
 20
148.0658414628524
 30
0.0
  0
VERTEX
  5
14278
  8
0
 10
629.2417330547031
 20
147.94585552010491
 30
0.0
  0
VERTEX
  5
14279
  8
0
 10
629.24886996446287
 20
147.8267270029155
 30
0.0
  0
VERTEX
  5
1427A
  8
0
 10
629.25225704904483
 20
147.7675123217943
 30
0.0
  0
VERTEX
  5
1427B
  8
0
 10
629.25551500570475
 20
147.70854973581021
 30
0.0
  0
VERTEX
  5
1427C
  8
0
 10
629.26161875332889
 20
147.59143700897539
 30
0.0
  0
VERTEX
  5
1427D
  8
0
 10
629.26713150438854
 20
147.47549937302961
 30
0.0
  0
VERTEX
  5
1427E
  8
0
 10
629.27200346149993
 20
147.36084434799631
 30
0.0
  0
VERTEX
  5
1427F
  8
0
 10
629.27618491337387
 20
147.24757614966501
 30
0.0
  0
VERTEX
  5
14280
  8
0
 10
629.2796264104112
 20
147.13579543194919
 30
0.0
  0
VERTEX
  5
14281
  8
0
 10
629.28105433605378
 20
147.08049329874461
 30
0.0
  0
VERTEX
  5
14282
  8
0
 10
629.28227893311532
 20
147.0255990444202
 30
0.0
  0
VERTEX
  5
14283
  8
0
 10
629.2840940508745
 20
146.91707980476889
 30
0.0
  0
VERTEX
  5
14284
  8
0
 10
629.2850240685076
 20
146.81032627601371
 30
0.0
  0
VERTEX
  5
14285
  8
0
 10
629.28514249370085
 20
146.757638172621
 30
0.0
  0
SEQEND
  5
14286
  8
0
  0
POLYLINE
  5
C636
  8
0
 66
     1
 10
0.0
 20
0.0
 30
0.0
  0
VERTEX
  5
14287
  8
0
 10
629.28514249370085
 20
146.757638172621
 30
0.0
  0
VERTEX
  5
14288
  8
0
 10
629.28505869895605
 20
146.8018982291598
 30
0.0
  0
VERTEX
  5
14289
  8
0
 10
629.28439865012479
 20
146.89139635281751
 30
0.0
  0
VERTEX
  5
1428A
  8
0
 10
629.28310514919804
 20
146.982156812395
 30
0.0
  0
VERTEX
  5
1428B
  8
0
 10
629.28222964424003
 20
147.0279943234961
 30
0.0
  0
VERTEX
  5
1428C
  8
0
 10
629.2812063757799
 20
147.0741278291957
 30
0.0
  0
VERTEX
  5
1428D
  8
0
 10
629.2787309042775
 20
147.16725545129179
 30
0.0
  0
VERTEX
  5
1428E
  8
0
 10
629.27570764516065
 20
147.2614836528719
 30
0.0
  0
VERTEX
  5
1428F
  8
0
 10
629.27216578138666
 20
147.3567544257296
 30
0.0
  0
VERTEX
  5
14290
  8
0
 10
629.26813470077138
 20
147.45300787606189
 30
0.0
  0
VERTEX
  5
14291
  8
0
 10
629.26364392507537
 20
147.55018232652239
 30
0.0
  0
VERTEX
  5
14292
  8
0
 10
629.26123539570847
 20
147.59909519125651
 30
0.0
  0
VERTEX
  5
14293
  8
0
 10
629.25872303653216
 20
147.6482144236067
 30
0.0
  0
VERTEX
  5
14294
  8
0
 10
629.25340160248857
 20
147.74703925059751
 30
0.0
  0
VERTEX
  5
14295
  8
0
 10
629.24770909878578
 20
147.84659044643169
 30
0.0
  0
VERTEX
  5
14296
  8
0
 10
629.24167483245878
 20
147.94680033100411
 30
0.0
  0
VERTEX
  5
14297
  8
0
 10
629.23532785986322
 20
148.04760010634641
 30
0.0
  0
VERTEX
  5
14298
  8
0
 10
629.22865563549396
 20
148.14953967079819
 30
0.0
  0
VERTEX
  5
14299
  8
0
 10
629.22518951377424
 20
148.20114595617471
 30
0.0
  0
VERTEX
  5
1429A
  8
0
 10
629.22163969390249
 20
148.25317199100979
 30
0.0
  0
VERTEX
  5
1429B
  8
0
 10
629.21429822493769
 20
148.35846890769989
 30
0.0
  0
VERTEX
  5
1429C
  8
0
 10
629.20665029234317
 20
148.46540059760329
 30
0.0
  0
VERTEX
  5
1429D
  8
0
 10
629.20271758122897
 20
148.51946973360529
 30
0.0
  0
SEQEND
  5
1429E
  8
0
  0
POLYLINE
  5
C638
  8
0
 66
     1
 10
0.0
 20
0.0
 30
0.0
  0
VERTEX
  5
1429F
  8
0
 10
629.20271758122897
 20
160.52597163665331
 30
0.0
  0
VERTEX
  5
142A0
  8
0
 10
629.20665029234317
 20
160.58004077265539
 30
0.0
  0
VERTEX
  5
142A1
  8
0
 10
629.21429822493769
 20
160.68697246255871
 30
0.0
  0
VERTEX
  5
142A2
  8
0
 10
629.22163969390249
 20
160.79226937924861
 30
0.0
  0
VERTEX
  5
142A3
  8
0
 10
629.22518951377424
 20
160.84429541408389
 30
0.0
  0
VERTEX
  5
142A4
  8
0
 10
629.22865563549396
 20
160.89590169946041
 30
0.0
  0
VERTEX
  5
142A5
  8
0
 10
629.23532785986322
 20
160.99784126391219
 30
0.0
  0
VERTEX
  5
142A6
  8
0
 10
629.24167483245878
 20
161.09864103925449
 30
0.0
  0
VERTEX
  5
142A7
  8
0
 10
629.24770909878578
 20
161.19885092382691
 30
0.0
  0
VERTEX
  5
142A8
  8
0
 10
629.25340160248857
 20
161.2984021196612
 30
0.0
  0
VERTEX
  5
142A9
  8
0
 10
629.25872303653216
 20
161.3972269466519
 30
0.0
  0
VERTEX
  5
142AA
  8
0
 10
629.26123539570847
 20
161.44634617900209
 30
0.0
  0
VERTEX
  5
142AB
  8
0
 10
629.26364392507537
 20
161.49525904373621
 30
0.0
  0
VERTEX
  5
142AC
  8
0
 10
629.26813470077138
 20
161.59243349419671
 30
0.0
  0
VERTEX
  5
142AD
  8
0
 10
629.27216578138666
 20
161.68868694452911
 30
0.0
  0
VERTEX
  5
142AE
  8
0
 10
629.27570764516065
 20
161.7839577173865
 30
0.0
  0
VERTEX
  5
142AF
  8
0
 10
629.2787309042775
 20
161.87818591896689
 30
0.0
  0
VERTEX
  5
142B0
  8
0
 10
629.2812063757799
 20
161.9713135410629
 30
0.0
  0
VERTEX
  5
142B1
  8
0
 10
629.28222964424003
 20
162.0174470467625
 30
0.0
  0
VERTEX
  5
142B2
  8
0
 10
629.28310514919804
 20
162.0632845578636
 30
0.0
  0
VERTEX
  5
142B3
  8
0
 10
629.28439865012479
 20
162.15404501744109
 30
0.0
  0
VERTEX
  5
142B4
  8
0
 10
629.28505869895605
 20
162.2435431410988
 30
0.0
  0
VERTEX
  5
142B5
  8
0
 10
629.28514249370085
 20
162.28780319763769
 30
0.0
  0
SEQEND
  5
142B6
  8
0
  0
LINE
  5
C63D
  8
0
 10
659.2790420136123
 20
264.5227206851294
 30
0.0
 11
673.29124297378985
 21
264.5227206851294
 31
0.0
  0
POLYLINE
  5
C648
  8
0
 66
     1
 10
0.0
 20
0.0
 30
0.0
  0
VERTEX
  5
142B7
  8
0
 10
679.74074788491225
 20
271.52272068512929
 30
0.0
  0
VERTEX
  5
142B8
  8
0
 10
679.72747138358113
 20
271.52266192881598
 30
0.0
  0
VERTEX
  5
142B9
  8
0
 10
679.69559453087345
 20
271.52204092264333
 30
0.0
  0
VERTEX
  5
142BA
  8
0
 10
679.65662582084167
 20
271.52035998694282
 30
0.0
  0
VERTEX
  5
142BB
  8
0
 10
679.63450053893405
 20
271.51895312077318
 30
0.0
  0
VERTEX
  5
142BC
  8
0
 10
679.61063314708554
 20
271.51706674779348
 30
0.0
  0
VERTEX
  5
142BD
  8
0
 10
679.55775313757454
 20
271.5115164812164
 30
0.0
  0
VERTEX
  5
142BE
  8
0
 10
679.49818996767578
 20
271.502979330362
 30
0.0
  0
VERTEX
  5
142BF
  8
0
 10
679.43221989044025
 20
271.49064795738332
 30
0.0
  0
VERTEX
  5
142C0
  8
0
 10
679.36018197644307
 20
271.473640941143
 30
0.0
  0
VERTEX
  5
142C1
  8
0
 10
679.28246792767004
 20
271.45099918765959
 30
0.0
  0
VERTEX
  5
142C2
  8
0
 10
679.24162186038325
 20
271.43724294074701
 30
0.0
  0
VERTEX
  5
142C3
  8
0
 10
679.19953216439512
 20
271.42167942071279
 30
0.0
  0
VERTEX
  5
142C4
  8
0
 10
679.11189627345288
 20
271.38453772525071
 30
0.0
  0
VERTEX
  5
142C5
  8
0
 10
679.02016675208336
 20
271.33830528180528
 30
0.0
  0
VERTEX
  5
142C6
  8
0
 10
678.92499957359007
 20
271.28151164973588
 30
0.0
  0
VERTEX
  5
142C7
  8
0
 10
678.8681895216198
 20
271.24281982153121
 30
0.0
  0
VERTEX
  5
142C8
  8
0
 10
678.8518127361076
 20
271.23094016072952
 30
0.0
  0
VERTEX
  5
142C9
  8
0
 10
678.83537882585074
 20
271.21867506005083
 30
0.0
  0
VERTEX
  5
142CA
  8
0
 10
678.82714176775778
 20
271.21239453232351
 30
0.0
  0
VERTEX
  5
142CB
  8
0
 10
678.81889202624984
 20
271.2060134535725
 30
0.0
  0
VERTEX
  5
142CC
  8
0
 10
678.80235670171135
 20
271.1929437353599
 30
0.0
  0
VERTEX
  5
142CD
  8
0
 10
678.78577737260821
 20
271.1794537228825
 30
0.0
  0
VERTEX
  5
142CE
  8
0
 10
678.76915874751205
 20
271.16553062037042
 30
0.0
  0
VERTEX
  5
142CF
  8
0
 10
678.75250576118219
 20
271.15116098256863
 30
0.0
  0
VERTEX
  5
142D0
  8
0
 10
678.73582361878539
 20
271.13633067940418
 30
0.0
  0
VERTEX
  5
142D1
  8
0
 10
678.72747332700305
 20
271.12873816704092
 30
0.0
  0
VERTEX
  5
142D2
  8
0
 10
678.71911784681834
 20
271.12102486215139
 30
0.0
  0
VERTEX
  5
142D3
  8
0
 10
678.70239435117185
 20
271.10522793174209
 30
0.0
  0
VERTEX
  5
142D4
  8
0
 10
678.68561283265535
 20
271.08887734411468
 30
0.0
  0
VERTEX
  5
142D5
  8
0
 10
678.67713965999599
 20
271.08042458693308
 30
0.0
  0
VERTEX
  5
142D6
  8
0
 10
678.66861233453233
 20
271.07177995972302
 30
0.0
  0
VERTEX
  5
142D7
  8
0
 10
678.65141771827393
 20
271.05391406566059
 30
0.0
  0
VERTEX
  5
142D8
  8
0
 10
678.63407464964894
 20
271.03527900461108
 30
0.0
  0
VERTEX
  5
142D9
  8
0
 10
678.62536198499151
 20
271.02567347278091
 30
0.0
  0
VERTEX
  5
142DA
  8
0
 10
678.61662975826187
 20
271.01587648224091
 30
0.0
  0
VERTEX
  5
142DB
  8
0
 10
678.59913044041366
 20
270.99571072126378
 30
0.0
  0
VERTEX
  5
142DC
  8
0
 10
678.58162463156532
 20
270.97478858373228
 30
0.0
  0
VERTEX
  5
142DD
  8
0
 10
678.56416054534918
 20
270.95311964921939
 30
0.0
  0
VERTEX
  5
142DE
  8
0
 10
678.54678637684901
 20
270.93071623427232
 30
0.0
  0
VERTEX
  5
142DF
  8
0
 10
678.52954996887934
 20
270.9075933359652
 30
0.0
  0
VERTEX
  5
142E0
  8
0
 10
678.52099818917145
 20
270.8957674649414
 30
0.0
  0
VERTEX
  5
142E1
  8
0
 10
678.51249844134941
 20
270.8837684796145
 30
0.0
  0
VERTEX
  5
142E2
  8
0
 10
678.49567740631426
 20
270.85926088340079
 30
0.0
  0
VERTEX
  5
142E3
  8
0
 10
678.47913038591264
 20
270.83409069087128
 30
0.0
  0
VERTEX
  5
142E4
  8
0
 10
678.46290265091704
 20
270.8082851687688
 30
0.0
  0
VERTEX
  5
142E5
  8
0
 10
678.4470390860954
 20
270.78187649513387
 30
0.0
  0
VERTEX
  5
142E6
  8
0
 10
678.43158341384265
 20
270.7549012555412
 30
0.0
  0
VERTEX
  5
142E7
  8
0
 10
678.42402175436916
 20
270.74121375896198
 30
0.0
  0
VERTEX
  5
142E8
  8
0
 10
678.41657767144443
 20
270.72740021921868
 30
0.0
  0
VERTEX
  5
142E9
  8
0
 10
678.40206168114219
 20
270.69941799400209
 30
0.0
  0
VERTEX
  5
142EA
  8
0
 10
678.38807251889762
 20
270.6710025329217
 30
0.0
  0
VERTEX
  5
142EB
  8
0
 10
678.38128620435725
 20
270.65664807774027
 30
0.0
  0
SEQEND
  5
142EC
  8
0
  0
LINE
  5
C64A
  8
0
 10
677.73488996200695
 20
269.27044686262838
 30
0.0
 11
676.46332022841796
 21
266.5435567690368
 31
0.0
  0
POLYLINE
  5
C64B
  8
0
 66
     1
 10
0.0
 20
0.0
 30
0.0
  0
VERTEX
  5
142ED
  8
0
 10
676.46332022841796
 20
266.5435567690368
 30
0.0
  0
VERTEX
  5
142EE
  8
0
 10
676.45550772514639
 20
266.52691702711741
 30
0.0
  0
VERTEX
  5
142EF
  8
0
 10
676.43962107781385
 20
266.49376178636771
 30
0.0
  0
VERTEX
  5
142F0
  8
0
 10
676.42338704086933
 20
266.46077524976391
 30
0.0
  0
VERTEX
  5
142F1
  8
0
 10
676.4151403095666
 20
266.44434638366369
 30
0.0
  0
VERTEX
  5
142F2
  8
0
 10
676.40680740556377
 20
266.4279610570145
 30
0.0
  0
VERTEX
  5
142F3
  8
0
 10
676.38988400128176
 20
266.39532282881282
 30
0.0
  0
VERTEX
  5
142F4
  8
0
 10
676.37261869533859
 20
266.36286416643537
 30
0.0
  0
VERTEX
  5
142F5
  8
0
 10
676.35501339277437
 20
266.3305886513462
 30
0.0
  0
VERTEX
  5
142F6
  8
0
 10
676.33707003614541
 20
266.2984998448008
 30
0.0
  0
VERTEX
  5
142F7
  8
0
 10
676.31879060530684
 20
266.26660128745311
 30
0.0
  0
VERTEX
  5
142F8
  8
0
 10
676.30952549091012
 20
266.25072445295342
 30
0.0
  0
VERTEX
  5
142F9
  8
0
 10
676.30017711719802
 20
266.23489649896533
 30
0.0
  0
VERTEX
  5
142FA
  8
0
 10
676.28123162561587
 20
266.2033889776194
 30
0.0
  0
VERTEX
  5
142FB
  8
0
 10
676.26195622099203
 20
266.17208219993108
 30
0.0
  0
VERTEX
  5
142FC
  8
0
 10
676.19192527146879
 20
266.0641390023975
 30
0.0
  0
VERTEX
  5
142FD
  8
0
 10
676.12877475888547
 20
265.97371766693459
 30
0.0
  0
VERTEX
  5
142FE
  8
0
 10
676.0628066339566
 20
265.88533095051298
 30
0.0
  0
VERTEX
  5
142FF
  8
0
 10
675.92268229996625
 20
265.71501033227901
 30
0.0
  0
VERTEX
  5
14300
  8
0
 10
675.7721086939855
 20
265.5538534796363
 30
0.0
  0
VERTEX
  5
14301
  8
0
 10
675.61168373387113
 20
265.40250033581651
 30
0.0
  0
VERTEX
  5
14302
  8
0
 10
675.44204445655839
 20
265.26155191417001
 30
0.0
  0
VERTEX
  5
14303
  8
0
 10
675.26386448842766
 20
265.13156791158229
 30
0.0
  0
VERTEX
  5
14304
  8
0
 10
675.17179160300361
 20
265.07085062478433
 30
0.0
  0
VERTEX
  5
14305
  8
0
 10
675.07785137037945
 20
265.01306448595369
 30
0.0
  0
VERTEX
  5
14306
  8
0
 10
674.88474374823545
 20
264.9065122065706
 30
0.0
  0
VERTEX
  5
14307
  8
0
 10
674.68530843962617
 20
264.81233418550619
 30
0.0
  0
VERTEX
  5
14308
  8
0
 10
674.48033738900631
 20
264.73090439746971
 30
0.0
  0
VERTEX
  5
14309
  8
0
 10
674.27064452289824
 20
264.6625461947786
 30
0.0
  0
VERTEX
  5
1430A
  8
0
 10
674.05706251784147
 20
264.60753102334638
 30
0.0
  0
VERTEX
  5
1430B
  8
0
 10
673.94907761419006
 20
264.58509743848208
 30
0.0
  0
VERTEX
  5
1430C
  8
0
 10
673.84043949388968
 20
264.5660773447903
 30
0.0
  0
VERTEX
  5
1430D
  8
0
 10
673.62163564678281
 20
264.53834976893341
 30
0.0
  0
VERTEX
  5
1430E
  8
0
 10
673.40151983216424
 20
264.52445840015031
 30
0.0
  0
VERTEX
  5
1430F
  8
0
 10
673.29124297378985
 20
264.5227206851294
 30
0.0
  0
SEQEND
  5
14310
  8
0
  0
POLYLINE
  5
C64C
  8
0
 66
     1
 10
0.0
 20
0.0
 30
0.0
  0
VERTEX
  5
14311
  8
0
 10
659.2790420136123
 20
264.5227206851294
 30
0.0
  0
VERTEX
  5
14312
  8
0
 10
659.16876515523757
 20
264.52445840015031
 30
0.0
  0
VERTEX
  5
14313
  8
0
 10
658.94864934061934
 20
264.53834976893341
 30
0.0
  0
VERTEX
  5
14314
  8
0
 10
658.72984549351213
 20
264.5660773447903
 30
0.0
  0
VERTEX
  5
14315
  8
0
 10
658.62120737321186
 20
264.58509743848208
 30
0.0
  0
VERTEX
  5
14316
  8
0
 10
658.51322246956045
 20
264.60753102334638
 30
0.0
  0
VERTEX
  5
14317
  8
0
 10
658.29964046450368
 20
264.6625461947786
 30
0.0
  0
VERTEX
  5
14318
  8
0
 10
658.0899475983955
 20
264.73090439746971
 30
0.0
  0
VERTEX
  5
14319
  8
0
 10
657.88497654777598
 20
264.81233418550619
 30
0.0
  0
VERTEX
  5
1431A
  8
0
 10
657.68554123916635
 20
264.9065122065706
 30
0.0
  0
VERTEX
  5
1431B
  8
0
 10
657.49243361702258
 20
265.01306448595369
 30
0.0
  0
VERTEX
  5
1431C
  8
0
 10
657.39849338439819
 20
265.07085062478433
 30
0.0
  0
VERTEX
  5
1431D
  8
0
 10
657.30642049897426
 20
265.13156791158229
 30
0.0
  0
VERTEX
  5
1431E
  8
0
 10
657.12824053084364
 20
265.26155191417001
 30
0.0
  0
VERTEX
  5
1431F
  8
0
 10
656.95860125353079
 20
265.40250033581651
 30
0.0
  0
VERTEX
  5
14320
  8
0
 10
656.79817629341665
 20
265.5538534796363
 30
0.0
  0
VERTEX
  5
14321
  8
0
 10
656.64760268743589
 20
265.71501033227901
 30
0.0
  0
VERTEX
  5
14322
  8
0
 10
656.50747835344555
 20
265.88533095051298
 30
0.0
  0
VERTEX
  5
14323
  8
0
 10
656.44151022851645
 20
265.97371766693459
 30
0.0
  0
VERTEX
  5
14324
  8
0
 10
656.37835971593336
 20
266.0641390023975
 30
0.0
  0
VERTEX
  5
14325
  8
0
 10
656.30832876640989
 20
266.17208219993108
 30
0.0
  0
VERTEX
  5
14326
  8
0
 10
656.28905336178605
 20
266.2033889776194
 30
0.0
  0
VERTEX
  5
14327
  8
0
 10
656.27010787020413
 20
266.23489649896533
 30
0.0
  0
VERTEX
  5
14328
  8
0
 10
656.26075949649203
 20
266.25072445295342
 30
0.0
  0
VERTEX
  5
14329
  8
0
 10
656.25149438209519
 20
266.26660128745311
 30
0.0
  0
VERTEX
  5
1432A
  8
0
 10
656.23321495125674
 20
266.2984998448008
 30
0.0
  0
VERTEX
  5
1432B
  8
0
 10
656.21527159462755
 20
266.3305886513462
 30
0.0
  0
VERTEX
  5
1432C
  8
0
 10
656.19766629206345
 20
266.36286416643537
 30
0.0
  0
VERTEX
  5
1432D
  8
0
 10
656.18040098612016
 20
266.39532282881282
 30
0.0
  0
VERTEX
  5
1432E
  8
0
 10
656.16347758183815
 20
266.4279610570145
 30
0.0
  0
VERTEX
  5
1432F
  8
0
 10
656.15514467783555
 20
266.44434638366369
 30
0.0
  0
VERTEX
  5
14330
  8
0
 10
656.14689794653282
 20
266.46077524976391
 30
0.0
  0
VERTEX
  5
14331
  8
0
 10
656.13066390958818
 20
266.49376178636771
 30
0.0
  0
VERTEX
  5
14332
  8
0
 10
656.11477726225553
 20
266.52691702711741
 30
0.0
  0
VERTEX
  5
14333
  8
0
 10
656.10696475898408
 20
266.5435567690368
 30
0.0
  0
SEQEND
  5
14334
  8
0
  0
LINE
  5
C64D
  8
0
 10
656.10696475898408
 20
266.5435567690368
 30
0.0
 11
654.8353950253952
 21
269.27044686262838
 31
0.0
  0
POLYLINE
  5
C64E
  8
0
 66
     1
 10
0.0
 20
0.0
 30
0.0
  0
VERTEX
  5
14335
  8
0
 10
654.8353950253952
 20
269.27044686262838
 30
0.0
  0
VERTEX
  5
14336
  8
0
 10
654.7204699004451
 20
269.51690458842472
 30
0.0
  0
VERTEX
  5
14337
  8
0
 10
654.49906961786223
 20
269.99169902662601
 30
0.0
  0
VERTEX
  5
14338
  8
0
 10
654.2893407189672
 20
270.44146410173721
 30
0.0
  0
VERTEX
  5
14339
  8
0
 10
654.18899878304467
 20
270.65664807774027
 30
0.0
  0
SEQEND
  5
1433A
  8
0
  0
POLYLINE
  5
C64F
  8
0
 66
     1
 10
0.0
 20
0.0
 30
0.0
  0
VERTEX
  5
1433B
  8
0
 10
654.18899878304467
 20
270.65664807774027
 30
0.0
  0
VERTEX
  5
1433C
  8
0
 10
654.18221246850453
 20
270.67100253292142
 30
0.0
  0
VERTEX
  5
1433D
  8
0
 10
654.16822330625996
 20
270.69941799400209
 30
0.0
  0
VERTEX
  5
1433E
  8
0
 10
654.1537073159576
 20
270.72740021921868
 30
0.0
  0
VERTEX
  5
1433F
  8
0
 10
654.14626323303264
 20
270.74121375896198
 30
0.0
  0
VERTEX
  5
14340
  8
0
 10
654.1387015735595
 20
270.7549012555412
 30
0.0
  0
VERTEX
  5
14341
  8
0
 10
654.12324590130675
 20
270.78187649513387
 30
0.0
  0
VERTEX
  5
14342
  8
0
 10
654.10738233648487
 20
270.8082851687688
 30
0.0
  0
VERTEX
  5
14343
  8
0
 10
654.09115460148939
 20
270.83409069087128
 30
0.0
  0
VERTEX
  5
14344
  8
0
 10
654.07460758108766
 20
270.85926088340079
 30
0.0
  0
VERTEX
  5
14345
  8
0
 10
654.05778654605251
 20
270.8837684796145
 30
0.0
  0
VERTEX
  5
14346
  8
0
 10
654.04928679823058
 20
270.8957674649414
 30
0.0
  0
VERTEX
  5
14347
  8
0
 10
654.04073501852281
 20
270.9075933359652
 30
0.0
  0
VERTEX
  5
14348
  8
0
 10
654.02349861055291
 20
270.93071623427232
 30
0.0
  0
VERTEX
  5
14349
  8
0
 10
654.00612444205285
 20
270.95311964921939
 30
0.0
  0
VERTEX
  5
1434A
  8
0
 10
653.98866035583683
 20
270.97478858373228
 30
0.0
  0
VERTEX
  5
1434B
  8
0
 10
653.97115454698826
 20
270.99571072126378
 30
0.0
  0
VERTEX
  5
1434C
  8
0
 10
653.95365522913994
 20
271.01587648224091
 30
0.0
  0
VERTEX
  5
1434D
  8
0
 10
653.94492300241041
 20
271.02567347278091
 30
0.0
  0
VERTEX
  5
1434E
  8
0
 10
653.9362103377531
 20
271.03527900461108
 30
0.0
  0
VERTEX
  5
1434F
  8
0
 10
653.91886726912821
 20
271.05391406566059
 30
0.0
  0
VERTEX
  5
14350
  8
0
 10
653.90167265286982
 20
271.07177995972302
 30
0.0
  0
VERTEX
  5
14351
  8
0
 10
653.89314532740605
 20
271.08042458693279
 30
0.0
  0
VERTEX
  5
14352
  8
0
 10
653.8846721547468
 20
271.08887734411468
 30
0.0
  0
VERTEX
  5
14353
  8
0
 10
653.86789063622984
 20
271.10522793174209
 30
0.0
  0
VERTEX
  5
14354
  8
0
 10
653.85116714058347
 20
271.12102486215139
 30
0.0
  0
VERTEX
  5
14355
  8
0
 10
653.84281166039909
 20
271.12873816704092
 30
0.0
  0
VERTEX
  5
14356
  8
0
 10
653.83446136861676
 20
271.13633067940418
 30
0.0
  0
VERTEX
  5
14357
  8
0
 10
653.81777922621995
 20
271.15116098256863
 30
0.0
  0
VERTEX
  5
14358
  8
0
 10
653.80112623988987
 20
271.16553062037042
 30
0.0
  0
VERTEX
  5
14359
  8
0
 10
653.78450761479394
 20
271.1794537228825
 30
0.0
  0
VERTEX
  5
1435A
  8
0
 10
653.76792828569057
 20
271.1929437353599
 30
0.0
  0
VERTEX
  5
1435B
  8
0
 10
653.75139296115231
 20
271.2060134535725
 30
0.0
  0
VERTEX
  5
1435C
  8
0
 10
653.74314321964425
 20
271.21239453232351
 30
0.0
  0
VERTEX
  5
1435D
  8
0
 10
653.73490616155141
 20
271.21867506005083
 30
0.0
  0
VERTEX
  5
1435E
  8
0
 10
653.71847225129454
 20
271.23094016072952
 30
0.0
  0
VERTEX
  5
1435F
  8
0
 10
653.70209546578235
 20
271.24281982153121
 30
0.0
  0
VERTEX
  5
14360
  8
0
 10
653.64528541381185
 20
271.28151164973588
 30
0.0
  0
VERTEX
  5
14361
  8
0
 10
653.55011823531856
 20
271.33830528180528
 30
0.0
  0
VERTEX
  5
14362
  8
0
 10
653.45838871394926
 20
271.38453772525071
 30
0.0
  0
VERTEX
  5
14363
  8
0
 10
653.37075282300702
 20
271.42167942071279
 30
0.0
  0
VERTEX
  5
14364
  8
0
 10
653.3286631270189
 20
271.43724294074701
 30
0.0
  0
VERTEX
  5
14365
  8
0
 10
653.28781705973211
 20
271.45099918765959
 30
0.0
  0
VERTEX
  5
14366
  8
0
 10
653.21010301095907
 20
271.473640941143
 30
0.0
  0
VERTEX
  5
14367
  8
0
 10
653.13806509696178
 20
271.49064795738332
 30
0.0
  0
VERTEX
  5
14368
  8
0
 10
653.07209501972602
 20
271.502979330362
 30
0.0
  0
VERTEX
  5
14369
  8
0
 10
653.01253184982761
 20
271.5115164812164
 30
0.0
  0
VERTEX
  5
1436A
  8
0
 10
652.95965184031661
 20
271.51706674779348
 30
0.0
  0
VERTEX
  5
1436B
  8
0
 10
652.93578444846764
 20
271.51895312077318
 30
0.0
  0
VERTEX
  5
1436C
  8
0
 10
652.91365916656025
 20
271.52035998694282
 30
0.0
  0
VERTEX
  5
1436D
  8
0
 10
652.8746904565287
 20
271.52204092264333
 30
0.0
  0
VERTEX
  5
1436E
  8
0
 10
652.8428136038209
 20
271.52266192881598
 30
0.0
  0
VERTEX
  5
1436F
  8
0
 10
652.82953710248978
 20
271.52272068512929
 30
0.0
  0
SEQEND
  5
14370
  8
0
  0
LINE
  5
C650
  8
0
 10
723.28514249370096
 20
273.52272068512929
 30
0.0
 11
609.28514249370085
 21
273.52272068512929
 31
0.0
  0
ARC
  5
C67D
  8
0
 10
645.78514249370085
 20
224.58519280822819
 30
0.0
 40
1.999999999999996
 50
106.3092654464117
 51
180.0
  0
ARC
  5
C67E
  8
0
 10
645.78514249370085
 20
84.460248562030515
 30
0.0
 40
2.0000000000000009
 50
180.0
 51
253.6907345535883
  0
ARC
  5
C67F
  8
0
 10
666.28514249370085
 20
154.52272068512909
 30
0.0
 40
75.000000000000043
 50
253.6907345535883
 51
286.3092654464117
  0
ARC
  5
C680
  8
0
 10
666.28514249370085
 20
154.52272068512929
 30
0.0
 40
75.000000000000199
 50
73.690734553588271
 51
106.3092654464117
  0
ARC
  5
C681
  8
0
 10
686.78514249370085
 20
224.58519280822819
 30
0.0
 40
1.9999999999999989
 50
0.0
 51
73.690734553588271
  0
ARC
  5
C682
  8
0
 10
686.78514249370085
 20
84.460248562030515
 30
0.0
 40
1.9999999999999889
 50
286.3092654464117
 51
0.0
  0
LINE
  5
C68D
  8
0
 10
643.78514249370085
 20
224.58519280822819
 30
0.0
 11
643.78514249370085
 21
84.460248562030515
 31
0.0
  0
LINE
  5
C68F
  8
0
 10
688.78514249370085
 20
224.58519280822819
 30
0.0
 11
688.78514249370085
 21
84.460248562030515
 31
0.0
  0
CIRCLE
  5
C6B4
  8
0
 10
407.23428809197088
 20
154.52272068512889
 30
0.0
 40
8.6625000000000121
  0
LINE
  5
C6B5
  8
0
 10
337.23428809197088
 20
273.52272068512889
 30
0.0
 11
337.23428809197088
 21
271.52272068512889
 31
0.0
  0
LINE
  5
C6B6
  8
0
 10
477.23428809197088
 20
273.52272068512889
 30
0.0
 11
477.23428809197088
 21
271.52272068512889
 31
0.0
  0
LINE
  5
C6B7
  8
0
 10
468.65991393417488
 20
273.52272068512889
 30
0.0
 11
468.65991393417488
 21
265.22779999011101
 31
0.0
  0
LINE
  5
C6B9
  8
0
 10
429.989841591436
 20
273.52272068512889
 30
0.0
 11
429.989841591436
 21
158.12755750089261
 31
0.0
  0
LINE
  5
C6BB
  8
0
 10
387.50982350575129
 20
273.52272068512889
 30
0.0
 11
387.50982350575129
 21
152.93778419458999
 31
0.0
  0
LINE
  5
C6BC
  8
0
 10
384.47873459250582
 20
273.52272068512889
 30
0.0
 11
384.47873459250582
 21
158.12755750089261
 31
0.0
  0
LINE
  5
C6C1
  8
0
 10
337.23428809197088
 20
271.52272068512889
 30
0.0
 11
345.80866224976688
 21
271.52272068512889
 31
0.0
  0
LINE
  5
C6C3
  8
0
 10
468.65991393417488
 20
271.52272068512889
 30
0.0
 11
477.23428809197088
 21
271.52272068512889
 31
0.0
  0
LINE
  5
C6C4
  8
0
 10
345.80866224976688
 20
273.52272068512889
 30
0.0
 11
345.80866224976688
 21
265.22779999011101
 31
0.0
  0
LINE
  5
C6CE
  8
0
 10
374.73428809197088
 20
209.76816254206369
 30
0.0
 11
374.73428809197088
 21
172.25331357697971
 31
0.0
  0
ARC
  5
C6CF
  8
0
 10
384.73428809197088
 20
172.25331357697971
 30
0.0
 40
10.0
 50
179.99999914622629
 51
206.9274392822461
  0
POLYLINE
  5
C6D0
  8
0
 66
     1
 10
0.0
 20
0.0
 30
0.0
  0
VERTEX
  5
14371
  8
0
 10
375.81848055466139
 20
167.72469613258721
 30
0.0
  0
VERTEX
  5
14372
  8
0
 10
375.8593720099966
 20
167.64507480952059
 30
0.0
  0
VERTEX
  5
14373
  8
0
 10
375.9432170699846
 20
167.48707079189279
 30
0.0
  0
VERTEX
  5
14374
  8
0
 10
376.02976469353609
 20
167.33078654240691
 30
0.0
  0
VERTEX
  5
14375
  8
0
 10
376.07403345504002
 20
167.2533146146281
 30
0.0
  0
VERTEX
  5
14376
  8
0
 10
376.118955174495
 20
167.17630277129339
 30
0.0
  0
VERTEX
  5
14377
  8
0
 10
376.21072509553329
 20
167.0236985007279
 30
0.0
  0
VERTEX
  5
14378
  8
0
 10
376.30500747686358
 20
166.87305072914631
 30
0.0
  0
VERTEX
  5
14379
  8
0
 10
376.40173195564711
 20
166.7244341032517
 30
0.0
  0
VERTEX
  5
1437A
  8
0
 10
376.50082500828302
 20
166.57792058181639
 30
0.0
  0
VERTEX
  5
1437B
  8
0
 10
376.60221189716128
 20
166.43357674772281
 30
0.0
  0
VERTEX
  5
1437C
  8
0
 10
376.653741434555
 20
166.36223848686879
 30
0.0
  0
VERTEX
  5
1437D
  8
0
 10
376.70581482045498
 20
166.29146680533631
 30
0.0
  0
VERTEX
  5
1437E
  8
0
 10
376.81155096076492
 20
166.15165508524089
 30
0.0
  0
VERTEX
  5
1437F
  8
0
 10
376.91933347986031
 20
166.01420431277779
 30
0.0
  0
VERTEX
  5
14380
  8
0
 10
377.02907169789432
 20
165.87917517869781
 30
0.0
  0
VERTEX
  5
14381
  8
0
 10
377.14067131819462
 20
165.7466259178843
 30
0.0
  0
VERTEX
  5
14382
  8
0
 10
377.25403470050179
 20
165.6166118962187
 30
0.0
  0
VERTEX
  5
14383
  8
0
 10
377.31134645437783
 20
165.55257201765309
 30
0.0
  0
VERTEX
  5
14384
  8
0
 10
377.36906118572659
 20
165.4891852059672
 30
0.0
  0
VERTEX
  5
14385
  8
0
 10
377.48564747540559
 20
165.36439427044979
 30
0.0
  0
VERTEX
  5
14386
  8
0
 10
377.60368806902852
 20
165.2422834591716
 30
0.0
  0
VERTEX
  5
14387
  8
0
 10
377.66322028010552
 20
165.1822457651142
 30
0.0
  0
SEQEND
  5
14388
  8
0
  0
ARC
  5
C6D1
  8
0
 10
354.7342880919706
 20
209.76816254206369
 30
0.0
 40
20.000000000000298
 50
0.0
 51
30.00000000000005
  0
POLYLINE
  5
C6D2
  8
0
 66
     1
 10
0.0
 20
0.0
 30
0.0
  0
VERTEX
  5
14389
  8
0
 10
377.66322028010552
 20
165.1822457651142
 30
0.0
  0
VERTEX
  5
1438A
  8
0
 10
377.84315314951158
 20
165.00231289570789
 30
0.0
  0
VERTEX
  5
1438B
  8
0
 10
378.20091560555812
 20
164.64455043966149
 30
0.0
  0
VERTEX
  5
1438C
  8
0
 10
378.5554730098462
 20
164.2899930353735
 30
0.0
  0
VERTEX
  5
1438D
  8
0
 10
378.73140057518953
 20
164.1140654700302
 30
0.0
  0
VERTEX
  5
1438E
  8
0
 10
378.90634838197229
 20
163.93911766324729
 30
0.0
  0
VERTEX
  5
1438F
  8
0
 10
379.2530696949118
 20
163.59239635030781
 30
0.0
  0
VERTEX
  5
14390
  8
0
 10
379.59517051002939
 20
163.25029553519039
 30
0.0
  0
VERTEX
  5
14391
  8
0
 10
379.9321906045717
 20
162.91327544064799
 30
0.0
  0
VERTEX
  5
14392
  8
0
 10
380.26367659079739
 20
162.58178945442231
 30
0.0
  0
VERTEX
  5
14393
  8
0
 10
380.58918252591241
 20
162.25628351930729
 30
0.0
  0
VERTEX
  5
14394
  8
0
 10
380.74955580076301
 20
162.09591024445669
 30
0.0
  0
VERTEX
  5
14395
  8
0
 10
380.90827051198988
 20
161.93719553322961
 30
0.0
  0
VERTEX
  5
14396
  8
0
 10
381.22051128506718
 20
161.6249547601526
 30
0.0
  0
VERTEX
  5
14397
  8
0
 10
381.52548479262771
 20
161.31998125259199
 30
0.0
  0
VERTEX
  5
14398
  8
0
 10
381.82278075869073
 20
161.02268528652891
 30
0.0
  0
VERTEX
  5
14399
  8
0
 10
382.11199923574941
 20
160.7334668094702
 30
0.0
  0
VERTEX
  5
1439A
  8
0
 10
382.39275114281378
 20
160.45271490240589
 30
0.0
  0
VERTEX
  5
1439B
  8
0
 10
382.52983364522458
 20
160.31563239999511
 30
0.0
  0
VERTEX
  5
1439C
  8
0
 10
382.66465878883491
 20
160.1808072563847
 30
0.0
  0
VERTEX
  5
1439D
  8
0
 10
382.92735638080671
 20
159.9181096644129
 30
0.0
  0
VERTEX
  5
1439E
  8
0
 10
383.18049051586138
 20
159.66497552935829
 30
0.0
  0
VERTEX
  5
1439F
  8
0
 10
383.303364353929
 20
159.54210169129081
 30
0.0
  0
SEQEND
  5
143A0
  8
0
  0
POLYLINE
  5
C6D3
  8
0
 66
     1
 10
0.0
 20
0.0
 30
0.0
  0
VERTEX
  5
143A1
  8
0
 10
383.303364353929
 20
159.54210169129081
 30
0.0
  0
VERTEX
  5
143A2
  8
0
 10
383.52641739381397
 20
159.31177952592151
 30
0.0
  0
VERTEX
  5
143A3
  8
0
 10
383.94029969769429
 20
158.84180207115739
 30
0.0
  0
VERTEX
  5
143A4
  8
0
 10
384.3103215059607
 20
158.36556631912339
 30
0.0
  0
VERTEX
  5
143A5
  8
0
 10
384.47873459250582
 20
158.12755750089261
 30
0.0
  0
SEQEND
  5
143A6
  8
0
  0
POLYLINE
  5
C6D4
  8
0
 66
     1
 10
0.0
 20
0.0
 30
0.0
  0
VERTEX
  5
143A7
  8
0
 10
384.47873459250582
 20
158.12755750089261
 30
0.0
  0
VERTEX
  5
143A8
  8
0
 10
384.55122401613681
 20
158.02039831881001
 30
0.0
  0
VERTEX
  5
143A9
  8
0
 10
384.69201374528137
 20
157.8033115205069
 30
0.0
  0
VERTEX
  5
143AA
  8
0
 10
384.82713982692871
 20
157.5826548462623
 30
0.0
  0
VERTEX
  5
143AB
  8
0
 10
384.89255057990789
 20
157.47103387942519
 30
0.0
  0
SEQEND
  5
143AC
  8
0
  0
LINE
  5
C6D5
  8
0
 10
345.80866224976688
 20
265.22779999011101
 30
0.0
 11
372.05479616765967
 21
219.76816254206389
 31
0.0
  0
LINE
  5
C6D6
  8
0
 10
384.89255057990789
 20
157.47103387942519
 30
0.0
 11
387.50982350575129
 21
152.93778419458999
 31
0.0
  0
POLYLINE
  5
C6D7
  8
0
 66
     1
 10
0.0
 20
0.0
 30
0.0
  0
VERTEX
  5
143AD
  8
0
 10
387.50982350575129
 20
152.93778419458999
 30
0.0
  0
VERTEX
  5
143AE
  8
0
 10
387.57386947777093
 20
152.82685331703189
 30
0.0
  0
VERTEX
  5
143AF
  8
0
 10
387.70465567849999
 20
152.60032497244009
 30
0.0
  0
VERTEX
  5
143B0
  8
0
 10
387.83900476663388
 20
152.3676255258417
 30
0.0
  0
VERTEX
  5
143B1
  8
0
 10
387.90750412299889
 20
152.24898116033179
 30
0.0
  0
VERTEX
  5
143B2
  8
0
 10
387.97688055753741
 20
152.12881765086311
 30
0.0
  0
VERTEX
  5
143B3
  8
0
 10
388.11824591671819
 20
151.8839656663317
 30
0.0
  0
VERTEX
  5
143B4
  8
0
 10
388.26306276982842
 20
151.63313551895271
 30
0.0
  0
VERTEX
  5
143B5
  8
0
 10
388.41129211291877
 20
151.3763947655477
 30
0.0
  0
VERTEX
  5
143B6
  8
0
 10
388.56289402294442
 20
151.11381255485861
 30
0.0
  0
VERTEX
  5
143B7
  8
0
 10
388.71782766851692
 20
150.84545960892521
 30
0.0
  0
VERTEX
  5
143B8
  8
0
 10
388.7965308866506
 20
150.7091416363985
 30
0.0
  0
VERTEX
  5
143B9
  8
0
 10
388.87605132090181
 20
150.57140820403561
 30
0.0
  0
VERTEX
  5
143BA
  8
0
 10
389.0375223652573
 20
150.2917321512607
 30
0.0
  0
VERTEX
  5
143BB
  8
0
 10
389.20219731211211
 20
150.0065067765745
 30
0.0
  0
VERTEX
  5
143BC
  8
0
 10
389.37003180907828
 20
149.71580890056609
 30
0.0
  0
VERTEX
  5
143BD
  8
0
 10
389.54098065279732
 20
149.4197168177497
 30
0.0
  0
VERTEX
  5
143BE
  8
0
 10
389.7149978011139
 20
149.11831027547711
 30
0.0
  0
VERTEX
  5
143BF
  8
0
 10
389.80314237501182
 20
148.9656393950745
 30
0.0
  0
VERTEX
  5
143C0
  8
0
 10
389.89203638547781
 20
148.8116704524586
 30
0.0
  0
VERTEX
  5
143C1
  8
0
 10
390.07204872356641
 20
148.49987993689999
 30
0.0
  0
VERTEX
  5
143C2
  8
0
 10
390.25498633212698
 20
148.18302270425781
 30
0.0
  0
VERTEX
  5
143C3
  8
0
 10
390.3475367460228
 20
148.02272068512889
 30
0.0
  0
SEQEND
  5
143C4
  8
0
  0
POLYLINE
  5
C6D8
  8
0
 66
     1
 10
0.0
 20
0.0
 30
0.0
  0
VERTEX
  5
143C5
  8
0
 10
390.3475367460228
 20
148.02272068512889
 30
0.0
  0
VERTEX
  5
143C6
  8
0
 10
390.49463296969492
 20
147.77618430090391
 30
0.0
  0
VERTEX
  5
143C7
  8
0
 10
390.80728248750103
 20
147.29981375934099
 30
0.0
  0
VERTEX
  5
143C8
  8
0
 10
391.1425439044009
 20
146.8471323305632
 30
0.0
  0
VERTEX
  5
143C9
  8
0
 10
391.31782506198562
 20
146.6301916710151
 30
0.0
  0
VERTEX
  5
143CA
  8
0
 10
391.49771471840182
 20
146.41978516439849
 30
0.0
  0
VERTEX
  5
143CB
  8
0
 10
391.86969008816419
 20
146.019327332046
 30
0.0
  0
VERTEX
  5
143CC
  8
0
 10
392.26124856169122
 20
145.64138150823169
 30
0.0
  0
VERTEX
  5
143CD
  8
0
 10
392.68210557495797
 20
145.27767668023191
 30
0.0
  0
VERTEX
  5
143CE
  8
0
 10
393.13127648666187
 20
144.93157863256641
 30
0.0
  0
VERTEX
  5
143CF
  8
0
 10
393.60721420814468
 20
144.60644047058301
 30
0.0
  0
VERTEX
  5
143D0
  8
0
 10
393.85466844695679
 20
144.45269558710061
 30
0.0
  0
VERTEX
  5
143D1
  8
0
 10
394.1081115201066
 20
144.30531607640069
 30
0.0
  0
VERTEX
  5
143D2
  8
0
 10
394.63182756332958
 20
144.0310052819091
 30
0.0
  0
VERTEX
  5
143D3
  8
0
 10
395.17591665616072
 20
143.7860145260365
 30
0.0
  0
VERTEX
  5
143D4
  8
0
 10
395.73804790044699
 20
143.5723883377284
 30
0.0
  0
VERTEX
  5
143D5
  8
0
 10
396.31541212594408
 20
143.39198358133669
 30
0.0
  0
VERTEX
  5
143D6
  8
0
 10
396.90466514361538
 20
143.24637870352259
 30
0.0
  0
VERTEX
  5
143D7
  8
0
 10
397.20265086866237
 20
143.18699651826981
 30
0.0
  0
VERTEX
  5
143D8
  8
0
 10
397.25248710432209
 20
143.1779805162582
 30
0.0
  0
VERTEX
  5
143D9
  8
0
 10
397.35228784806731
 20
143.16070719753131
 30
0.0
  0
VERTEX
  5
143DA
  8
0
 10
397.45224506801361
 20
143.14444768192169
 30
0.0
  0
VERTEX
  5
143DB
  8
0
 10
397.50227682425248
 20
143.1366988503662
 30
0.0
  0
VERTEX
  5
143DC
  8
0
 10
397.55234102331571
 20
143.12920432366721
 30
0.0
  0
VERTEX
  5
143DD
  8
0
 10
397.65255768184568
 20
143.11497910396179
 30
0.0
  0
VERTEX
  5
143DE
  8
0
 10
397.75287674845492
 20
143.10177361523051
 30
0.0
  0
VERTEX
  5
143DF
  8
0
 10
397.85327969421598
 20
143.08958904682501
 30
0.0
  0
VERTEX
  5
143E0
  8
0
 10
397.95374778662239
 20
143.07842617219529
 30
0.0
  0
VERTEX
  5
143E1
  8
0
 10
398.0542621207199
 20
143.0682853375786
 30
0.0
  0
VERTEX
  5
143E2
  8
0
 10
398.10453068131682
 20
143.06359817422751
 30
0.0
  0
VERTEX
  5
143E3
  8
0
 10
398.15480365114308
 20
143.05916645225551
 30
0.0
  0
VERTEX
  5
143E4
  8
0
 10
398.25535322502998
 20
143.05106898041871
 30
0.0
  0
VERTEX
  5
143E5
  8
0
 10
398.35589161578179
 20
143.04399193469931
 30
0.0
  0
VERTEX
  5
143E6
  8
0
 10
398.45639955763971
 20
143.03793387139871
 30
0.0
  0
VERTEX
  5
143E7
  8
0
 10
398.55685778104021
 20
143.03289288746581
 30
0.0
  0
VERTEX
  5
143E8
  8
0
 10
398.6572470487165
 20
143.02886661926681
 30
0.0
  0
VERTEX
  5
143E9
  8
0
 10
398.70740983038758
 20
143.0272331391015
 30
0.0
  0
VERTEX
  5
143EA
  8
0
 10
398.75754819250591
 20
143.02585224318821
 30
0.0
  0
VERTEX
  5
143EB
  8
0
 10
398.85774215082353
 20
143.0238464781132
 30
0.0
  0
VERTEX
  5
143EC
  8
0
 10
398.9578100067597
 20
143.0228455898129
 30
0.0
  0
VERTEX
  5
143ED
  8
0
 10
399.00779078386722
 20
143.02272068512889
 30
0.0
  0
SEQEND
  5
143EE
  8
0
  0
LINE
  5
C6D9
  8
0
 10
426.95875267819048
 20
152.93778419458999
 30
0.0
 11
429.57602560403387
 21
157.47103387942519
 31
0.0
  0
POLYLINE
  5
C6DA
  8
0
 66
     1
 10
0.0
 20
0.0
 30
0.0
  0
VERTEX
  5
143EF
  8
0
 10
429.57602560403387
 20
157.47103387942519
 30
0.0
  0
VERTEX
  5
143F0
  8
0
 10
429.64143635701322
 20
157.5826548462623
 30
0.0
  0
VERTEX
  5
143F1
  8
0
 10
429.77656243866051
 20
157.8033115205069
 30
0.0
  0
VERTEX
  5
143F2
  8
0
 10
429.91735216780501
 20
158.02039831881001
 30
0.0
  0
VERTEX
  5
143F3
  8
0
 10
429.989841591436
 20
158.12755750089261
 30
0.0
  0
SEQEND
  5
143F4
  8
0
  0
POLYLINE
  5
C6DB
  8
0
 66
     1
 10
0.0
 20
0.0
 30
0.0
  0
VERTEX
  5
143F5
  8
0
 10
429.989841591436
 20
158.12755750089261
 30
0.0
  0
VERTEX
  5
143F6
  8
0
 10
430.15825467798209
 20
158.36556631912481
 30
0.0
  0
VERTEX
  5
143F7
  8
0
 10
430.52827648624913
 20
158.84180207115921
 30
0.0
  0
VERTEX
  5
143F8
  8
0
 10
430.94215879012751
 20
159.31177952592131
 30
0.0
  0
VERTEX
  5
143F9
  8
0
 10
431.16521183001288
 20
159.54210169129081
 30
0.0
  0
SEQEND
  5
143FA
  8
0
  0
POLYLINE
  5
C6DC
  8
0
 66
     1
 10
0.0
 20
0.0
 30
0.0
  0
VERTEX
  5
143FB
  8
0
 10
431.16521183001288
 20
159.54210169129081
 30
0.0
  0
VERTEX
  5
143FC
  8
0
 10
431.2880856680805
 20
159.66497552935829
 30
0.0
  0
VERTEX
  5
143FD
  8
0
 10
431.54121980313511
 20
159.91810966441309
 30
0.0
  0
VERTEX
  5
143FE
  8
0
 10
431.80391739510691
 20
160.1808072563847
 30
0.0
  0
VERTEX
  5
143FF
  8
0
 10
431.93874253871718
 20
160.31563239999511
 30
0.0
  0
VERTEX
  5
14400
  8
0
 10
432.07582504112793
 20
160.45271490240589
 30
0.0
  0
VERTEX
  5
14401
  8
0
 10
432.3565769481923
 20
160.7334668094702
 30
0.0
  0
VERTEX
  5
14402
  8
0
 10
432.64579542525109
 20
161.02268528652891
 30
0.0
  0
VERTEX
  5
14403
  8
0
 10
432.94309139131411
 20
161.31998125259199
 30
0.0
  0
VERTEX
  5
14404
  8
0
 10
433.24806489887459
 20
161.6249547601526
 30
0.0
  0
VERTEX
  5
14405
  8
0
 10
433.56030567195188
 20
161.93719553322961
 30
0.0
  0
VERTEX
  5
14406
  8
0
 10
433.71902038317882
 20
162.09591024445669
 30
0.0
  0
VERTEX
  5
14407
  8
0
 10
433.87939365802941
 20
162.25628351930729
 30
0.0
  0
VERTEX
  5
14408
  8
0
 10
434.20489959314438
 20
162.58178945442231
 30
0.0
  0
VERTEX
  5
14409
  8
0
 10
434.53638557937012
 20
162.91327544064799
 30
0.0
  0
VERTEX
  5
1440A
  8
0
 10
434.87340567391237
 20
163.25029553519011
 30
0.0
  0
VERTEX
  5
1440B
  8
0
 10
435.21550648903002
 20
163.59239635030781
 30
0.0
  0
VERTEX
  5
1440C
  8
0
 10
435.56222780196953
 20
163.93911766324729
 30
0.0
  0
VERTEX
  5
1440D
  8
0
 10
435.73717560875218
 20
164.1140654700302
 30
0.0
  0
VERTEX
  5
1440E
  8
0
 10
435.91310317409562
 20
164.2899930353735
 30
0.0
  0
VERTEX
  5
1440F
  8
0
 10
436.26766057838358
 20
164.64455043966149
 30
0.0
  0
VERTEX
  5
14410
  8
0
 10
436.62542303443018
 20
165.00231289570789
 30
0.0
  0
VERTEX
  5
14411
  8
0
 10
436.80535590383641
 20
165.1822457651142
 30
0.0
  0
SEQEND
  5
14412
  8
0
  0
POLYLINE
  5
C6DD
  8
0
 66
     1
 10
0.0
 20
0.0
 30
0.0
  0
VERTEX
  5
14413
  8
0
 10
436.80535590383641
 20
165.1822457651142
 30
0.0
  0
VERTEX
  5
14414
  8
0
 10
436.8648881149133
 20
165.2422834591716
 30
0.0
  0
VERTEX
  5
14415
  8
0
 10
436.98292870853618
 20
165.36439427044979
 30
0.0
  0
VERTEX
  5
14416
  8
0
 10
437.09951499821523
 20
165.4891852059672
 30
0.0
  0
VERTEX
  5
14417
  8
0
 10
437.15722972956399
 20
165.55257201765309
 30
0.0
  0
VERTEX
  5
14418
  8
0
 10
437.21454148344009
 20
165.6166118962187
 30
0.0
  0
VERTEX
  5
14419
  8
0
 10
437.32790486574709
 20
165.7466259178843
 30
0.0
  0
VERTEX
  5
1441A
  8
0
 10
437.43950448604761
 20
165.87917517869781
 30
0.0
  0
VERTEX
  5
1441B
  8
0
 10
437.54924270408162
 20
166.01420431277779
 30
0.0
  0
VERTEX
  5
1441C
  8
0
 10
437.65702522317702
 20
166.15165508524089
 30
0.0
  0
VERTEX
  5
1441D
  8
0
 10
437.76276136348679
 20
166.29146680533631
 30
0.0
  0
VERTEX
  5
1441E
  8
0
 10
437.81483474938682
 20
166.36223848686879
 30
0.0
  0
VERTEX
  5
1441F
  8
0
 10
437.86636428678048
 20
166.43357674772281
 30
0.0
  0
VERTEX
  5
14420
  8
0
 10
437.96775117565892
 20
166.57792058181639
 30
0.0
  0
VERTEX
  5
14421
  8
0
 10
438.06684422829483
 20
166.7244341032517
 30
0.0
  0
VERTEX
  5
14422
  8
0
 10
438.16356870707818
 20
166.87305072914631
 30
0.0
  0
VERTEX
  5
14423
  8
0
 10
438.25785108840847
 20
167.0236985007279
 30
0.0
  0
VERTEX
  5
14424
  8
0
 10
438.34962100944682
 20
167.17630277129339
 30
0.0
  0
VERTEX
  5
14425
  8
0
 10
438.39454272890191
 20
167.2533146146281
 30
0.0
  0
VERTEX
  5
14426
  8
0
 10
438.43881149040578
 20
167.33078654240691
 30
0.0
  0
VERTEX
  5
14427
  8
0
 10
438.52535911395722
 20
167.48707079189279
 30
0.0
  0
VERTEX
  5
14428
  8
0
 10
438.60920417394522
 20
167.64507480952059
 30
0.0
  0
VERTEX
  5
14429
  8
0
 10
438.65009562928037
 20
167.72469613258721
 30
0.0
  0
SEQEND
  5
1442A
  8
0
  0
ARC
  5
C6DE
  8
0
 10
429.73428809197088
 20
172.25331357697971
 30
0.0
 40
10.000000000000041
 50
333.0725607177539
 51
0.0
  0
LINE
  5
C6DF
  8
0
 10
439.73428809197088
 20
172.25331357697971
 30
0.0
 11
439.73428809197088
 21
209.76816254206369
 31
0.0
  0
ARC
  5
C6E0
  8
0
 10
459.73428809197088
 20
209.76816254206389
 30
0.0
 40
19.999999999999979
 50
149.99999999999989
 51
180.0
  0
LINE
  5
C6E1
  8
0
 10
442.41378001628209
 20
219.76816254206389
 30
0.0
 11
468.65991393417488
 21
265.22779999011101
 31
0.0
  0
LINE
  5
C6E4
  8
0
 10
426.95875267819048
 20
273.52272068512889
 30
0.0
 11
426.95875267819048
 21
152.93778419458999
 31
0.0
  0
POLYLINE
  5
C6E5
  8
0
 66
     1
 10
0.0
 20
0.0
 30
0.0
  0
VERTEX
  5
1442B
  8
0
 10
424.12103943791908
 20
148.02272068512889
 30
0.0
  0
VERTEX
  5
1442C
  8
0
 10
424.21358985181479
 20
148.18302270425781
 30
0.0
  0
VERTEX
  5
1442D
  8
0
 10
424.39652746037552
 20
148.49987993689999
 30
0.0
  0
VERTEX
  5
1442E
  8
0
 10
424.57653979846401
 20
148.8116704524586
 30
0.0
  0
VERTEX
  5
1442F
  8
0
 10
424.66543380893
 20
148.9656393950745
 30
0.0
  0
VERTEX
  5
14430
  8
0
 10
424.75357838282792
 20
149.11831027547711
 30
0.0
  0
VERTEX
  5
14431
  8
0
 10
424.9275955311445
 20
149.4197168177497
 30
0.0
  0
VERTEX
  5
14432
  8
0
 10
425.09854437486348
 20
149.71580890056609
 30
0.0
  0
VERTEX
  5
14433
  8
0
 10
425.26637887182972
 20
150.0065067765745
 30
0.0
  0
VERTEX
  5
14434
  8
0
 10
425.43105381868452
 20
150.2917321512607
 30
0.0
  0
VERTEX
  5
14435
  8
0
 10
425.59252486304013
 20
150.57140820403561
 30
0.0
  0
VERTEX
  5
14436
  8
0
 10
425.67204529729128
 20
150.7091416363985
 30
0.0
  0
VERTEX
  5
14437
  8
0
 10
425.7507485154249
 20
150.84545960892521
 30
0.0
  0
VERTEX
  5
14438
  8
0
 10
425.9056821609974
 20
151.11381255485861
 30
0.0
  0
VERTEX
  5
14439
  8
0
 10
426.0572840710231
 20
151.3763947655475
 30
0.0
  0
VERTEX
  5
1443A
  8
0
 10
426.2055134141134
 20
151.63313551895271
 30
0.0
  0
VERTEX
  5
1443B
  8
0
 10
426.35033026722363
 20
151.8839656663317
 30
0.0
  0
VERTEX
  5
1443C
  8
0
 10
426.49169562640441
 20
152.12881765086311
 30
0.0
  0
VERTEX
  5
1443D
  8
0
 10
426.56107206094288
 20
152.24898116033179
 30
0.0
  0
VERTEX
  5
1443E
  8
0
 10
426.629571417308
 20
152.3676255258417
 30
0.0
  0
VERTEX
  5
1443F
  8
0
 10
426.76392050544177
 20
152.60032497244009
 30
0.0
  0
VERTEX
  5
14440
  8
0
 10
426.89470670617089
 20
152.82685331703189
 30
0.0
  0
VERTEX
  5
14441
  8
0
 10
426.95875267819048
 20
152.93778419458999
 30
0.0
  0
SEQEND
  5
14442
  8
0
  0
POLYLINE
  5
C6E6
  8
0
 66
     1
 10
0.0
 20
0.0
 30
0.0
  0
VERTEX
  5
14443
  8
0
 10
415.4607854000746
 20
143.02272068512889
 30
0.0
  0
VERTEX
  5
14444
  8
0
 10
415.51078692444139
 20
143.02284569353219
 30
0.0
  0
VERTEX
  5
14445
  8
0
 10
415.6108876016313
 20
143.02384728213539
 30
0.0
  0
VERTEX
  5
14446
  8
0
 10
415.71110325307438
 20
143.0258541274284
 30
0.0
  0
VERTEX
  5
14447
  8
0
 10
415.76124845307328
 20
143.0272356066655
 30
0.0
  0
VERTEX
  5
14448
  8
0
 10
415.81141548812019
 20
143.02886964854861
 30
0.0
  0
VERTEX
  5
14449
  8
0
 10
415.91180577331897
 20
143.03289683168069
 30
0.0
  0
VERTEX
  5
1444A
  8
0
 10
416.01225546909689
 20
143.0379382256572
 30
0.0
  0
VERTEX
  5
1444B
  8
0
 10
416.1127458658425
 20
143.04399593939729
 30
0.0
  0
VERTEX
  5
1444C
  8
0
 10
416.21325821935937
 20
143.05107164115219
 30
0.0
  0
VERTEX
  5
1444D
  8
0
 10
416.31377378564503
 20
143.0591665595127
 30
0.0
  0
VERTEX
  5
1444E
  8
0
 10
416.3640269245256
 20
143.0635964892717
 30
0.0
  0
VERTEX
  5
1444F
  8
0
 10
416.41427385495138
 20
143.06828148613749
 30
0.0
  0
VERTEX
  5
14450
  8
0
 10
416.514739785095
 20
143.0784167801641
 30
0.0
  0
VERTEX
  5
14451
  8
0
 10
416.6151530339755
 20
143.08957237425579
 30
0.0
  0
VERTEX
  5
14452
  8
0
 10
416.71549519127399
 20
143.10174778223919
 30
0.0
  0
VERTEX
  5
14453
  8
0
 10
416.81574800929752
 20
143.11494210829301
 30
0.0
  0
VERTEX
  5
14454
  8
0
 10
416.91589343294089
 20
143.12915405763351
 30
0.0
  0
VERTEX
  5
14455
  8
0
 10
416.96592028947919
 20
143.13664113028511
 30
0.0
  0
VERTEX
  5
14456
  8
0
 10
417.01591362873978
 20
143.14438194866051
 30
0.0
  0
VERTEX
  5
14457
  8
0
 10
417.11579101298872
 20
143.1606237265089
 30
0.0
  0
VERTEX
  5
14458
  8
0
 10
417.21550827890189
 20
143.17787697796319
 30
0.0
  0
VERTEX
  5
14459
  8
0
 10
417.26530154129529
 20
143.18688205814459
 30
0.0
  0
VERTEX
  5
1445A
  8
0
 10
417.56301530379909
 20
143.246186052045
 30
0.0
  0
VERTEX
  5
1445B
  8
0
 10
418.15169052000527
 20
143.39157175909051
 30
0.0
  0
VERTEX
  5
1445C
  8
0
 10
418.72851288854201
 20
143.57169126706449
 30
0.0
  0
VERTEX
  5
1445D
  8
0
 10
419.29021981948102
 20
143.78500278364109
 30
0.0
  0
VERTEX
  5
1445E
  8
0
 10
419.83401956968959
 20
144.02967765744839
 30
0.0
  0
VERTEX
  5
1445F
  8
0
 10
420.35767504629541
 20
144.30374873926641
 30
0.0
  0
VERTEX
  5
14460
  8
0
 10
420.6111957554055
 20
144.45106546739521
 30
0.0
  0
VERTEX
  5
14461
  8
0
 10
420.85880633083571
 20
144.6048011065711
 30
0.0
  0
VERTEX
  5
14462
  8
0
 10
421.33530558582657
 20
144.9301307049561
 30
0.0
  0
VERTEX
  5
14463
  8
0
 10
421.78539355947578
 20
145.27679713592991
 30
0.0
  0
VERTEX
  5
14464
  8
0
 10
422.20754800233198
 20
145.6415829416112
 30
0.0
  0
VERTEX
  5
14465
  8
0
 10
422.60051708309368
 20
146.02099007802209
 30
0.0
  0
VERTEX
  5
14466
  8
0
 10
422.97125941528611
 20
146.4202378137513
 30
0.0
  0
VERTEX
  5
14467
  8
0
 10
423.1507815622283
 20
146.63022828966521
 30
0.0
  0
VERTEX
  5
14468
  8
0
 10
423.32583250906799
 20
146.84687791079321
 30
0.0
  0
VERTEX
  5
14469
  8
0
 10
423.66096024309621
 20
147.29933597467331
 30
0.0
  0
VERTEX
  5
1446A
  8
0
 10
423.97378288304049
 20
147.7759241524798
 30
0.0
  0
VERTEX
  5
1446B
  8
0
 10
424.12103943791908
 20
148.02272068512889
 30
0.0
  0
SEQEND
  5
1446C
  8
0
  0
LINE
  5
C6E7
  8
0
 10
399.00779078386722
 20
143.02272068512889
 30
0.0
 11
415.4607854000746
 21
143.02272068512889
 31
0.0
  0
LINE
  5
C712
  8
0
 10
337.23428809197088
 20
273.52272068512889
 30
0.0
 11
477.23428809197088
 21
273.52272068512889
 31
0.0
  0
ARC
  5
C720
  8
0
 10
407.23428809197088
 20
154.52272068512909
 30
0.0
 40
75.0
 50
118.35241444901121
 51
61.647585550988758
  0
ARC
  5
C722
  8
0
 10
407.23428809197088
 20
154.52272068512889
 30
0.0
 40
61.832662348034901
 50
121.7094635651716
 51
58.290536434828383
  0
ARC
  5
C72A
  8
0
 10
407.23428809197088
 20
154.52272068512889
 30
0.0
 40
24.358818170688281
 50
168.29878551836191
 51
11.701214481638059
  0
ARC
  5
C733
  8
0
 10
407.23428809197088
 20
154.52272068512889
 30
0.0
 40
70.062472123098814
 50
118.5757809469672
 51
61.424219053032772
  0
LINE
  5
C737
  8
1
 10
316.51073923940589
 20
154.52272068512889
 30
0.0
 11
497.95783694453689
 21
154.52272068512889
 31
0.0
  0
LINE
  5
C738
  8
1
 10
407.23428809197128
 20
63.799171832563381
 30
0.0
 11
407.23428809197128
 21
289.2462695376949
 31
0.0
  0
LINE
  5
107D9
  8
0
 10
678.38128620435725
 20
270.65664807774027
 30
0.0
 11
677.73488996200695
 21
269.27044686262838
 31
0.0
  0
LINE
  5
107DB
  8
0
 10
407.23428809197128
 20
164.52531409883929
 30
0.0
 11
415.8967880919709
 21
159.52401739198399
 31
0.0
  0
LINE
  5
107DC
  8
0
 10
415.8967880919709
 20
159.52401739198399
 30
0.0
 11
415.8967880919709
 21
149.52142397827379
 31
0.0
  0
LINE
  5
107DD
  8
0
 10
415.8967880919709
 20
149.52142397827379
 30
0.0
 11
407.23428809197128
 21
144.5201272714184
 31
0.0
  0
LINE
  5
107DE
  8
0
 10
407.23428809197043
 20
164.52531409883929
 30
0.0
 11
398.5717880919708
 21
159.52401739198419
 31
0.0
  0
LINE
  5
107DF
  8
0
 10
398.5717880919708
 20
159.52401739198419
 30
0.0
 11
398.5717880919708
 21
149.52142397827379
 31
0.0
  0
LINE
  5
107E0
  8
0
 10
398.5717880919708
 20
149.52142397827379
 30
0.0
 11
407.2342880919702
 21
144.5201272714184
 31
0.0
  0
LINE
  5
10828
  8
1
 10
316.51073923940521
 20
467.30690611222349
 30
0.0
 11
497.95783694453752
 21
467.30690611222349
 31
0.0
  0
LINE
  5
1082A
  8
1
 10
407.23428809197128
 20
527.54394044018613
 30
0.0
 11
407.23428809197128
 21
407.06987178426078
 31
0.0
  0
LINE
  5
1086D
  8
1
 10
666.28514249370085
 20
63.799171832563381
 30
0.0
 11
666.28514249370085
 21
289.2462695376949
 31
0.0
  0
LINE
  5
1086F
  8
0
 10
111.10074278605801
 20
148.52272068512929
 30
0.0
 11
111.9834336902417
 21
148.52272068512929
 31
0.0
  0
LINE
  5
10870
  8
0
 10
111.9834336902417
 20
160.52272068512929
 30
0.0
 11
111.10074278605801
 21
160.52272068512929
 31
0.0
  0
LINE
  5
10871
  8
0
 10
96.18343369024177
 20
149.59622068512931
 30
0.0
 11
97.18343369024177
 21
148.59622068512931
 31
0.0
  0
LINE
  5
10872
  8
0
 10
194.12435674225571
 20
144.52012727141911
 30
0.0
 11
194.4834336902417
 21
145.86022068512941
 31
0.0
  0
LINE
  5
10873
  8
0
 10
97.18343369024177
 20
146.20772068512929
 30
0.0
 11
100.9334336902417
 21
146.20772068512929
 31
0.0
  0
LINE
  5
10874
  8
0
 10
100.9334336902417
 20
145.86022068512941
 30
0.0
 11
101.2925106382276
 21
144.52012727141911
 31
0.0
  0
LINE
  5
10875
  8
0
 10
184.9834336902417
 20
148.52272068512929
 30
0.0
 11
185.26612459442541
 21
148.52272068512929
 31
0.0
  0
LINE
  5
10876
  8
0
 10
185.26612459442541
 20
160.52272068512929
 30
0.0
 11
184.9834336902417
 21
160.52272068512929
 31
0.0
  0
LINE
  5
10877
  8
0
 10
111.9834336902417
 20
144.52272068512929
 30
0.0
 11
125.6834336902417
 21
144.52272068512929
 31
0.0
  0
LINE
  5
10878
  8
0
 10
170.68343369024171
 20
144.52272068512929
 30
0.0
 11
184.9834336902417
 21
144.52272068512929
 31
0.0
  0
LINE
  5
10879
  8
0
 10
184.9834336902417
 20
164.52272068512929
 30
0.0
 11
170.68343369024171
 21
164.52272068512929
 31
0.0
  0
LINE
  5
1087A
  8
0
 10
125.6834336902417
 20
164.52272068512929
 30
0.0
 11
111.9834336902417
 21
164.52272068512929
 31
0.0
  0
LINE
  5
1087B
  8
0
 10
96.18343369024177
 20
158.12755750089309
 30
0.0
 11
96.18343369024177
 21
149.59622068512931
 31
0.0
  0
LINE
  5
1087C
  8
0
 10
194.4834336902417
 20
152.47874523023569
 30
0.0
 11
194.4834336902417
 21
145.86022068512941
 31
0.0
  0
POLYLINE
  5
1087D
  8
0
 66
     1
 10
0.0
 20
0.0
 30
0.0
  0
VERTEX
  5
1446D
  8
0
 10
194.12435674225571
 20
149.52142397827421
 30
0.0
  0
VERTEX
  5
1446E
  8
0
 10
194.23625822968839
 20
149.0721635727466
 30
0.0
  0
VERTEX
  5
1446F
  8
0
 10
194.3948966413179
 20
148.22843757856089
 30
0.0
  0
VERTEX
  5
14470
  8
0
 10
194.47348143471851
 20
147.42229470991529
 30
0.0
  0
VERTEX
  5
14471
  8
0
 10
194.4834336902417
 20
147.02077562484669
 30
0.0
  0
SEQEND
  5
14472
  8
0
  0
POLYLINE
  5
1087E
  8
0
 66
     1
 10
0.0
 20
0.0
 30
0.0
  0
VERTEX
  5
14473
  8
0
 10
194.4834336902417
 20
147.02077562484669
 30
0.0
  0
VERTEX
  5
14474
  8
0
 10
194.47348143471851
 20
146.61925653977801
 30
0.0
  0
VERTEX
  5
14475
  8
0
 10
194.3948966413179
 20
145.81311367113219
 30
0.0
  0
VERTEX
  5
14476
  8
0
 10
194.2362582296883
 20
144.96938767694681
 30
0.0
  0
VERTEX
  5
14477
  8
0
 10
194.12435674225571
 20
144.52012727141911
 30
0.0
  0
SEQEND
  5
14478
  8
0
  0
LINE
  5
1087F
  8
0
 10
194.12435674225571
 20
144.52012727141911
 30
0.0
 11
188.95144160228239
 21
144.52012727141911
 31
0.0
  0
POLYLINE
  5
10880
  8
0
 66
     1
 10
0.0
 20
0.0
 30
0.0
  0
VERTEX
  5
14479
  8
0
 10
194.41508051588519
 20
152.40502399513571
 30
0.0
  0
VERTEX
  5
1447A
  8
0
 10
194.38299457490899
 20
151.94693377967991
 30
0.0
  0
VERTEX
  5
1447B
  8
0
 10
194.2997990654876
 20
151.0094473452989
 30
0.0
  0
VERTEX
  5
1447C
  8
0
 10
194.18995608521541
 20
150.03103568224719
 30
0.0
  0
VERTEX
  5
1447D
  8
0
 10
194.12435674225571
 20
149.52142397827421
 30
0.0
  0
SEQEND
  5
1447E
  8
0
  0
LINE
  5
10881
  8
0
 10
194.12435674225571
 20
149.52142397827421
 30
0.0
 11
192.23737708810111
 21
149.52142397827421
 31
0.0
  0
LINE
  5
10882
  8
0
 10
97.18343369024177
 20
157.18864667845671
 30
0.0
 11
97.18343369024177
 21
146.20772068512929
 31
0.0
  0
LINE
  5
10883
  8
0
 10
100.9334336902417
 20
153.43661604241331
 30
0.0
 11
100.9334336902417
 21
145.86022068512941
 31
0.0
  0
POLYLINE
  5
10884
  8
0
 66
     1
 10
0.0
 20
0.0
 30
0.0
  0
VERTEX
  5
1447F
  8
0
 10
101.2925106382276
 20
144.52012727141911
 30
0.0
  0
VERTEX
  5
14480
  8
0
 10
101.18060915079499
 20
144.96938767694681
 30
0.0
  0
VERTEX
  5
14481
  8
0
 10
101.0219707391655
 20
145.81311367113219
 30
0.0
  0
VERTEX
  5
14482
  8
0
 10
100.9433859457649
 20
146.61925653977801
 30
0.0
  0
VERTEX
  5
14483
  8
0
 10
100.9334336902417
 20
147.02077562484669
 30
0.0
  0
SEQEND
  5
14484
  8
0
  0
POLYLINE
  5
10885
  8
0
 66
     1
 10
0.0
 20
0.0
 30
0.0
  0
VERTEX
  5
14485
  8
0
 10
100.9334336902417
 20
147.02077562484669
 30
0.0
  0
VERTEX
  5
14486
  8
0
 10
100.9433859457649
 20
147.42229470991529
 30
0.0
  0
VERTEX
  5
14487
  8
0
 10
101.0219707391655
 20
148.22843757856089
 30
0.0
  0
VERTEX
  5
14488
  8
0
 10
101.18060915079499
 20
149.0721635727466
 30
0.0
  0
VERTEX
  5
14489
  8
0
 10
101.2925106382276
 20
149.52142397827421
 30
0.0
  0
SEQEND
  5
1448A
  8
0
  0
LINE
  5
10886
  8
0
 10
107.415425778201
 20
144.52012727141911
 30
0.0
 11
101.2925106382276
 21
144.52012727141911
 31
0.0
  0
LINE
  5
10887
  8
0
 10
104.1294902923823
 20
149.52142397827421
 30
0.0
 11
101.2925106382276
 21
149.52142397827421
 31
0.0
  0
POLYLINE
  5
10888
  8
0
 66
     1
 10
0.0
 20
0.0
 30
0.0
  0
VERTEX
  5
1448B
  8
0
 10
101.2925106382276
 20
149.52142397827421
 30
0.0
  0
VERTEX
  5
1448C
  8
0
 10
101.20424069968649
 20
150.21792976171531
 30
0.0
  0
VERTEX
  5
1448D
  8
0
 10
101.0672026825015
 20
151.53969548091271
 30
0.0
  0
VERTEX
  5
1448E
  8
0
 10
100.97888418543531
 20
152.80007728579511
 30
0.0
  0
VERTEX
  5
1448F
  8
0
 10
100.9522010598115
 20
153.41892624422979
 30
0.0
  0
SEQEND
  5
14490
  8
0
  0
LINE
  5
10889
  8
0
 10
184.9834336902417
 20
164.52272068512929
 30
0.0
 11
184.9834336902417
 21
144.52272068512929
 31
0.0
  0
LINE
  5
1088A
  8
0
 10
111.9834336902417
 20
164.52272068512929
 30
0.0
 11
111.9834336902417
 21
144.52272068512929
 31
0.0
  0
LINE
  5
1088B
  8
1
 10
208.36228676799271
 20
154.52272068512929
 30
0.0
 11
88.004580612490997
 21
154.52272068512929
 31
0.0
  0
LINE
  5
1088D
  8
0
 10
93.18343369024177
 20
271.52272068512929
 30
0.0
 11
93.18343369024177
 21
167.7246961325877
 31
0.0
  0
LINE
  5
1088E
  8
0
 10
93.18343369024177
 20
271.52272068512929
 30
0.0
 11
203.1834336902418
 21
271.52272068512929
 31
0.0
  0
LINE
  5
1088F
  8
0
 10
111.1834336902417
 20
271.52272068512929
 30
0.0
 11
111.1834336902417
 21
162.28780319763769
 31
0.0
  0
LINE
  5
10890
  8
0
 10
203.1834336902418
 20
271.52272068512929
 30
0.0
 11
203.1834336902418
 21
167.7246961325877
 31
0.0
  0
POLYLINE
  5
10891
  8
0
 66
     1
 10
0.0
 20
0.0
 30
0.0
  0
VERTEX
  5
14491
  8
0
 10
205.0118076831954
 20
165.1822457651146
 30
0.0
  0
VERTEX
  5
14492
  8
0
 10
205.02279515990261
 20
165.2422834591718
 30
0.0
  0
VERTEX
  5
14493
  8
0
 10
205.04348209064909
 20
165.36439427045019
 30
0.0
  0
VERTEX
  5
14494
  8
0
 10
205.0624872737873
 20
165.48918520596769
 30
0.0
  0
VERTEX
  5
14495
  8
0
 10
205.0713733849133
 20
165.5525720176536
 30
0.0
  0
VERTEX
  5
14496
  8
0
 10
205.07985649317209
 20
165.61661189621921
 30
0.0
  0
VERTEX
  5
14497
  8
0
 10
205.0956388729862
 20
165.74662591788481
 30
0.0
  0
VERTEX
  5
14498
  8
0
 10
205.10988668634889
 20
165.8791751786982
 30
0.0
  0
VERTEX
  5
14499
  8
0
 10
205.12265513042911
 20
166.01420431277819
 30
0.0
  0
VERTEX
  5
1449A
  8
0
 10
205.1340020744357
 20
166.15165508524129
 30
0.0
  0
VERTEX
  5
1449B
  8
0
 10
205.14398778631229
 20
166.29146680533671
 30
0.0
  0
VERTEX
  5
1449C
  8
0
 10
205.1484895988917
 20
166.3622384868693
 30
0.0
  0
VERTEX
  5
1449D
  8
0
 10
205.15267464343279
 20
166.43357674772321
 30
0.0
  0
VERTEX
  5
1449E
  8
0
 10
205.1601268320905
 20
166.5779205818169
 30
0.0
  0
VERTEX
  5
1449F
  8
0
 10
205.16641009025631
 20
166.72443410325209
 30
0.0
  0
VERTEX
  5
144A0
  8
0
 10
205.1715912557776
 20
166.8730507291468
 30
0.0
  0
VERTEX
  5
144A1
  8
0
 10
205.17573794002101
 20
167.02369850072839
 30
0.0
  0
VERTEX
  5
144A2
  8
0
 10
205.1789184210007
 20
167.17630277129379
 30
0.0
  0
VERTEX
  5
144A3
  8
0
 10
205.1801677926928
 20
167.25331461462861
 30
0.0
  0
VERTEX
  5
144A4
  8
0
 10
205.18120139171691
 20
167.3307865424074
 30
0.0
  0
VERTEX
  5
144A5
  8
0
 10
205.1826557000656
 20
167.4870707918933
 30
0.0
  0
VERTEX
  5
144A6
  8
0
 10
205.1833500843363
 20
167.64507480952099
 30
0.0
  0
VERTEX
  5
144A7
  8
0
 10
205.1834336902418
 20
167.7246961325877
 30
0.0
  0
SEQEND
  5
144A8
  8
0
  0
POLYLINE
  5
10892
  8
0
 66
     1
 10
0.0
 20
0.0
 30
0.0
  0
VERTEX
  5
144A9
  8
0
 10
201.81491274935519
 20
159.54210169129121
 30
0.0
  0
VERTEX
  5
144AA
  8
0
 10
201.9510632110705
 20
159.6649755293588
 30
0.0
  0
VERTEX
  5
144AB
  8
0
 10
202.216490244006
 20
159.91810966441329
 30
0.0
  0
VERTEX
  5
144AC
  8
0
 10
202.47245581847861
 20
160.18080725638509
 30
0.0
  0
VERTEX
  5
144AD
  8
0
 10
202.5967824405561
 20
160.31563239999559
 30
0.0
  0
VERTEX
  5
144AE
  8
0
 10
202.7186155880961
 20
160.45271490240631
 30
0.0
  0
VERTEX
  5
144AF
  8
0
 10
202.95463839805871
 20
160.7334668094706
 30
0.0
  0
VERTEX
  5
144B0
  8
0
 10
203.18020673065581
 20
161.02268528652939
 30
0.0
  0
VERTEX
  5
144B1
  8
0
 10
203.3950171324187
 20
161.3199812525925
 30
0.0
  0
VERTEX
  5
144B2
  8
0
 10
203.5987806223504
 20
161.6249547601528
 30
0.0
  0
VERTEX
  5
144B3
  8
0
 10
203.7912230806879
 20
161.9371955332301
 30
0.0
  0
VERTEX
  5
144B4
  8
0
 10
203.88311741537129
 20
162.09591024445709
 30
0.0
  0
VERTEX
  5
144B5
  8
0
 10
203.97208561767059
 20
162.25628351930769
 30
0.0
  0
VERTEX
  5
144B6
  8
0
 10
204.1411249218215
 20
162.5817894544227
 30
0.0
  0
VERTEX
  5
144B7
  8
0
 10
204.29811358726869
 20
162.9132754406485
 30
0.0
  0
VERTEX
  5
144B8
  8
0
 10
204.44284041967211
 20
163.25029553519059
 30
0.0
  0
VERTEX
  5
144B9
  8
0
 10
204.57511072034001
 20
163.59239635030821
 30
0.0
  0
VERTEX
  5
144BA
  8
0
 10
204.69474654815249
 20
163.9391176632478
 30
0.0
  0
VERTEX
  5
144BB
  8
0
 10
204.74977556966491
 20
164.11406547003071
 30
0.0
  0
VERTEX
  5
144BC
  8
0
 10
204.8015869589446
 20
164.28999303537401
 30
0.0
  0
VERTEX
  5
144BD
  8
0
 10
204.8954882220211
 20
164.644550439662
 30
0.0
  0
VERTEX
  5
144BE
  8
0
 10
204.9763240135151
 20
165.0023128957084
 30
0.0
  0
VERTEX
  5
144BF
  8
0
 10
205.0118076831954
 20
165.1822457651146
 30
0.0
  0
SEQEND
  5
144C0
  8
0
  0
POLYLINE
  5
10893
  8
0
 66
     1
 10
0.0
 20
0.0
 30
0.0
  0
VERTEX
  5
144C1
  8
0
 10
200.1834336902418
 20
158.12755750089309
 30
0.0
  0
VERTEX
  5
144C2
  8
0
 10
200.46440303855769
 20
158.36556631912521
 30
0.0
  0
VERTEX
  5
144C3
  8
0
 10
201.0174763544575
 20
158.84180207115969
 30
0.0
  0
VERTEX
  5
144C4
  8
0
 10
201.5542821175415
 20
159.31177952592179
 30
0.0
  0
VERTEX
  5
144C5
  8
0
 10
201.81491274935519
 20
159.54210169129121
 30
0.0
  0
SEQEND
  5
144C6
  8
0
  0
LINE
  5
10894
  8
0
 10
185.18343369024171
 20
143.02272068512929
 30
0.0
 11
187.3034878883858
 21
143.02272068512929
 31
0.0
  0
POLYLINE
  5
10895
  8
0
 66
     1
 10
0.0
 20
0.0
 30
0.0
  0
VERTEX
  5
144C7
  8
0
 10
191.36118267895259
 20
148.02272068512929
 30
0.0
  0
VERTEX
  5
144C8
  8
0
 10
191.2252791635282
 20
147.7759241524802
 30
0.0
  0
VERTEX
  5
144C9
  8
0
 10
190.94792356770211
 20
147.2993359746738
 30
0.0
  0
VERTEX
  5
144CA
  8
0
 10
190.6669189337662
 20
146.84687791079361
 30
0.0
  0
VERTEX
  5
144CB
  8
0
 10
190.5263926274535
 20
146.63022828966561
 30
0.0
  0
VERTEX
  5
144CC
  8
0
 10
190.38653237998381
 20
146.4202378137517
 30
0.0
  0
VERTEX
  5
144CD
  8
0
 10
190.110728831318
 20
146.02099007802261
 30
0.0
  0
VERTEX
  5
144CE
  8
0
 10
189.83652213484601
 20
145.6415829416116
 30
0.0
  0
VERTEX
  5
144CF
  8
0
 10
189.561431996913
 20
145.27679713593031
 30
0.0
  0
VERTEX
  5
144D0
  8
0
 10
189.289000816732
 20
144.93013070495661
 30
0.0
  0
VERTEX
  5
144D1
  8
0
 10
189.0226460843287
 20
144.60480110657161
 30
0.0
  0
VERTEX
  5
144D2
  8
0
 10
188.89276535719509
 20
144.45106546739569
 30
0.0
  0
VERTEX
  5
144D3
  8
0
 10
188.7656033037735
 20
144.30374873926689
 30
0.0
  0
VERTEX
  5
144D4
  8
0
 10
188.52091717607109
 20
144.0296776574489
 30
0.0
  0
VERTEX
  5
144D5
  8
0
 10
188.29136726383049
 20
143.7850027836416
 30
0.0
  0
VERTEX
  5
144D6
  8
0
 10
188.07928524351081
 20
143.57169126706501
 30
0.0
  0
VERTEX
  5
144D7
  8
0
 10
187.88682993956729
 20
143.39157175909099
 30
0.0
  0
VERTEX
  5
144D8
  8
0
 10
187.7158692908389
 20
143.2461860520454
 30
0.0
  0
VERTEX
  5
144D9
  8
0
 10
187.63891548465099
 20
143.1868820581451
 30
0.0
  0
VERTEX
  5
144DA
  8
0
 10
187.6266577839352
 20
143.17787697796371
 30
0.0
  0
VERTEX
  5
144DB
  8
0
 10
187.60263444006461
 20
143.1606237265093
 30
0.0
  0
VERTEX
  5
144DC
  8
0
 10
187.57927072382051
 20
143.14438194866099
 30
0.0
  0
VERTEX
  5
144DD
  8
0
 10
187.56783748344179
 20
143.1366411302856
 30
0.0
  0
VERTEX
  5
144DE
  8
0
 10
187.5565706180893
 20
143.129154057634
 30
0.0
  0
VERTEX
  5
144DF
  8
0
 10
187.53453777602579
 20
143.11494210829349
 30
0.0
  0
VERTEX
  5
144E0
  8
0
 10
187.5131755087489
 20
143.1017477822397
 30
0.0
  0
VERTEX
  5
144E1
  8
0
 10
187.4924867739814
 20
143.08957237425619
 30
0.0
  0
VERTEX
  5
144E2
  8
0
 10
187.47247416567791
 20
143.07841678016459
 30
0.0
  0
VERTEX
  5
144E3
  8
0
 10
187.45313990467679
 20
143.06828148613789
 30
0.0
  0
VERTEX
  5
144E4
  8
0
 10
187.44372774434089
 20
143.06359648927219
 30
0.0
  0
VERTEX
  5
144E5
  8
0
 10
187.43448583041339
 20
143.05916655951319
 30
0.0
  0
VERTEX
  5
144E6
  8
0
 10
187.41651339373189
 20
143.0510716411527
 30
0.0
  0
VERTEX
  5
144E7
  8
0
 10
187.3992236508256
 20
143.04399593939769
 30
0.0
  0
VERTEX
  5
144E8
  8
0
 10
187.3826172583401
 20
143.0379382256576
 30
0.0
  0
VERTEX
  5
144E9
  8
0
 10
187.3666944696659
 20
143.0328968316812
 30
0.0
  0
VERTEX
  5
144EA
  8
0
 10
187.35145513245001
 20
143.028869648549
 30
0.0
  0
VERTEX
  5
144EB
  8
0
 10
187.34409159924999
 20
143.0272356066659
 30
0.0
  0
VERTEX
  5
144EC
  8
0
 10
187.33689868734751
 20
143.0258541274288
 30
0.0
  0
VERTEX
  5
144ED
  8
0
 10
187.32302416803881
 20
143.0238472821359
 30
0.0
  0
VERTEX
  5
144EE
  8
0
 10
187.30983020252879
 20
143.02284569353259
 30
0.0
  0
VERTEX
  5
144EF
  8
0
 10
187.3034878883858
 20
143.02272068512929
 30
0.0
  0
SEQEND
  5
144F0
  8
0
  0
LINE
  5
10896
  8
0
 10
193.93343369024171
 20
155.93778419459039
 30
0.0
 11
195.46668337507691
 21
157.4710338794257
 31
0.0
  0
LINE
  5
10897
  8
0
 10
199.466683375077
 20
157.4710338794257
 30
0.0
 11
194.93343369024171
 21
152.93778419459039
 31
0.0
  0
POLYLINE
  5
10898
  8
0
 66
     1
 10
0.0
 20
0.0
 30
0.0
  0
VERTEX
  5
144F1
  8
0
 10
194.93343369024171
 20
152.93778419459039
 30
0.0
  0
VERTEX
  5
144F2
  8
0
 10
194.8235464954013
 20
152.8268533170324
 30
0.0
  0
VERTEX
  5
144F3
  8
0
 10
194.60536719090021
 20
152.6003249724406
 30
0.0
  0
VERTEX
  5
144F4
  8
0
 10
194.3893635758117
 20
152.36762552584219
 30
0.0
  0
VERTEX
  5
144F5
  8
0
 10
194.2821958553946
 20
152.24898116033219
 30
0.0
  0
VERTEX
  5
144F6
  8
0
 10
194.17559382702481
 20
152.12881765086351
 30
0.0
  0
VERTEX
  5
144F7
  8
0
 10
193.96411551977471
 20
151.88396566633219
 30
0.0
  0
VERTEX
  5
144F8
  8
0
 10
193.7549856121359
 20
151.63313551895311
 30
0.0
  0
VERTEX
  5
144F9
  8
0
 10
193.54826042968179
 20
151.3763947655479
 30
0.0
  0
VERTEX
  5
144FA
  8
0
 10
193.34399565031379
 20
151.11381255485909
 30
0.0
  0
VERTEX
  5
144FB
  8
0
 10
193.1422462892657
 20
150.84545960892569
 30
0.0
  0
VERTEX
  5
144FC
  8
0
 10
193.0423318980238
 20
150.7091416363989
 30
0.0
  0
VERTEX
  5
144FD
  8
0
 10
192.94306668428641
 20
150.571408204036
 30
0.0
  0
VERTEX
  5
144FE
  8
0
 10
192.74651048100489
 20
150.2917321512609
 30
0.0
  0
VERTEX
  5
144FF
  8
0
 10
192.55263061848149
 20
150.00650677657489
 30
0.0
  0
VERTEX
  5
14500
  8
0
 10
192.36147931495
 20
149.71580890056649
 30
0.0
  0
VERTEX
  5
14501
  8
0
 10
192.17310805375331
 20
149.41971681775021
 30
0.0
  0
VERTEX
  5
14502
  8
0
 10
191.98756756947699
 20
149.1183102754776
 30
0.0
  0
VERTEX
  5
14503
  8
0
 10
191.89587451513711
 20
148.9656393950749
 30
0.0
  0
VERTEX
  5
14504
  8
0
 10
191.8049078342859
 20
148.81167045245911
 30
0.0
  0
VERTEX
  5
14505
  8
0
 10
191.6251780444635
 20
148.49987993690041
 30
0.0
  0
VERTEX
  5
14506
  8
0
 10
191.44842660716279
 20
148.18302270425829
 30
0.0
  0
VERTEX
  5
14507
  8
0
 10
191.36118267895259
 20
148.02272068512929
 30
0.0
  0
SEQEND
  5
14508
  8
0
  0
POLYLINE
  5
10899
  8
0
 66
     1
 10
0.0
 20
0.0
 30
0.0
  0
VERTEX
  5
14509
  8
0
 10
195.46668337507691
 20
157.4710338794257
 30
0.0
  0
VERTEX
  5
1450A
  8
0
 10
195.53005860007889
 20
157.5338802570711
 30
0.0
  0
VERTEX
  5
1450B
  8
0
 10
195.65917541508401
 20
157.65876646103081
 30
0.0
  0
VERTEX
  5
1450C
  8
0
 10
195.7914245532516
 20
157.78255527203481
 30
0.0
  0
VERTEX
  5
1450D
  8
0
 10
195.8587150269081
 20
157.8440299628939
 30
0.0
  0
VERTEX
  5
1450E
  8
0
 10
195.9267780391088
 20
157.90522050427529
 30
0.0
  0
VERTEX
  5
1450F
  8
0
 10
196.06520724050091
 20
158.0267362096217
 30
0.0
  0
VERTEX
  5
14510
  8
0
 10
196.20668287464801
 20
158.14707668310979
 30
0.0
  0
VERTEX
  5
14511
  8
0
 10
196.3511750143399
 20
158.26621646838021
 30
0.0
  0
VERTEX
  5
14512
  8
0
 10
196.4986530942663
 20
158.3841303630615
 30
0.0
  0
VERTEX
  5
14513
  8
0
 10
196.64908591748249
 20
158.50079342410299
 30
0.0
  0
VERTEX
  5
14514
  8
0
 10
196.72540043768791
 20
158.55864816951291
 30
0.0
  0
VERTEX
  5
14515
  8
0
 10
196.8024416620089
 20
158.6161809730504
 30
0.0
  0
VERTEX
  5
14516
  8
0
 10
196.95868788756221
 20
158.73026860126629
 30
0.0
  0
VERTEX
  5
14517
  8
0
 10
197.11779154241839
 20
158.84303217509361
 30
0.0
  0
VERTEX
  5
14518
  8
0
 10
197.27971897040331
 20
158.95444784096051
 30
0.0
  0
VERTEX
  5
14519
  8
0
 10
197.44443591801291
 20
159.06449203042641
 30
0.0
  0
VERTEX
  5
1451A
  8
0
 10
197.61190754165921
 20
159.17314146516759
 30
0.0
  0
VERTEX
  5
1451B
  8
0
 10
197.69666530883481
 20
159.22693595558229
 30
0.0
  0
VERTEX
  5
1451C
  8
0
 10
197.78209841504011
 20
159.28037316190151
 30
0.0
  0
VERTEX
  5
1451D
  8
0
 10
197.9549725366343
 20
159.3861644372484
 30
0.0
  0
VERTEX
  5
1451E
  8
0
 10
198.13049333731661
 20
159.49049291252931
 30
0.0
  0
VERTEX
  5
1451F
  8
0
 10
198.21923466116101
 20
159.54210169129121
 30
0.0
  0
SEQEND
  5
14520
  8
0
  0
POLYLINE
  5
1089A
  8
0
 66
     1
 10
0.0
 20
0.0
 30
0.0
  0
VERTEX
  5
14521
  8
0
 10
200.1834336902418
 20
158.12755750089281
 30
0.0
  0
VERTEX
  5
14522
  8
0
 10
200.05787832550141
 20
158.02039831881049
 30
0.0
  0
VERTEX
  5
14523
  8
0
 10
199.81402336143921
 20
157.80331152050729
 30
0.0
  0
VERTEX
  5
14524
  8
0
 10
199.57997812259839
 20
157.58265484626281
 30
0.0
  0
VERTEX
  5
14525
  8
0
 10
199.466683375077
 20
157.4710338794257
 30
0.0
  0
SEQEND
  5
14526
  8
0
  0
LINE
  5
1089B
  8
0
 10
198.21923466116101
 20
159.54210169129121
 30
0.0
 11
199.1834336902418
 21
160.09878226028329
 31
0.0
  0
POLYLINE
  5
1089C
  8
0
 66
     1
 10
0.0
 20
0.0
 30
0.0
  0
VERTEX
  5
14527
  8
0
 10
199.1834336902418
 20
160.09878226028329
 30
0.0
  0
VERTEX
  5
14528
  8
0
 10
199.33914927379891
 20
160.1910489791085
 30
0.0
  0
VERTEX
  5
14529
  8
0
 10
199.64412010543671
 20
160.38603098798191
 30
0.0
  0
VERTEX
  5
1452A
  8
0
 10
199.93995871373519
 20
160.59460881464179
 30
0.0
  0
VERTEX
  5
1452B
  8
0
 10
200.08426340054351
 20
160.7038637812586
 30
0.0
  0
VERTEX
  5
1452C
  8
0
 10
200.2260594375941
 20
160.81635544424779
 30
0.0
  0
VERTEX
  5
1452D
  8
0
 10
200.5018365519779
 20
161.0508169018828
 30
0.0
  0
VERTEX
  5
1452E
  8
0
 10
200.76672546705319
 20
161.29751318196099
 30
0.0
  0
VERTEX
  5
1452F
  8
0
 10
201.02018388405551
 20
161.55593923092829
 30
0.0
  0
VERTEX
  5
14530
  8
0
 10
201.26169290551999
 20
161.82556598124339
 30
0.0
  0
VERTEX
  5
14531
  8
0
 10
201.4907580976045
 20
162.10584143451999
 30
0.0
  0
VERTEX
  5
14532
  8
0
 10
201.6004766864921
 20
162.24979393230251
 30
0.0
  0
VERTEX
  5
14533
  8
0
 10
201.70691050232881
 20
162.3961917916167
 30
0.0
  0
VERTEX
  5
14534
  8
0
 10
201.90970759765639
 20
162.69602262735719
 30
0.0
  0
VERTEX
  5
14535
  8
0
 10
202.09873420345721
 20
163.00472010747919
 30
0.0
  0
VERTEX
  5
14536
  8
0
 10
202.27360333149201
 20
163.32165224531721
 30
0.0
  0
VERTEX
  5
14537
  8
0
 10
202.43395697768159
 20
163.64617019564929
 30
0.0
  0
VERTEX
  5
14538
  8
0
 10
202.57946685503731
 20
163.97760958305841
 30
0.0
  0
VERTEX
  5
14539
  8
0
 10
202.64656108315339
 20
164.14571328592911
 30
0.0
  0
VERTEX
  5
1453A
  8
0
 10
202.709835065753
 20
164.31529186208559
 30
0.0
  0
VERTEX
  5
1453B
  8
0
 10
202.82479471108121
 20
164.6585257063962
 30
0.0
  0
VERTEX
  5
1453C
  8
0
 10
202.924110437747
 20
165.00660842411
 30
0.0
  0
VERTEX
  5
1453D
  8
0
 10
202.9678370293145
 20
165.1822457651146
 30
0.0
  0
SEQEND
  5
1453E
  8
0
  0
POLYLINE
  5
1089D
  8
0
 66
     1
 10
0.0
 20
0.0
 30
0.0
  0
VERTEX
  5
1453F
  8
0
 10
202.96783702931461
 20
165.1822457651146
 30
0.0
  0
VERTEX
  5
14540
  8
0
 10
202.9821301410116
 20
165.24417416722781
 30
0.0
  0
VERTEX
  5
14541
  8
0
 10
203.00862431595689
 20
165.36852088599969
 30
0.0
  0
VERTEX
  5
14542
  8
0
 10
203.0324490347156
 20
165.49317449284311
 30
0.0
  0
VERTEX
  5
14543
  8
0
 10
203.0434526226378
 20
165.5557472807775
 30
0.0
  0
VERTEX
  5
14544
  8
0
 10
203.0539667192883
 20
165.61901141478819
 30
0.0
  0
VERTEX
  5
14545
  8
0
 10
203.07355815802831
 20
165.7476204828547
 30
0.0
  0
VERTEX
  5
14546
  8
0
 10
203.09128051537979
 20
165.87896167526529
 30
0.0
  0
VERTEX
  5
14547
  8
0
 10
203.1071934926419
 20
166.01297994202901
 30
0.0
  0
VERTEX
  5
14548
  8
0
 10
203.1213609050512
 20
166.1496157496926
 30
0.0
  0
VERTEX
  5
14549
  8
0
 10
203.133850390031
 20
166.2888055882417
 30
0.0
  0
VERTEX
  5
1454A
  8
0
 10
203.13948801002579
 20
166.35933746035079
 30
0.0
  0
VERTEX
  5
1454B
  8
0
 10
203.1447330729867
 20
166.43048248118629
 30
0.0
  0
VERTEX
  5
1454C
  8
0
 10
203.15408320024309
 20
166.57457649838989
 30
0.0
  0
VERTEX
  5
1454D
  8
0
 10
203.1619777476439
 20
166.72101527186689
 30
0.0
  0
VERTEX
  5
1454E
  8
0
 10
203.16849601234111
 20
166.8697245153291
 30
0.0
  0
VERTEX
  5
1454F
  8
0
 10
203.17371920113581
 20
167.0206287714106
 30
0.0
  0
VERTEX
  5
14550
  8
0
 10
203.17772998569711
 20
167.173651355506
 30
0.0
  0
VERTEX
  5
14551
  8
0
 10
203.179306835148
 20
167.25093142660779
 30
0.0
  0
VERTEX
  5
14552
  8
0
 10
203.180612020571
 20
167.3287099161584
 30
0.0
  0
VERTEX
  5
14553
  8
0
 10
203.18244971555751
 20
167.48571886019971
 30
0.0
  0
VERTEX
  5
14554
  8
0
 10
203.1833278922696
 20
167.64459016498259
 30
0.0
  0
VERTEX
  5
14555
  8
0
 10
203.1834336902418
 20
167.7246961325877
 30
0.0
  0
SEQEND
  5
14556
  8
0
  0
LINE
  5
1089E
  8
0
 10
205.1834336902418
 20
273.52272068512929
 30
0.0
 11
205.1834336902418
 21
167.7246961325877
 31
0.0
  0
POLYLINE
  5
1089F
  8
0
 66
     1
 10
0.0
 20
0.0
 30
0.0
  0
VERTEX
  5
14557
  8
0
 10
91.18343369024177
 20
167.7246961325877
 30
0.0
  0
VERTEX
  5
14558
  8
0
 10
91.183517296147144
 20
167.64507480952099
 30
0.0
  0
VERTEX
  5
14559
  8
0
 10
91.184211680417945
 20
167.4870707918933
 30
0.0
  0
VERTEX
  5
1455A
  8
0
 10
91.185665988766516
 20
167.3307865424074
 30
0.0
  0
VERTEX
  5
1455B
  8
0
 10
91.186699587790656
 20
167.25331461462861
 30
0.0
  0
VERTEX
  5
1455C
  8
0
 10
91.187948959482739
 20
167.17630277129379
 30
0.0
  0
VERTEX
  5
1455D
  8
0
 10
91.191129440462475
 20
167.02369850072839
 30
0.0
  0
VERTEX
  5
1455E
  8
0
 10
91.195276124705799
 20
166.8730507291468
 30
0.0
  0
VERTEX
  5
1455F
  8
0
 10
91.200457290227106
 20
166.72443410325209
 30
0.0
  0
VERTEX
  5
14560
  8
0
 10
91.206740548392929
 20
166.5779205818169
 30
0.0
  0
VERTEX
  5
14561
  8
0
 10
91.214192737050496
 20
166.43357674772321
 30
0.0
  0
VERTEX
  5
14562
  8
0
 10
91.218377781591755
 20
166.3622384868693
 30
0.0
  0
VERTEX
  5
14563
  8
0
 10
91.222879594171161
 20
166.29146680533671
 30
0.0
  0
VERTEX
  5
14564
  8
0
 10
91.232865306047714
 20
166.15165508524129
 30
0.0
  0
VERTEX
  5
14565
  8
0
 10
91.244212250054318
 20
166.01420431277819
 30
0.0
  0
VERTEX
  5
14566
  8
0
 10
91.256980694134484
 20
165.8791751786982
 30
0.0
  0
VERTEX
  5
14567
  8
0
 10
91.271228507497142
 20
165.74662591788481
 30
0.0
  0
VERTEX
  5
14568
  8
0
 10
91.287010887311396
 20
165.61661189621921
 30
0.0
  0
VERTEX
  5
14569
  8
0
 10
91.295493995569984
 20
165.5525720176536
 30
0.0
  0
VERTEX
  5
1456A
  8
0
 10
91.304380106696101
 20
165.48918520596769
 30
0.0
  0
VERTEX
  5
1456B
  8
0
 10
91.323385289834334
 20
165.36439427045019
 30
0.0
  0
VERTEX
  5
1456C
  8
0
 10
91.344072220580813
 20
165.24228345917211
 30
0.0
  0
VERTEX
  5
1456D
  8
0
 10
91.355059697288013
 20
165.1822457651146
 30
0.0
  0
SEQEND
  5
1456E
  8
0
  0
POLYLINE
  5
108A0
  8
0
 66
     1
 10
0.0
 20
0.0
 30
0.0
  0
VERTEX
  5
1456F
  8
0
 10
91.355059697288013
 20
165.1822457651146
 30
0.0
  0
VERTEX
  5
14570
  8
0
 10
91.390543366968302
 20
165.0023128957084
 30
0.0
  0
VERTEX
  5
14571
  8
0
 10
91.471379158462184
 20
164.644550439662
 30
0.0
  0
VERTEX
  5
14572
  8
0
 10
91.565280421538716
 20
164.28999303537401
 30
0.0
  0
VERTEX
  5
14573
  8
0
 10
91.617091810818408
 20
164.11406547003071
 30
0.0
  0
VERTEX
  5
14574
  8
0
 10
91.672120832331004
 20
163.9391176632478
 30
0.0
  0
VERTEX
  5
14575
  8
0
 10
91.791756660143577
 20
163.59239635030821
 30
0.0
  0
VERTEX
  5
14576
  8
0
 10
91.924026960811204
 20
163.25029553519079
 30
0.0
  0
VERTEX
  5
14577
  8
0
 10
92.068753793214725
 20
162.9132754406485
 30
0.0
  0
VERTEX
  5
14578
  8
0
 10
92.225742458661955
 20
162.5817894544227
 30
0.0
  0
VERTEX
  5
14579
  8
0
 10
92.394781762812656
 20
162.25628351930769
 30
0.0
  0
VERTEX
  5
1457A
  8
0
 10
92.483749965112153
 20
162.09591024445709
 30
0.0
  0
VERTEX
  5
1457B
  8
0
 10
92.575644299795556
 20
161.9371955332301
 30
0.0
  0
VERTEX
  5
1457C
  8
0
 10
92.768086758132938
 20
161.624954760153
 30
0.0
  0
VERTEX
  5
1457D
  8
0
 10
92.971850248064754
 20
161.3199812525925
 30
0.0
  0
VERTEX
  5
1457E
  8
0
 10
93.186660649827616
 20
161.02268528652939
 30
0.0
  0
VERTEX
  5
1457F
  8
0
 10
93.412228982424764
 20
160.7334668094706
 30
0.0
  0
VERTEX
  5
14580
  8
0
 10
93.648251792387256
 20
160.45271490240631
 30
0.0
  0
VERTEX
  5
14581
  8
0
 10
93.770084939927244
 20
160.31563239999559
 30
0.0
  0
VERTEX
  5
14582
  8
0
 10
93.894411562004663
 20
160.18080725638509
 30
0.0
  0
VERTEX
  5
14583
  8
0
 10
94.150377136477289
 20
159.91810966441329
 30
0.0
  0
VERTEX
  5
14584
  8
0
 10
94.415804169412965
 20
159.6649755293588
 30
0.0
  0
VERTEX
  5
14585
  8
0
 10
94.551954631128126
 20
159.54210169129121
 30
0.0
  0
SEQEND
  5
14586
  8
0
  0
POLYLINE
  5
108A1
  8
0
 66
     1
 10
0.0
 20
0.0
 30
0.0
  0
VERTEX
  5
14587
  8
0
 10
94.551954631128126
 20
159.54210169129121
 30
0.0
  0
VERTEX
  5
14588
  8
0
 10
94.812585262941354
 20
159.31177952592199
 30
0.0
  0
VERTEX
  5
14589
  8
0
 10
95.349391026028044
 20
158.8418020711579
 30
0.0
  0
VERTEX
  5
1458A
  8
0
 10
95.902464341927327
 20
158.3655663191239
 30
0.0
  0
VERTEX
  5
1458B
  8
0
 10
96.183433690241671
 20
158.12755750089309
 30
0.0
  0
SEQEND
  5
1458C
  8
0
  0
POLYLINE
  5
108A2
  8
0
 66
     1
 10
0.0
 20
0.0
 30
0.0
  0
VERTEX
  5
1458D
  8
0
 10
107.7336062040136
 20
144.15392321447891
 30
0.0
  0
VERTEX
  5
1458E
  8
0
 10
107.7767765532889
 20
144.1058509942556
 30
0.0
  0
VERTEX
  5
1458F
  8
0
 10
107.8617494170872
 20
144.01243092837851
 30
0.0
  0
VERTEX
  5
14590
  8
0
 10
107.9447970914822
 20
143.92273167038209
 30
0.0
  0
VERTEX
  5
14591
  8
0
 10
107.9855622486465
 20
143.87930911146921
 30
0.0
  0
VERTEX
  5
14592
  8
0
 10
108.0258027562959
 20
143.8368541287841
 30
0.0
  0
VERTEX
  5
14593
  8
0
 10
108.10466534385201
 20
143.75488307895151
 30
0.0
  0
VERTEX
  5
14594
  8
0
 10
108.1812949923643
 20
143.67689297761399
 30
0.0
  0
VERTEX
  5
14595
  8
0
 10
108.2555876250978
 20
143.6029738077354
 30
0.0
  0
VERTEX
  5
14596
  8
0
 10
108.3274437559446
 20
143.53321088089041
 30
0.0
  0
VERTEX
  5
14597
  8
0
 10
108.39676944264249
 20
143.46768380945471
 30
0.0
  0
VERTEX
  5
14598
  8
0
 10
108.4304556655925
 20
143.43653189416071
 30
0.0
  0
VERTEX
  5
14599
  8
0
 10
108.4634768409816
 20
143.40646591942931
 30
0.0
  0
VERTEX
  5
1459A
  8
0
 10
108.5274847167269
 20
143.34962373126899
 30
0.0
  0
VERTEX
  5
1459B
  8
0
 10
108.5887189069294
 20
143.29721652005739
 30
0.0
  0
VERTEX
  5
1459C
  8
0
 10
108.64711272140489
 20
143.2492959679864
 30
0.0
  0
VERTEX
  5
1459D
  8
0
 10
108.7026072733147
 20
143.2059059243613
 30
0.0
  0
VERTEX
  5
1459E
  8
0
 10
108.75515139235399
 20
143.1670825287469
 30
0.0
  0
VERTEX
  5
1459F
  8
0
 10
108.7803028649034
 20
143.1493927222736
 30
0.0
  0
VERTEX
  5
145A0
  8
0
 10
108.80470051852279
 20
143.13285498608909
 30
0.0
  0
VERTEX
  5
145A1
  8
0
 10
108.8512166642744
 20
143.1032453139635
 30
0.0
  0
VERTEX
  5
145A2
  8
0
 10
108.89466899884439
 20
143.07826761747009
 30
0.0
  0
VERTEX
  5
145A3
  8
0
 10
108.9152386863019
 20
143.06751785248289
 30
0.0
  0
SEQEND
  5
145A4
  8
0
  0
LINE
  5
108A3
  8
0
 10
109.0633794920975
 20
143.02272068512929
 30
0.0
 11
111.1834336902417
 21
143.02272068512929
 31
0.0
  0
POLYLINE
  5
108A4
  8
0
 66
     1
 10
0.0
 20
0.0
 30
0.0
  0
VERTEX
  5
145A5
  8
0
 10
107.61876174388421
 20
148.02272068512929
 30
0.0
  0
VERTEX
  5
145A6
  8
0
 10
107.73084564320141
 20
147.77277932447211
 30
0.0
  0
VERTEX
  5
145A7
  8
0
 10
107.96102271717579
 20
147.29033380481431
 30
0.0
  0
VERTEX
  5
145A8
  8
0
 10
108.19597102381211
 20
146.83277524199681
 30
0.0
  0
VERTEX
  5
145A9
  8
0
 10
108.3140507433035
 20
146.61390607411539
 30
0.0
  0
VERTEX
  5
145AA
  8
0
 10
108.4319241249692
 20
146.40193186395501
 30
0.0
  0
VERTEX
  5
145AB
  8
0
 10
108.6653156010899
 20
145.99943947083989
 30
0.0
  0
VERTEX
  5
145AC
  8
0
 10
108.8984118956004
 20
145.61778859431661
 30
0.0
  0
VERTEX
  5
145AD
  8
0
 10
109.1330527446205
 20
145.25192055058179
 30
0.0
  0
VERTEX
  5
145AE
  8
0
 10
109.3661113068612
 20
144.90526630610839
 30
0.0
  0
VERTEX
  5
145AF
  8
0
 10
109.5945427958531
 20
144.5809403730097
 30
0.0
  0
VERTEX
  5
145B0
  8
0
 10
109.7061107884748
 20
144.42803721221861
 30
0.0
  0
VERTEX
  5
145B1
  8
0
 10
109.81544486726931
 20
144.28174790559589
 30
0.0
  0
VERTEX
  5
145B2
  8
0
 10
110.02607495357
 20
144.01022989913639
 30
0.0
  0
VERTEX
  5
145B3
  8
0
 10
110.22392421118469
 20
143.76861328840661
 30
0.0
  0
VERTEX
  5
145B4
  8
0
 10
110.4068811509829
 20
143.55866096206381
 30
0.0
  0
VERTEX
  5
145B5
  8
0
 10
110.5730068760318
 20
143.38197318819789
 30
0.0
  0
VERTEX
  5
145B6
  8
0
 10
110.720639126919
 20
143.23984623959859
 30
0.0
  0
VERTEX
  5
145B7
  8
0
 10
110.7871092119874
 20
143.182027801148
 30
0.0
  0
VERTEX
  5
145B8
  8
0
 10
110.8485153187214
 20
143.13313376968239
 30
0.0
  0
VERTEX
  5
145B9
  8
0
 10
110.955781287755
 20
143.06223605751211
 30
0.0
  0
VERTEX
  5
145BA
  8
0
 10
111.0419932127591
 20
143.02707366343469
 30
0.0
  0
VERTEX
  5
145BB
  8
0
 10
111.0771892613662
 20
143.02272068512929
 30
0.0
  0
SEQEND
  5
145BC
  8
0
  0
POLYLINE
  5
108A5
  8
0
 66
     1
 10
0.0
 20
0.0
 30
0.0
  0
VERTEX
  5
145BD
  8
0
 10
102.4334336902416
 20
155.93778419459039
 30
0.0
  0
VERTEX
  5
145BE
  8
0
 10
102.60026430970279
 20
155.76881935639949
 30
0.0
  0
VERTEX
  5
145BF
  8
0
 10
102.930642969601
 20
155.42136850830749
 30
0.0
  0
VERTEX
  5
145C0
  8
0
 10
103.2565107802357
 20
155.06136464921079
 30
0.0
  0
VERTEX
  5
145C1
  8
0
 10
103.417703353856
 20
154.87670998248609
 30
0.0
  0
VERTEX
  5
145C2
  8
0
 10
103.5777087811541
 20
154.68898339134989
 30
0.0
  0
VERTEX
  5
145C3
  8
0
 10
103.8940802898675
 20
154.3044063847417
 30
0.0
  0
VERTEX
  5
145C4
  8
0
 10
104.2054709782811
 20
153.90782122856959
 30
0.0
  0
VERTEX
  5
145C5
  8
0
 10
104.5117289479773
 20
153.49942137967059
 30
0.0
  0
VERTEX
  5
145C6
  8
0
 10
104.8127048043124
 20
153.07940605816651
 30
0.0
  0
VERTEX
  5
145C7
  8
0
 10
105.10825172929199
 20
152.64798015028231
 30
0.0
  0
VERTEX
  5
145C8
  8
0
 10
105.253944184104
 20
152.42805377817851
 30
0.0
  0
VERTEX
  5
145C9
  8
0
 10
105.3982255531898
 20
152.20535410840239
 30
0.0
  0
VERTEX
  5
145CA
  8
0
 10
105.6824848248752
 20
151.7517438484094
 30
0.0
  0
VERTEX
  5
145CB
  8
0
 10
105.9608908808131
 20
151.2873706443597
 30
0.0
  0
VERTEX
  5
145CC
  8
0
 10
106.2333079127058
 20
150.8124610205443
 30
0.0
  0
VERTEX
  5
145CD
  8
0
 10
106.4996030337404
 20
150.3272466409887
 30
0.0
  0
VERTEX
  5
145CE
  8
0
 10
106.7596463434126
 20
149.8319641964458
 30
0.0
  0
VERTEX
  5
145CF
  8
0
 10
106.88728380727321
 20
149.58062276179589
 30
0.0
  0
VERTEX
  5
145D0
  8
0
 10
107.01331099089241
 20
149.32685528893671
 30
0.0
  0
VERTEX
  5
145D1
  8
0
 10
107.260473236903
 20
148.8121663138952
 30
0.0
  0
VERTEX
  5
145D2
  8
0
 10
107.50101251408149
 20
148.28814833997509
 30
0.0
  0
VERTEX
  5
145D3
  8
0
 10
107.61876174388421
 20
148.02272068512929
 30
0.0
  0
SEQEND
  5
145D4
  8
0
  0
LINE
  5
108A6
  8
0
 10
101.4334336902418
 20
152.93778419459039
 30
0.0
 11
96.900184005406516
 21
157.4710338794257
 31
0.0
  0
LINE
  5
108A7
  8
0
 10
100.9001840054065
 20
157.4710338794257
 30
0.0
 11
102.4334336902418
 21
155.93778419459039
 31
0.0
  0
POLYLINE
  5
108A8
  8
0
 66
     1
 10
0.0
 20
0.0
 30
0.0
  0
VERTEX
  5
145D5
  8
0
 10
96.900184005406516
 20
157.4710338794257
 30
0.0
  0
VERTEX
  5
145D6
  8
0
 10
96.786889257885093
 20
157.58265484626281
 30
0.0
  0
VERTEX
  5
145D7
  8
0
 10
96.552844019044244
 20
157.80331152050729
 30
0.0
  0
VERTEX
  5
145D8
  8
0
 10
96.308989054982078
 20
158.02039831881049
 30
0.0
  0
VERTEX
  5
145D9
  8
0
 10
96.18343369024177
 20
158.12755750089309
 30
0.0
  0
SEQEND
  5
145DA
  8
0
  0
POLYLINE
  5
108A9
  8
0
 66
     1
 10
0.0
 20
0.0
 30
0.0
  0
VERTEX
  5
145DB
  8
0
 10
96.18343369024177
 20
158.12755750089309
 30
0.0
  0
VERTEX
  5
145DC
  8
0
 10
95.902464341925736
 20
158.36556631912521
 30
0.0
  0
VERTEX
  5
145DD
  8
0
 10
95.349391026025899
 20
158.84180207115969
 30
0.0
  0
VERTEX
  5
145DE
  8
0
 10
94.812585262941809
 20
159.31177952592179
 30
0.0
  0
VERTEX
  5
145DF
  8
0
 10
94.551954631128126
 20
159.54210169129121
 30
0.0
  0
SEQEND
  5
145E0
  8
0
  0
POLYLINE
  5
108AA
  8
0
 66
     1
 10
0.0
 20
0.0
 30
0.0
  0
VERTEX
  5
145E1
  8
0
 10
98.147632719322303
 20
159.54210169129121
 30
0.0
  0
VERTEX
  5
145E2
  8
0
 10
98.236374043166791
 20
159.49049291252931
 30
0.0
  0
VERTEX
  5
145E3
  8
0
 10
98.411894843848984
 20
159.3861644372484
 30
0.0
  0
VERTEX
  5
145E4
  8
0
 10
98.584768965443288
 20
159.28037316190151
 30
0.0
  0
VERTEX
  5
145E5
  8
0
 10
98.670202071648475
 20
159.22693595558229
 30
0.0
  0
VERTEX
  5
145E6
  8
0
 10
98.754959838824163
 20
159.17314146516759
 30
0.0
  0
VERTEX
  5
145E7
  8
0
 10
98.922431462470342
 20
159.06449203042641
 30
0.0
  0
VERTEX
  5
145E8
  8
0
 10
99.087148410080033
 20
158.95444784096051
 30
0.0
  0
VERTEX
  5
145E9
  8
0
 10
99.249075838064925
 20
158.84303217509361
 30
0.0
  0
VERTEX
  5
145EA
  8
0
 10
99.408179492921079
 20
158.73026860126629
 30
0.0
  0
VERTEX
  5
145EB
  8
0
 10
99.564425718474411
 20
158.6161809730504
 30
0.0
  0
VERTEX
  5
145EC
  8
0
 10
99.641466942795375
 20
158.55864816951291
 30
0.0
  0
VERTEX
  5
145ED
  8
0
 10
99.717781463000804
 20
158.50079342410299
 30
0.0
  0
VERTEX
  5
145EE
  8
0
 10
99.868214286216983
 20
158.3841303630615
 30
0.0
  0
VERTEX
  5
145EF
  8
0
 10
100.0156923661433
 20
158.26621646838021
 30
0.0
  0
VERTEX
  5
145F0
  8
0
 10
100.1601845058353
 20
158.14707668310979
 30
0.0
  0
VERTEX
  5
145F1
  8
0
 10
100.3016601399824
 20
158.0267362096217
 30
0.0
  0
VERTEX
  5
145F2
  8
0
 10
100.4400893413745
 20
157.90522050427529
 30
0.0
  0
VERTEX
  5
145F3
  8
0
 10
100.5081523535753
 20
157.8440299628939
 30
0.0
  0
VERTEX
  5
145F4
  8
0
 10
100.5754428272318
 20
157.78255527203481
 30
0.0
  0
VERTEX
  5
145F5
  8
0
 10
100.70769196539941
 20
157.65876646103081
 30
0.0
  0
VERTEX
  5
145F6
  8
0
 10
100.8368087804045
 20
157.5338802570711
 30
0.0
  0
VERTEX
  5
145F7
  8
0
 10
100.9001840054064
 20
157.4710338794257
 30
0.0
  0
SEQEND
  5
145F8
  8
0
  0
LINE
  5
108AB
  8
0
 10
97.18343369024177
 20
160.09878226028329
 30
0.0
 11
98.147632719322303
 21
159.54210169129121
 31
0.0
  0
POLYLINE
  5
108AC
  8
0
 66
     1
 10
0.0
 20
0.0
 30
0.0
  0
VERTEX
  5
145F9
  8
0
 10
94.551954631128126
 20
159.54210169129121
 30
0.0
  0
VERTEX
  5
145FA
  8
0
 10
94.415804169412965
 20
159.6649755293588
 30
0.0
  0
VERTEX
  5
145FB
  8
0
 10
94.150377136477388
 20
159.91810966441349
 30
0.0
  0
VERTEX
  5
145FC
  8
0
 10
93.894411562004663
 20
160.18080725638509
 30
0.0
  0
VERTEX
  5
145FD
  8
0
 10
93.770084939927358
 20
160.31563239999559
 30
0.0
  0
VERTEX
  5
145FE
  8
0
 10
93.648251792387256
 20
160.45271490240631
 30
0.0
  0
VERTEX
  5
145FF
  8
0
 10
93.412228982424764
 20
160.7334668094706
 30
0.0
  0
VERTEX
  5
14600
  8
0
 10
93.186660649827616
 20
161.02268528652939
 30
0.0
  0
VERTEX
  5
14601
  8
0
 10
92.971850248064754
 20
161.3199812525925
 30
0.0
  0
VERTEX
  5
14602
  8
0
 10
92.768086758132938
 20
161.624954760153
 30
0.0
  0
VERTEX
  5
14603
  8
0
 10
92.575644299795556
 20
161.9371955332301
 30
0.0
  0
VERTEX
  5
14604
  8
0
 10
92.483749965112153
 20
162.09591024445709
 30
0.0
  0
VERTEX
  5
14605
  8
0
 10
92.394781762812656
 20
162.25628351930769
 30
0.0
  0
VERTEX
  5
14606
  8
0
 10
92.225742458661955
 20
162.5817894544227
 30
0.0
  0
VERTEX
  5
14607
  8
0
 10
92.068753793214853
 20
162.9132754406485
 30
0.0
  0
VERTEX
  5
14608
  8
0
 10
91.924026960811204
 20
163.25029553519059
 30
0.0
  0
VERTEX
  5
14609
  8
0
 10
91.791756660143577
 20
163.59239635030821
 30
0.0
  0
VERTEX
  5
1460A
  8
0
 10
91.672120832331004
 20
163.9391176632478
 30
0.0
  0
VERTEX
  5
1460B
  8
0
 10
91.617091810818508
 20
164.11406547003071
 30
0.0
  0
VERTEX
  5
1460C
  8
0
 10
91.565280421538716
 20
164.28999303537401
 30
0.0
  0
VERTEX
  5
1460D
  8
0
 10
91.471379158462184
 20
164.644550439662
 30
0.0
  0
VERTEX
  5
1460E
  8
0
 10
91.390543366968302
 20
165.0023128957084
 30
0.0
  0
VERTEX
  5
1460F
  8
0
 10
91.355059697288013
 20
165.1822457651146
 30
0.0
  0
SEQEND
  5
14610
  8
0
  0
POLYLINE
  5
108AD
  8
0
 66
     1
 10
0.0
 20
0.0
 30
0.0
  0
VERTEX
  5
14611
  8
0
 10
93.399030351168847
 20
165.1822457651146
 30
0.0
  0
VERTEX
  5
14612
  8
0
 10
93.44275694273648
 20
165.00660842411
 30
0.0
  0
VERTEX
  5
14613
  8
0
 10
93.542072669402216
 20
164.6585257063962
 30
0.0
  0
VERTEX
  5
14614
  8
0
 10
93.657032314730429
 20
164.31529186208559
 30
0.0
  0
VERTEX
  5
14615
  8
0
 10
93.720306297330069
 20
164.14571328592911
 30
0.0
  0
VERTEX
  5
14616
  8
0
 10
93.787400525446117
 20
163.97760958305841
 30
0.0
  0
VERTEX
  5
14617
  8
0
 10
93.932910402801937
 20
163.64617019564929
 30
0.0
  0
VERTEX
  5
14618
  8
0
 10
94.093264048991443
 20
163.32165224531721
 30
0.0
  0
VERTEX
  5
14619
  8
0
 10
94.268133177026186
 20
163.00472010747899
 30
0.0
  0
VERTEX
  5
1461A
  8
0
 10
94.457159782826864
 20
162.69602262735719
 30
0.0
  0
VERTEX
  5
1461B
  8
0
 10
94.659956878154546
 20
162.3961917916167
 30
0.0
  0
VERTEX
  5
1461C
  8
0
 10
94.766390693991255
 20
162.24979393230251
 30
0.0
  0
VERTEX
  5
1461D
  8
0
 10
94.876109282878872
 20
162.10584143451999
 30
0.0
  0
VERTEX
  5
1461E
  8
0
 10
95.105174474963576
 20
161.82556598124339
 30
0.0
  0
VERTEX
  5
1461F
  8
0
 10
95.346683496428057
 20
161.55593923092829
 30
0.0
  0
VERTEX
  5
14620
  8
0
 10
95.600141913430136
 20
161.29751318196099
 30
0.0
  0
VERTEX
  5
14621
  8
0
 10
95.865030828505553
 20
161.0508169018828
 30
0.0
  0
VERTEX
  5
14622
  8
0
 10
96.140807942889467
 20
160.81635544424779
 30
0.0
  0
VERTEX
  5
14623
  8
0
 10
96.282603979939907
 20
160.7038637812586
 30
0.0
  0
VERTEX
  5
14624
  8
0
 10
96.426908666748261
 20
160.59460881464179
 30
0.0
  0
VERTEX
  5
14625
  8
0
 10
96.722747275046856
 20
160.38603098798191
 30
0.0
  0
VERTEX
  5
14626
  8
0
 10
97.027718106684645
 20
160.1910489791085
 30
0.0
  0
VERTEX
  5
14627
  8
0
 10
97.18343369024177
 20
160.09878226028329
 30
0.0
  0
SEQEND
  5
14628
  8
0
  0
POLYLINE
  5
108AE
  8
0
 66
     1
 10
0.0
 20
0.0
 30
0.0
  0
VERTEX
  5
14629
  8
0
 10
93.18343369024177
 20
167.7246961325877
 30
0.0
  0
VERTEX
  5
1462A
  8
0
 10
93.183539488213853
 20
167.64459016498259
 30
0.0
  0
VERTEX
  5
1462B
  8
0
 10
93.184417664925874
 20
167.4857188602
 30
0.0
  0
VERTEX
  5
1462C
  8
0
 10
93.186255359912437
 20
167.3287099161584
 30
0.0
  0
VERTEX
  5
1462D
  8
0
 10
93.187560545335543
 20
167.25093142660779
 30
0.0
  0
VERTEX
  5
1462E
  8
0
 10
93.189137394786201
 20
167.173651355506
 30
0.0
  0
VERTEX
  5
1462F
  8
0
 10
93.193148179347574
 20
167.0206287714106
 30
0.0
  0
VERTEX
  5
14630
  8
0
 10
93.198371368142205
 20
166.8697245153291
 30
0.0
  0
VERTEX
  5
14631
  8
0
 10
93.204889632839397
 20
166.72101527186689
 30
0.0
  0
VERTEX
  5
14632
  8
0
 10
93.212784180240362
 20
166.57457649838989
 30
0.0
  0
VERTEX
  5
14633
  8
0
 10
93.222134307496674
 20
166.43048248118629
 30
0.0
  0
VERTEX
  5
14634
  8
0
 10
93.227379370457527
 20
166.35933746035079
 30
0.0
  0
VERTEX
  5
14635
  8
0
 10
93.233016990452313
 20
166.2888055882417
 30
0.0
  0
VERTEX
  5
14636
  8
0
 10
93.245506475432137
 20
166.1496157496926
 30
0.0
  0
VERTEX
  5
14637
  8
0
 10
93.259673887841529
 20
166.01297994202901
 30
0.0
  0
VERTEX
  5
14638
  8
0
 10
93.275586865103776
 20
165.87896167526529
 30
0.0
  0
VERTEX
  5
14639
  8
0
 10
93.293309222455079
 20
165.7476204828547
 30
0.0
  0
VERTEX
  5
1463A
  8
0
 10
93.312900661195101
 20
165.61901141478819
 30
0.0
  0
VERTEX
  5
1463B
  8
0
 10
93.323414757845683
 20
165.5557472807775
 30
0.0
  0
VERTEX
  5
1463C
  8
0
 10
93.334418345767688
 20
165.49317449284311
 30
0.0
  0
VERTEX
  5
1463D
  8
0
 10
93.358243064526448
 20
165.36852088599969
 30
0.0
  0
VERTEX
  5
1463E
  8
0
 10
93.384737239471804
 20
165.24417416722781
 30
0.0
  0
VERTEX
  5
1463F
  8
0
 10
93.399030351168847
 20
165.1822457651146
 30
0.0
  0
SEQEND
  5
14640
  8
0
  0
POLYLINE
  5
108AF
  8
0
 66
     1
 10
0.0
 20
0.0
 30
0.0
  0
VERTEX
  5
14641
  8
0
 10
91.355059697288013
 20
165.1822457651146
 30
0.0
  0
VERTEX
  5
14642
  8
0
 10
91.344072220580813
 20
165.24228345917211
 30
0.0
  0
VERTEX
  5
14643
  8
0
 10
91.323385289834334
 20
165.36439427045019
 30
0.0
  0
VERTEX
  5
14644
  8
0
 10
91.304380106696101
 20
165.48918520596769
 30
0.0
  0
VERTEX
  5
14645
  8
0
 10
91.295493995569984
 20
165.5525720176536
 30
0.0
  0
VERTEX
  5
14646
  8
0
 10
91.287010887311396
 20
165.61661189621921
 30
0.0
  0
VERTEX
  5
14647
  8
0
 10
91.271228507497142
 20
165.74662591788481
 30
0.0
  0
VERTEX
  5
14648
  8
0
 10
91.256980694134484
 20
165.8791751786982
 30
0.0
  0
VERTEX
  5
14649
  8
0
 10
91.244212250054318
 20
166.01420431277819
 30
0.0
  0
VERTEX
  5
1464A
  8
0
 10
91.232865306047714
 20
166.15165508524129
 30
0.0
  0
VERTEX
  5
1464B
  8
0
 10
91.222879594171161
 20
166.29146680533671
 30
0.0
  0
VERTEX
  5
1464C
  8
0
 10
91.218377781591755
 20
166.3622384868693
 30
0.0
  0
VERTEX
  5
1464D
  8
0
 10
91.214192737050496
 20
166.43357674772321
 30
0.0
  0
VERTEX
  5
1464E
  8
0
 10
91.206740548392929
 20
166.5779205818169
 30
0.0
  0
VERTEX
  5
1464F
  8
0
 10
91.200457290227106
 20
166.72443410325209
 30
0.0
  0
VERTEX
  5
14650
  8
0
 10
91.195276124705799
 20
166.8730507291468
 30
0.0
  0
VERTEX
  5
14651
  8
0
 10
91.191129440462475
 20
167.02369850072839
 30
0.0
  0
VERTEX
  5
14652
  8
0
 10
91.187948959482739
 20
167.17630277129379
 30
0.0
  0
VERTEX
  5
14653
  8
0
 10
91.186699587790656
 20
167.25331461462861
 30
0.0
  0
VERTEX
  5
14654
  8
0
 10
91.185665988766516
 20
167.3307865424074
 30
0.0
  0
VERTEX
  5
14655
  8
0
 10
91.184211680417945
 20
167.4870707918933
 30
0.0
  0
VERTEX
  5
14656
  8
0
 10
91.183517296147144
 20
167.64507480952099
 30
0.0
  0
VERTEX
  5
14657
  8
0
 10
91.18343369024177
 20
167.7246961325877
 30
0.0
  0
SEQEND
  5
14658
  8
0
  0
LINE
  5
108B0
  8
0
 10
91.18343369024177
 20
167.7246961325877
 30
0.0
 11
91.18343369024177
 21
273.52272068512929
 31
0.0
  0
POLYLINE
  5
108B1
  8
0
 66
     1
 10
0.0
 20
0.0
 30
0.0
  0
VERTEX
  5
14659
  8
0
 10
105.0056847015307
 20
148.02272068512929
 30
0.0
  0
VERTEX
  5
1465A
  8
0
 10
104.9184407733204
 20
148.18302270425829
 30
0.0
  0
VERTEX
  5
1465B
  8
0
 10
104.74168933602
 20
148.49987993690041
 30
0.0
  0
VERTEX
  5
1465C
  8
0
 10
104.5619595461975
 20
148.81167045245911
 30
0.0
  0
VERTEX
  5
1465D
  8
0
 10
104.4709928653463
 20
148.9656393950749
 30
0.0
  0
VERTEX
  5
1465E
  8
0
 10
104.37929981100631
 20
149.1183102754776
 30
0.0
  0
VERTEX
  5
1465F
  8
0
 10
104.1937593267302
 20
149.41971681775021
 30
0.0
  0
VERTEX
  5
14660
  8
0
 10
104.0053880655334
 20
149.71580890056649
 30
0.0
  0
VERTEX
  5
14661
  8
0
 10
103.8142367620018
 20
150.00650677657489
 30
0.0
  0
VERTEX
  5
14662
  8
0
 10
103.62035689947849
 20
150.2917321512611
 30
0.0
  0
VERTEX
  5
14663
  8
0
 10
103.42380069619701
 20
150.571408204036
 30
0.0
  0
VERTEX
  5
14664
  8
0
 10
103.3245354824595
 20
150.7091416363989
 30
0.0
  0
VERTEX
  5
14665
  8
0
 10
103.2246210912178
 20
150.84545960892569
 30
0.0
  0
VERTEX
  5
14666
  8
0
 10
103.0228717301697
 20
151.11381255485909
 30
0.0
  0
VERTEX
  5
14667
  8
0
 10
102.8186069508015
 20
151.3763947655479
 30
0.0
  0
VERTEX
  5
14668
  8
0
 10
102.6118817683475
 20
151.63313551895311
 30
0.0
  0
VERTEX
  5
14669
  8
0
 10
102.4027518607087
 20
151.88396566633219
 30
0.0
  0
VERTEX
  5
1466A
  8
0
 10
102.1912735534585
 20
152.12881765086351
 30
0.0
  0
VERTEX
  5
1466B
  8
0
 10
102.08467152508879
 20
152.24898116033219
 30
0.0
  0
VERTEX
  5
1466C
  8
0
 10
101.9775038046717
 20
152.36762552584219
 30
0.0
  0
VERTEX
  5
1466D
  8
0
 10
101.7615001895831
 20
152.6003249724406
 30
0.0
  0
VERTEX
  5
1466E
  8
0
 10
101.5433208850822
 20
152.8268533170324
 30
0.0
  0
VERTEX
  5
1466F
  8
0
 10
101.4334336902418
 20
152.93778419459039
 30
0.0
  0
SEQEND
  5
14670
  8
0
  0
POLYLINE
  5
108B2
  8
0
 66
     1
 10
0.0
 20
0.0
 30
0.0
  0
VERTEX
  5
14671
  8
0
 10
109.0633794920975
 20
143.02272068512929
 30
0.0
  0
VERTEX
  5
14672
  8
0
 10
109.0570371779546
 20
143.02284569353259
 30
0.0
  0
VERTEX
  5
14673
  8
0
 10
109.0438432124446
 20
143.0238472821359
 30
0.0
  0
VERTEX
  5
14674
  8
0
 10
109.0299686931359
 20
143.0258541274288
 30
0.0
  0
VERTEX
  5
14675
  8
0
 10
109.02277578123341
 20
143.0272356066659
 30
0.0
  0
VERTEX
  5
14676
  8
0
 10
109.0154122480334
 20
143.028869648549
 30
0.0
  0
VERTEX
  5
14677
  8
0
 10
109.0001729108175
 20
143.0328968316812
 30
0.0
  0
VERTEX
  5
14678
  8
0
 10
108.98425012214329
 20
143.0379382256576
 30
0.0
  0
VERTEX
  5
14679
  8
0
 10
108.96764372965769
 20
143.04399593939769
 30
0.0
  0
VERTEX
  5
1467A
  8
0
 10
108.95035398675149
 20
143.0510716411527
 30
0.0
  0
VERTEX
  5
1467B
  8
0
 10
108.93238155006991
 20
143.05916655951319
 30
0.0
  0
VERTEX
  5
1467C
  8
0
 10
108.92313963614249
 20
143.06359648927219
 30
0.0
  0
VERTEX
  5
1467D
  8
0
 10
108.9137274758066
 20
143.06828148613789
 30
0.0
  0
VERTEX
  5
1467E
  8
0
 10
108.89439321480531
 20
143.07841678016459
 30
0.0
  0
VERTEX
  5
1467F
  8
0
 10
108.8743806065019
 20
143.08957237425619
 30
0.0
  0
VERTEX
  5
14680
  8
0
 10
108.8536918717345
 20
143.1017477822397
 30
0.0
  0
VERTEX
  5
14681
  8
0
 10
108.8323296044575
 20
143.11494210829349
 30
0.0
  0
VERTEX
  5
14682
  8
0
 10
108.8102967623942
 20
143.129154057634
 30
0.0
  0
VERTEX
  5
14683
  8
0
 10
108.79902989704161
 20
143.1366411302856
 30
0.0
  0
VERTEX
  5
14684
  8
0
 10
108.7875966566629
 20
143.14438194866099
 30
0.0
  0
VERTEX
  5
14685
  8
0
 10
108.76423294041879
 20
143.1606237265093
 30
0.0
  0
VERTEX
  5
14686
  8
0
 10
108.740209596548
 20
143.17787697796371
 30
0.0
  0
VERTEX
  5
14687
  8
0
 10
108.7279518958325
 20
143.1868820581451
 30
0.0
  0
VERTEX
  5
14688
  8
0
 10
108.6509980896444
 20
143.2461860520454
 30
0.0
  0
VERTEX
  5
14689
  8
0
 10
108.48003744091589
 20
143.39157175909099
 30
0.0
  0
VERTEX
  5
1468A
  8
0
 10
108.2875821369726
 20
143.57169126706501
 30
0.0
  0
VERTEX
  5
1468B
  8
0
 10
108.075500116653
 20
143.7850027836416
 30
0.0
  0
VERTEX
  5
1468C
  8
0
 10
107.8459502044122
 20
144.0296776574489
 30
0.0
  0
VERTEX
  5
1468D
  8
0
 10
107.60126407671
 20
144.30374873926689
 30
0.0
  0
VERTEX
  5
1468E
  8
0
 10
107.4741020232881
 20
144.45106546739569
 30
0.0
  0
VERTEX
  5
1468F
  8
0
 10
107.3442212961547
 20
144.60480110657161
 30
0.0
  0
VERTEX
  5
14690
  8
0
 10
107.0778665637513
 20
144.93013070495661
 30
0.0
  0
VERTEX
  5
14691
  8
0
 10
106.8054353835704
 20
145.27679713593031
 30
0.0
  0
VERTEX
  5
14692
  8
0
 10
106.53034524563731
 20
145.6415829416116
 30
0.0
  0
VERTEX
  5
14693
  8
0
 10
106.2561385491655
 20
146.02099007802261
 30
0.0
  0
VERTEX
  5
14694
  8
0
 10
105.98033500049969
 20
146.4202378137517
 30
0.0
  0
VERTEX
  5
14695
  8
0
 10
105.8404747530298
 20
146.63022828966561
 30
0.0
  0
VERTEX
  5
14696
  8
0
 10
105.6999484467171
 20
146.84687791079361
 30
0.0
  0
VERTEX
  5
14697
  8
0
 10
105.41894381278119
 20
147.2993359746738
 30
0.0
  0
VERTEX
  5
14698
  8
0
 10
105.1415882169553
 20
147.7759241524802
 30
0.0
  0
VERTEX
  5
14699
  8
0
 10
105.0056847015307
 20
148.02272068512929
 30
0.0
  0
SEQEND
  5
1469A
  8
0
  0
LINE
  5
108B3
  8
0
 10
111.1834336902417
 20
146.757638172621
 30
0.0
 11
111.1834336902417
 21
143.02272068512929
 31
0.0
  0
LINE
  5
108B4
  8
0
 10
185.18343369024171
 20
271.52272068512929
 30
0.0
 11
185.18343369024171
 21
162.28780319763769
 31
0.0
  0
POLYLINE
  5
108B5
  8
0
 66
     1
 10
0.0
 20
0.0
 30
0.0
  0
VERTEX
  5
1469B
  8
0
 10
188.74810563659929
 20
148.02272068512929
 30
0.0
  0
VERTEX
  5
1469C
  8
0
 10
188.86585486640169
 20
148.28814833997509
 30
0.0
  0
VERTEX
  5
1469D
  8
0
 10
189.10639414358039
 20
148.8121663138952
 30
0.0
  0
VERTEX
  5
1469E
  8
0
 10
189.35355638959089
 20
149.32685528893671
 30
0.0
  0
VERTEX
  5
1469F
  8
0
 10
189.47958357321019
 20
149.58062276179589
 30
0.0
  0
VERTEX
  5
146A0
  8
0
 10
189.6072210370707
 20
149.8319641964458
 30
0.0
  0
VERTEX
  5
146A1
  8
0
 10
189.8672643467429
 20
150.3272466409887
 30
0.0
  0
VERTEX
  5
146A2
  8
0
 10
190.13355946777759
 20
150.8124610205443
 30
0.0
  0
VERTEX
  5
146A3
  8
0
 10
190.4059764996702
 20
151.2873706443597
 30
0.0
  0
VERTEX
  5
146A4
  8
0
 10
190.68438255560821
 20
151.7517438484094
 30
0.0
  0
VERTEX
  5
146A5
  8
0
 10
190.96864182729351
 20
152.20535410840239
 30
0.0
  0
VERTEX
  5
146A6
  8
0
 10
191.11292319637931
 20
152.42805377817851
 30
0.0
  0
VERTEX
  5
146A7
  8
0
 10
191.25861565119141
 20
152.64798015028231
 30
0.0
  0
VERTEX
  5
146A8
  8
0
 10
191.55416257617091
 20
153.07940605816651
 30
0.0
  0
VERTEX
  5
146A9
  8
0
 10
191.8551384325059
 20
153.49942137967059
 30
0.0
  0
VERTEX
  5
146AA
  8
0
 10
192.16139640220231
 20
153.90782122856959
 30
0.0
  0
VERTEX
  5
146AB
  8
0
 10
192.4727870906159
 20
154.3044063847417
 30
0.0
  0
VERTEX
  5
146AC
  8
0
 10
192.7891585993292
 20
154.68898339134989
 30
0.0
  0
VERTEX
  5
146AD
  8
0
 10
192.9491640266273
 20
154.87670998248609
 30
0.0
  0
VERTEX
  5
146AE
  8
0
 10
193.11035660024771
 20
155.06136464921079
 30
0.0
  0
VERTEX
  5
146AF
  8
0
 10
193.4362244108824
 20
155.42136850830749
 30
0.0
  0
VERTEX
  5
146B0
  8
0
 10
193.76660307078049
 20
155.76881935639949
 30
0.0
  0
VERTEX
  5
146B1
  8
0
 10
193.93343369024171
 20
155.93778419459039
 30
0.0
  0
SEQEND
  5
146B2
  8
0
  0
POLYLINE
  5
108B6
  8
0
 66
     1
 10
0.0
 20
0.0
 30
0.0
  0
VERTEX
  5
146B3
  8
0
 10
185.28967811911721
 20
143.02272068512929
 30
0.0
  0
VERTEX
  5
146B4
  8
0
 10
185.32487416772429
 20
143.02707366343469
 30
0.0
  0
VERTEX
  5
146B5
  8
0
 10
185.4110860927284
 20
143.06223605751211
 30
0.0
  0
VERTEX
  5
146B6
  8
0
 10
185.51835206176199
 20
143.13313376968239
 30
0.0
  0
VERTEX
  5
146B7
  8
0
 10
185.57975816849591
 20
143.182027801148
 30
0.0
  0
VERTEX
  5
146B8
  8
0
 10
185.6462282535644
 20
143.23984623959859
 30
0.0
  0
VERTEX
  5
146B9
  8
0
 10
185.7938605044516
 20
143.38197318819789
 30
0.0
  0
VERTEX
  5
146BA
  8
0
 10
185.95998622950049
 20
143.55866096206381
 30
0.0
  0
VERTEX
  5
146BB
  8
0
 10
186.1429431692986
 20
143.76861328840661
 30
0.0
  0
VERTEX
  5
146BC
  8
0
 10
186.3407924269134
 20
144.01022989913639
 30
0.0
  0
VERTEX
  5
146BD
  8
0
 10
186.55142251321399
 20
144.28174790559589
 30
0.0
  0
VERTEX
  5
146BE
  8
0
 10
186.6607565920086
 20
144.42803721221861
 30
0.0
  0
VERTEX
  5
146BF
  8
0
 10
186.77232458463021
 20
144.5809403730097
 30
0.0
  0
VERTEX
  5
146C0
  8
0
 10
187.00075607362211
 20
144.90526630610839
 30
0.0
  0
VERTEX
  5
146C1
  8
0
 10
187.2338146358629
 20
145.25192055058179
 30
0.0
  0
VERTEX
  5
146C2
  8
0
 10
187.4684554848829
 20
145.61778859431661
 30
0.0
  0
VERTEX
  5
146C3
  8
0
 10
187.7015517793933
 20
145.99943947083989
 30
0.0
  0
VERTEX
  5
146C4
  8
0
 10
187.93494325551401
 20
146.40193186395501
 30
0.0
  0
VERTEX
  5
146C5
  8
0
 10
188.05281663717989
 20
146.61390607411539
 30
0.0
  0
VERTEX
  5
146C6
  8
0
 10
188.17089635667131
 20
146.83277524199681
 30
0.0
  0
VERTEX
  5
146C7
  8
0
 10
188.40584466330751
 20
147.29033380481431
 30
0.0
  0
VERTEX
  5
146C8
  8
0
 10
188.63602173728179
 20
147.77277932447211
 30
0.0
  0
VERTEX
  5
146C9
  8
0
 10
188.74810563659929
 20
148.02272068512929
 30
0.0
  0
SEQEND
  5
146CA
  8
0
  0
LINE
  5
108B7
  8
0
 10
185.18343369024171
 20
146.757638172621
 30
0.0
 11
185.18343369024171
 21
143.02272068512929
 31
0.0
  0
POLYLINE
  5
108B8
  8
0
 66
     1
 10
0.0
 20
0.0
 30
0.0
  0
VERTEX
  5
146CB
  8
0
 10
111.1834336902417
 20
146.757638172621
 30
0.0
  0
VERTEX
  5
146CC
  8
0
 10
111.18331526504841
 20
146.81032627601371
 30
0.0
  0
VERTEX
  5
146CD
  8
0
 10
111.1823852474151
 20
146.91707980476889
 30
0.0
  0
VERTEX
  5
146CE
  8
0
 10
111.1805701296561
 20
147.0255990444202
 30
0.0
  0
VERTEX
  5
146CF
  8
0
 10
111.1793455325943
 20
147.08049329874461
 30
0.0
  0
VERTEX
  5
146D0
  8
0
 10
111.17791760695189
 20
147.13579543194919
 30
0.0
  0
VERTEX
  5
146D1
  8
0
 10
111.17447610991449
 20
147.24757614966501
 30
0.0
  0
VERTEX
  5
146D2
  8
0
 10
111.1702946580406
 20
147.36084434799631
 30
0.0
  0
VERTEX
  5
146D3
  8
0
 10
111.1654227009291
 20
147.47549937302961
 30
0.0
  0
VERTEX
  5
146D4
  8
0
 10
111.1599099498696
 20
147.59143700897539
 30
0.0
  0
VERTEX
  5
146D5
  8
0
 10
111.15380620224551
 20
147.70854973581021
 30
0.0
  0
VERTEX
  5
146D6
  8
0
 10
111.1505482455854
 20
147.7675123217943
 30
0.0
  0
VERTEX
  5
146D7
  8
0
 10
111.1471611610035
 20
147.8267270029155
 30
0.0
  0
VERTEX
  5
146D8
  8
0
 10
111.1400242512438
 20
147.94585552010491
 30
0.0
  0
VERTEX
  5
146D9
  8
0
 10
111.1324430193953
 20
148.0658414628524
 30
0.0
  0
VERTEX
  5
146DA
  8
0
 10
111.12439170432179
 20
148.18766319817269
 30
0.0
  0
VERTEX
  5
146DB
  8
0
 10
111.1158634065342
 20
148.31186582165631
 30
0.0
  0
VERTEX
  5
146DC
  8
0
 10
111.1068894382867
 20
148.4384006166012
 30
0.0
  0
VERTEX
  5
146DD
  8
0
 10
111.1022455744514
 20
148.50252646851229
 30
0.0
  0
VERTEX
  5
146DE
  8
0
 10
111.0975027829999
 20
148.5672156518267
 30
0.0
  0
VERTEX
  5
146DF
  8
0
 10
111.08773792254431
 20
148.69825603746489
 30
0.0
  0
VERTEX
  5
146E0
  8
0
 10
111.07763065766861
 20
148.8314641905522
 30
0.0
  0
VERTEX
  5
146E1
  8
0
 10
111.072460126539
 20
148.89886251669799
 30
0.0
  0
VERTEX
  5
146E2
  8
0
 10
111.06721792318839
 20
148.96678011188959
 30
0.0
  0
VERTEX
  5
146E3
  8
0
 10
111.0565375995065
 20
149.10414167567569
 30
0.0
  0
VERTEX
  5
146E4
  8
0
 10
111.0456283219989
 20
149.24348493341611
 30
0.0
  0
VERTEX
  5
146E5
  8
0
 10
111.0401000584795
 20
149.31387929355151
 30
0.0
  0
VERTEX
  5
146E6
  8
0
 10
111.0345292897761
 20
149.3847444336279
 30
0.0
  0
VERTEX
  5
146E7
  8
0
 10
111.02328007596761
 20
149.5278535505204
 30
0.0
  0
VERTEX
  5
146E8
  8
0
 10
111.01192048206801
 20
149.67274429809251
 30
0.0
  0
VERTEX
  5
146E9
  8
0
 10
111.0004904741913
 20
149.8193461361511
 30
0.0
  0
VERTEX
  5
146EA
  8
0
 10
110.98903004115139
 20
149.96758576682009
 30
0.0
  0
VERTEX
  5
146EB
  8
0
 10
110.9775790167771
 20
150.117387382407
 30
0.0
  0
VERTEX
  5
146EC
  8
0
 10
110.9718693948152
 20
150.19284962246979
 30
0.0
  0
VERTEX
  5
146ED
  8
0
 10
110.96617690240871
 20
150.2686729267275
 30
0.0
  0
VERTEX
  5
146EE
  8
0
 10
110.95486269138399
 20
150.42136236671899
 30
0.0
  0
VERTEX
  5
146EF
  8
0
 10
110.9436746969194
 20
150.57537397604051
 30
0.0
  0
VERTEX
  5
146F0
  8
0
 10
110.9326503847725
 20
150.7306246324072
 30
0.0
  0
VERTEX
  5
146F1
  8
0
 10
110.92182621205311
 20
150.88703013044139
 30
0.0
  0
VERTEX
  5
146F2
  8
0
 10
110.9112374735397
 20
151.0445055118239
 30
0.0
  0
VERTEX
  5
146F3
  8
0
 10
110.9060419276631
 20
151.12361989454439
 30
0.0
  0
VERTEX
  5
146F4
  8
0
 10
110.9009172859261
 20
151.202979019228
 30
0.0
  0
VERTEX
  5
146F5
  8
0
 10
110.8908967785584
 20
151.36238976268189
 30
0.0
  0
VERTEX
  5
146F6
  8
0
 10
110.8812073854485
 20
151.52264989903369
 30
0.0
  0
VERTEX
  5
146F7
  8
0
 10
110.8718790675121
 20
151.6836687642712
 30
0.0
  0
VERTEX
  5
146F8
  8
0
 10
110.8629401380586
 20
151.84535374195951
 30
0.0
  0
VERTEX
  5
146F9
  8
0
 10
110.8544171352673
 20
152.0076105730848
 30
0.0
  0
VERTEX
  5
146FA
  8
0
 10
110.8503193851716
 20
152.0889236073881
 30
0.0
  0
VERTEX
  5
146FB
  8
0
 10
110.8463347053534
 20
152.1703436772234
 30
0.0
  0
VERTEX
  5
146FC
  8
0
 10
110.83871549770301
 20
152.33345648623359
 30
0.0
  0
VERTEX
  5
146FD
  8
0
 10
110.8315800731695
 20
152.49685179172749
 30
0.0
  0
VERTEX
  5
146FE
  8
0
 10
110.8249468266249
 20
152.6604321076334
 30
0.0
  0
VERTEX
  5
146FF
  8
0
 10
110.8188319247671
 20
152.82410004918799
 30
0.0
  0
VERTEX
  5
14700
  8
0
 10
110.81324926710759
 20
152.98775851293681
 30
0.0
  0
VERTEX
  5
14701
  8
0
 10
110.81066125791369
 20
153.06955360890791
 30
0.0
  0
VERTEX
  5
14702
  8
0
 10
110.80821050281079
 20
153.15130939134241
 30
0.0
  0
VERTEX
  5
14703
  8
0
 10
110.80372502113249
 20
153.3146526747673
 30
0.0
  0
VERTEX
  5
14704
  8
0
 10
110.7997999055146
 20
153.4776867501225
 30
0.0
  0
VERTEX
  5
14705
  8
0
 10
110.7964399009209
 20
153.64030877813931
 30
0.0
  0
VERTEX
  5
14706
  8
0
 10
110.7936473980334
 20
153.80241507070809
 30
0.0
  0
VERTEX
  5
14707
  8
0
 10
110.79142243466561
 20
153.9639014685547
 30
0.0
  0
VERTEX
  5
14708
  8
0
 10
110.790522153026
 20
154.04437962147489
 30
0.0
  0
VERTEX
  5
14709
  8
0
 10
110.7897627145642
 20
154.1246637197732
 30
0.0
  0
VERTEX
  5
1470A
  8
0
 10
110.78866364358549
 20
154.2845978600028
 30
0.0
  0
VERTEX
  5
1470B
  8
0
 10
110.7881183830677
 20
154.44360059528799
 30
0.0
  0
VERTEX
  5
1470C
  8
0
 10
110.78805069785921
 20
154.52272068512929
 30
0.0
  0
VERTEX
  5
1470D
  8
0
 10
110.7881183830677
 20
154.6018407749705
 30
0.0
  0
VERTEX
  5
1470E
  8
0
 10
110.78866364358549
 20
154.7608435102558
 30
0.0
  0
VERTEX
  5
1470F
  8
0
 10
110.7897627145642
 20
154.92077765048541
 30
0.0
  0
VERTEX
  5
14710
  8
0
 10
110.790522153026
 20
155.00106174878371
 30
0.0
  0
VERTEX
  5
14711
  8
0
 10
110.79142243466561
 20
155.08153990170399
 30
0.0
  0
VERTEX
  5
14712
  8
0
 10
110.7936473980334
 20
155.24302629955031
 30
0.0
  0
VERTEX
  5
14713
  8
0
 10
110.7964399009209
 20
155.40513259211929
 30
0.0
  0
VERTEX
  5
14714
  8
0
 10
110.7997999055146
 20
155.5677546201359
 30
0.0
  0
VERTEX
  5
14715
  8
0
 10
110.80372502113249
 20
155.7307886954913
 30
0.0
  0
VERTEX
  5
14716
  8
0
 10
110.80821050281079
 20
155.89413197891619
 30
0.0
  0
VERTEX
  5
14717
  8
0
 10
110.81066125791369
 20
155.97588776135061
 30
0.0
  0
VERTEX
  5
14718
  8
0
 10
110.81324926710759
 20
156.05768285732191
 30
0.0
  0
VERTEX
  5
14719
  8
0
 10
110.8188319247671
 20
156.22134132107061
 30
0.0
  0
VERTEX
  5
1471A
  8
0
 10
110.8249468266249
 20
156.38500926262529
 30
0.0
  0
VERTEX
  5
1471B
  8
0
 10
110.8315800731695
 20
156.54858957853111
 30
0.0
  0
VERTEX
  5
1471C
  8
0
 10
110.83871549770301
 20
156.71198488402499
 30
0.0
  0
VERTEX
  5
1471D
  8
0
 10
110.8463347053534
 20
156.87509769303529
 30
0.0
  0
VERTEX
  5
1471E
  8
0
 10
110.8503193851716
 20
156.95651776287059
 30
0.0
  0
VERTEX
  5
1471F
  8
0
 10
110.8544171352673
 20
157.03783079717391
 30
0.0
  0
VERTEX
  5
14720
  8
0
 10
110.8629401380586
 20
157.20008762829889
 30
0.0
  0
VERTEX
  5
14721
  8
0
 10
110.8718790675121
 20
157.3617726059874
 30
0.0
  0
VERTEX
  5
14722
  8
0
 10
110.8812073854485
 20
157.52279147122499
 30
0.0
  0
VERTEX
  5
14723
  8
0
 10
110.8908967785584
 20
157.68305160757649
 30
0.0
  0
VERTEX
  5
14724
  8
0
 10
110.9009172859261
 20
157.84246235103069
 30
0.0
  0
VERTEX
  5
14725
  8
0
 10
110.9060419276631
 20
157.92182147571401
 30
0.0
  0
VERTEX
  5
14726
  8
0
 10
110.9112374735397
 20
158.00093585843479
 30
0.0
  0
VERTEX
  5
14727
  8
0
 10
110.92182621205311
 20
158.15841123981721
 30
0.0
  0
VERTEX
  5
14728
  8
0
 10
110.9326503847725
 20
158.31481673785129
 30
0.0
  0
VERTEX
  5
14729
  8
0
 10
110.9436746969194
 20
158.4700673942182
 30
0.0
  0
VERTEX
  5
1472A
  8
0
 10
110.95486269138399
 20
158.62407900353969
 30
0.0
  0
VERTEX
  5
1472B
  8
0
 10
110.96617690240871
 20
158.7767684435309
 30
0.0
  0
VERTEX
  5
1472C
  8
0
 10
110.9718693948152
 20
158.85259174778889
 30
0.0
  0
VERTEX
  5
1472D
  8
0
 10
110.9775790167771
 20
158.9280539878514
 30
0.0
  0
VERTEX
  5
1472E
  8
0
 10
110.98903004115139
 20
159.07785560343859
 30
0.0
  0
VERTEX
  5
1472F
  8
0
 10
111.0004904741913
 20
159.22609523410731
 30
0.0
  0
VERTEX
  5
14730
  8
0
 10
111.01192048206801
 20
159.37269707216609
 30
0.0
  0
VERTEX
  5
14731
  8
0
 10
111.02328007596761
 20
159.51758781973831
 30
0.0
  0
VERTEX
  5
14732
  8
0
 10
111.0345292897761
 20
159.6606969366307
 30
0.0
  0
VERTEX
  5
14733
  8
0
 10
111.0401000584795
 20
159.73156207670721
 30
0.0
  0
VERTEX
  5
14734
  8
0
 10
111.0456283219989
 20
159.8019564368426
 30
0.0
  0
VERTEX
  5
14735
  8
0
 10
111.0565375995065
 20
159.94129969458299
 30
0.0
  0
VERTEX
  5
14736
  8
0
 10
111.06721792318839
 20
160.07866125836881
 30
0.0
  0
VERTEX
  5
14737
  8
0
 10
111.072460126539
 20
160.14657885356061
 30
0.0
  0
VERTEX
  5
14738
  8
0
 10
111.07763065766861
 20
160.21397717970649
 30
0.0
  0
VERTEX
  5
14739
  8
0
 10
111.08773792254431
 20
160.34718533279371
 30
0.0
  0
VERTEX
  5
1473A
  8
0
 10
111.0975027829999
 20
160.47822571843199
 30
0.0
  0
VERTEX
  5
1473B
  8
0
 10
111.1022455744514
 20
160.54291490174629
 30
0.0
  0
VERTEX
  5
1473C
  8
0
 10
111.1068894382867
 20
160.6070407536574
 30
0.0
  0
VERTEX
  5
1473D
  8
0
 10
111.1158634065342
 20
160.7335755486024
 30
0.0
  0
VERTEX
  5
1473E
  8
0
 10
111.12439170432179
 20
160.857778172086
 30
0.0
  0
VERTEX
  5
1473F
  8
0
 10
111.1324430193953
 20
160.97959990740631
 30
0.0
  0
VERTEX
  5
14740
  8
0
 10
111.1400242512438
 20
161.09958585015369
 30
0.0
  0
VERTEX
  5
14741
  8
0
 10
111.1471611610035
 20
161.21871436734321
 30
0.0
  0
VERTEX
  5
14742
  8
0
 10
111.1505482455854
 20
161.2779290484643
 30
0.0
  0
VERTEX
  5
14743
  8
0
 10
111.15380620224551
 20
161.33689163444839
 30
0.0
  0
VERTEX
  5
14744
  8
0
 10
111.1599099498696
 20
161.4540043612833
 30
0.0
  0
VERTEX
  5
14745
  8
0
 10
111.1654227009291
 20
161.56994199722911
 30
0.0
  0
VERTEX
  5
14746
  8
0
 10
111.1702946580406
 20
161.6845970222623
 30
0.0
  0
VERTEX
  5
14747
  8
0
 10
111.17447610991449
 20
161.79786522059359
 30
0.0
  0
VERTEX
  5
14748
  8
0
 10
111.17791760695189
 20
161.9096459383095
 30
0.0
  0
VERTEX
  5
14749
  8
0
 10
111.1793455325943
 20
161.96494807151399
 30
0.0
  0
VERTEX
  5
1474A
  8
0
 10
111.1805701296561
 20
162.0198423258384
 30
0.0
  0
VERTEX
  5
1474B
  8
0
 10
111.1823852474151
 20
162.12836156548971
 30
0.0
  0
VERTEX
  5
1474C
  8
0
 10
111.18331526504841
 20
162.23511509424489
 30
0.0
  0
VERTEX
  5
1474D
  8
0
 10
111.1834336902417
 20
162.28780319763769
 30
0.0
  0
SEQEND
  5
1474E
  8
0
  0
POLYLINE
  5
108B9
  8
0
 66
     1
 10
0.0
 20
0.0
 30
0.0
  0
VERTEX
  5
1474F
  8
0
 10
185.18343369024171
 20
162.28780319763769
 30
0.0
  0
VERTEX
  5
14750
  8
0
 10
185.18355211543499
 20
162.23511509424489
 30
0.0
  0
VERTEX
  5
14751
  8
0
 10
185.1844821330682
 20
162.12836156548971
 30
0.0
  0
VERTEX
  5
14752
  8
0
 10
185.18629725082741
 20
162.0198423258384
 30
0.0
  0
VERTEX
  5
14753
  8
0
 10
185.187521847889
 20
161.96494807151399
 30
0.0
  0
VERTEX
  5
14754
  8
0
 10
185.1889497735315
 20
161.9096459383095
 30
0.0
  0
VERTEX
  5
14755
  8
0
 10
185.19239127056869
 20
161.79786522059359
 30
0.0
  0
VERTEX
  5
14756
  8
0
 10
185.1965727224428
 20
161.6845970222623
 30
0.0
  0
VERTEX
  5
14757
  8
0
 10
185.2014446795543
 20
161.56994199722911
 30
0.0
  0
VERTEX
  5
14758
  8
0
 10
185.20695743061381
 20
161.4540043612833
 30
0.0
  0
VERTEX
  5
14759
  8
0
 10
185.21306117823781
 20
161.33689163444839
 30
0.0
  0
VERTEX
  5
1475A
  8
0
 10
185.2163191348979
 20
161.2779290484643
 30
0.0
  0
VERTEX
  5
1475B
  8
0
 10
185.2197062194798
 20
161.21871436734321
 30
0.0
  0
VERTEX
  5
1475C
  8
0
 10
185.22684312923951
 20
161.09958585015369
 30
0.0
  0
VERTEX
  5
1475D
  8
0
 10
185.23442436108809
 20
160.97959990740631
 30
0.0
  0
VERTEX
  5
1475E
  8
0
 10
185.24247567616149
 20
160.857778172086
 30
0.0
  0
VERTEX
  5
1475F
  8
0
 10
185.2510039739492
 20
160.7335755486024
 30
0.0
  0
VERTEX
  5
14760
  8
0
 10
185.2599779421966
 20
160.6070407536574
 30
0.0
  0
VERTEX
  5
14761
  8
0
 10
185.2646218060319
 20
160.54291490174629
 30
0.0
  0
VERTEX
  5
14762
  8
0
 10
185.26936459748339
 20
160.47822571843199
 30
0.0
  0
VERTEX
  5
14763
  8
0
 10
185.27912945793901
 20
160.34718533279371
 30
0.0
  0
VERTEX
  5
14764
  8
0
 10
185.28923672281479
 20
160.21397717970649
 30
0.0
  0
VERTEX
  5
14765
  8
0
 10
185.29440725394431
 20
160.14657885356061
 30
0.0
  0
VERTEX
  5
14766
  8
0
 10
185.299649457295
 20
160.07866125836901
 30
0.0
  0
VERTEX
  5
14767
  8
0
 10
185.31032978097679
 20
159.94129969458299
 30
0.0
  0
VERTEX
  5
14768
  8
0
 10
185.32123905848439
 20
159.8019564368426
 30
0.0
  0
VERTEX
  5
14769
  8
0
 10
185.32676732200389
 20
159.73156207670721
 30
0.0
  0
VERTEX
  5
1476A
  8
0
 10
185.33233809070731
 20
159.6606969366307
 30
0.0
  0
VERTEX
  5
1476B
  8
0
 10
185.34358730451581
 20
159.51758781973831
 30
0.0
  0
VERTEX
  5
1476C
  8
0
 10
185.35494689841551
 20
159.37269707216609
 30
0.0
  0
VERTEX
  5
1476D
  8
0
 10
185.36637690629209
 20
159.22609523410731
 30
0.0
  0
VERTEX
  5
1476E
  8
0
 10
185.3778373393319
 20
159.07785560343859
 30
0.0
  0
VERTEX
  5
1476F
  8
0
 10
185.38928836370621
 20
158.9280539878514
 30
0.0
  0
VERTEX
  5
14770
  8
0
 10
185.39499798566811
 20
158.85259174778889
 30
0.0
  0
VERTEX
  5
14771
  8
0
 10
185.40069047807461
 20
158.7767684435309
 30
0.0
  0
VERTEX
  5
14772
  8
0
 10
185.41200468909949
 20
158.62407900353969
 30
0.0
  0
VERTEX
  5
14773
  8
0
 10
185.4231926835638
 20
158.4700673942182
 30
0.0
  0
VERTEX
  5
14774
  8
0
 10
185.4342169957107
 20
158.31481673785129
 30
0.0
  0
VERTEX
  5
14775
  8
0
 10
185.44504116843029
 20
158.15841123981721
 30
0.0
  0
VERTEX
  5
14776
  8
0
 10
185.45562990694361
 20
158.00093585843479
 30
0.0
  0
VERTEX
  5
14777
  8
0
 10
185.46082545282019
 20
157.92182147571401
 30
0.0
  0
VERTEX
  5
14778
  8
0
 10
185.46595009455709
 20
157.84246235103069
 30
0.0
  0
VERTEX
  5
14779
  8
0
 10
185.47597060192479
 20
157.6830516075768
 30
0.0
  0
VERTEX
  5
1477A
  8
0
 10
185.48565999503481
 20
157.52279147122499
 30
0.0
  0
VERTEX
  5
1477B
  8
0
 10
185.49498831297129
 20
157.3617726059874
 30
0.0
  0
VERTEX
  5
1477C
  8
0
 10
185.50392724242479
 20
157.20008762829889
 30
0.0
  0
VERTEX
  5
1477D
  8
0
 10
185.512450245216
 20
157.03783079717391
 30
0.0
  0
VERTEX
  5
1477E
  8
0
 10
185.51654799531181
 20
156.95651776287059
 30
0.0
  0
VERTEX
  5
1477F
  8
0
 10
185.52053267513
 20
156.87509769303529
 30
0.0
  0
VERTEX
  5
14780
  8
0
 10
185.52815188278021
 20
156.71198488402499
 30
0.0
  0
VERTEX
  5
14781
  8
0
 10
185.53528730731381
 20
156.54858957853111
 30
0.0
  0
VERTEX
  5
14782
  8
0
 10
185.5419205538584
 20
156.38500926262529
 30
0.0
  0
VERTEX
  5
14783
  8
0
 10
185.5480354557161
 20
156.22134132107061
 30
0.0
  0
VERTEX
  5
14784
  8
0
 10
185.55361811337571
 20
156.05768285732191
 30
0.0
  0
VERTEX
  5
14785
  8
0
 10
185.55620612256951
 20
155.97588776135061
 30
0.0
  0
VERTEX
  5
14786
  8
0
 10
185.55865687767249
 20
155.89413197891619
 30
0.0
  0
VERTEX
  5
14787
  8
0
 10
185.56314235935079
 20
155.7307886954913
 30
0.0
  0
VERTEX
  5
14788
  8
0
 10
185.56706747496881
 20
155.5677546201359
 30
0.0
  0
VERTEX
  5
14789
  8
0
 10
185.57042747956251
 20
155.40513259211929
 30
0.0
  0
VERTEX
  5
1478A
  8
0
 10
185.57321998244981
 20
155.24302629955031
 30
0.0
  0
VERTEX
  5
1478B
  8
0
 10
185.57544494581759
 20
155.08153990170399
 30
0.0
  0
VERTEX
  5
1478C
  8
0
 10
185.57634522745741
 20
155.00106174878371
 30
0.0
  0
VERTEX
  5
1478D
  8
0
 10
185.57710466591919
 20
154.92077765048541
 30
0.0
  0
VERTEX
  5
1478E
  8
0
 10
185.57820373689779
 20
154.7608435102558
 30
0.0
  0
VERTEX
  5
1478F
  8
0
 10
185.5787489974156
 20
154.6018407749705
 30
0.0
  0
VERTEX
  5
14790
  8
0
 10
185.57881668262411
 20
154.52272068512929
 30
0.0
  0
VERTEX
  5
14791
  8
0
 10
185.5787489974156
 20
154.44360059528799
 30
0.0
  0
VERTEX
  5
14792
  8
0
 10
185.57820373689779
 20
154.2845978600028
 30
0.0
  0
VERTEX
  5
14793
  8
0
 10
185.57710466591919
 20
154.1246637197732
 30
0.0
  0
VERTEX
  5
14794
  8
0
 10
185.57634522745741
 20
154.04437962147489
 30
0.0
  0
VERTEX
  5
14795
  8
0
 10
185.57544494581759
 20
153.9639014685547
 30
0.0
  0
VERTEX
  5
14796
  8
0
 10
185.57321998244981
 20
153.80241507070809
 30
0.0
  0
VERTEX
  5
14797
  8
0
 10
185.57042747956251
 20
153.64030877813931
 30
0.0
  0
VERTEX
  5
14798
  8
0
 10
185.56706747496881
 20
153.4776867501225
 30
0.0
  0
VERTEX
  5
14799
  8
0
 10
185.56314235935079
 20
153.3146526747673
 30
0.0
  0
VERTEX
  5
1479A
  8
0
 10
185.55865687767249
 20
153.15130939134241
 30
0.0
  0
VERTEX
  5
1479B
  8
0
 10
185.55620612256951
 20
153.06955360890791
 30
0.0
  0
VERTEX
  5
1479C
  8
0
 10
185.55361811337571
 20
152.98775851293681
 30
0.0
  0
VERTEX
  5
1479D
  8
0
 10
185.5480354557161
 20
152.82410004918799
 30
0.0
  0
VERTEX
  5
1479E
  8
0
 10
185.5419205538584
 20
152.6604321076334
 30
0.0
  0
VERTEX
  5
1479F
  8
0
 10
185.53528730731381
 20
152.49685179172749
 30
0.0
  0
VERTEX
  5
147A0
  8
0
 10
185.52815188278021
 20
152.33345648623359
 30
0.0
  0
VERTEX
  5
147A1
  8
0
 10
185.52053267513
 20
152.1703436772234
 30
0.0
  0
VERTEX
  5
147A2
  8
0
 10
185.51654799531181
 20
152.0889236073881
 30
0.0
  0
VERTEX
  5
147A3
  8
0
 10
185.512450245216
 20
152.0076105730848
 30
0.0
  0
VERTEX
  5
147A4
  8
0
 10
185.50392724242479
 20
151.84535374195951
 30
0.0
  0
VERTEX
  5
147A5
  8
0
 10
185.49498831297129
 20
151.6836687642712
 30
0.0
  0
VERTEX
  5
147A6
  8
0
 10
185.48565999503481
 20
151.52264989903369
 30
0.0
  0
VERTEX
  5
147A7
  8
0
 10
185.47597060192479
 20
151.36238976268189
 30
0.0
  0
VERTEX
  5
147A8
  8
0
 10
185.46595009455709
 20
151.202979019228
 30
0.0
  0
VERTEX
  5
147A9
  8
0
 10
185.46082545282019
 20
151.12361989454459
 30
0.0
  0
VERTEX
  5
147AA
  8
0
 10
185.45562990694361
 20
151.0445055118239
 30
0.0
  0
VERTEX
  5
147AB
  8
0
 10
185.44504116843029
 20
150.88703013044139
 30
0.0
  0
VERTEX
  5
147AC
  8
0
 10
185.4342169957107
 20
150.7306246324072
 30
0.0
  0
VERTEX
  5
147AD
  8
0
 10
185.4231926835638
 20
150.57537397604051
 30
0.0
  0
VERTEX
  5
147AE
  8
0
 10
185.41200468909949
 20
150.42136236671899
 30
0.0
  0
VERTEX
  5
147AF
  8
0
 10
185.40069047807461
 20
150.2686729267275
 30
0.0
  0
VERTEX
  5
147B0
  8
0
 10
185.39499798566811
 20
150.19284962246979
 30
0.0
  0
VERTEX
  5
147B1
  8
0
 10
185.38928836370621
 20
150.117387382407
 30
0.0
  0
VERTEX
  5
147B2
  8
0
 10
185.3778373393319
 20
149.96758576682009
 30
0.0
  0
VERTEX
  5
147B3
  8
0
 10
185.36637690629209
 20
149.8193461361511
 30
0.0
  0
VERTEX
  5
147B4
  8
0
 10
185.35494689841551
 20
149.67274429809251
 30
0.0
  0
VERTEX
  5
147B5
  8
0
 10
185.34358730451581
 20
149.5278535505204
 30
0.0
  0
VERTEX
  5
147B6
  8
0
 10
185.33233809070731
 20
149.3847444336279
 30
0.0
  0
VERTEX
  5
147B7
  8
0
 10
185.32676732200389
 20
149.31387929355151
 30
0.0
  0
VERTEX
  5
147B8
  8
0
 10
185.32123905848439
 20
149.24348493341611
 30
0.0
  0
VERTEX
  5
147B9
  8
0
 10
185.31032978097679
 20
149.10414167567569
 30
0.0
  0
VERTEX
  5
147BA
  8
0
 10
185.299649457295
 20
148.96678011188959
 30
0.0
  0
VERTEX
  5
147BB
  8
0
 10
185.29440725394431
 20
148.89886251669799
 30
0.0
  0
VERTEX
  5
147BC
  8
0
 10
185.28923672281479
 20
148.8314641905522
 30
0.0
  0
VERTEX
  5
147BD
  8
0
 10
185.27912945793901
 20
148.69825603746489
 30
0.0
  0
VERTEX
  5
147BE
  8
0
 10
185.26936459748339
 20
148.5672156518267
 30
0.0
  0
VERTEX
  5
147BF
  8
0
 10
185.2646218060319
 20
148.50252646851229
 30
0.0
  0
VERTEX
  5
147C0
  8
0
 10
185.2599779421966
 20
148.4384006166012
 30
0.0
  0
VERTEX
  5
147C1
  8
0
 10
185.2510039739492
 20
148.31186582165631
 30
0.0
  0
VERTEX
  5
147C2
  8
0
 10
185.24247567616149
 20
148.18766319817269
 30
0.0
  0
VERTEX
  5
147C3
  8
0
 10
185.23442436108809
 20
148.0658414628524
 30
0.0
  0
VERTEX
  5
147C4
  8
0
 10
185.22684312923951
 20
147.94585552010491
 30
0.0
  0
VERTEX
  5
147C5
  8
0
 10
185.2197062194798
 20
147.8267270029155
 30
0.0
  0
VERTEX
  5
147C6
  8
0
 10
185.2163191348979
 20
147.7675123217943
 30
0.0
  0
VERTEX
  5
147C7
  8
0
 10
185.21306117823781
 20
147.70854973581021
 30
0.0
  0
VERTEX
  5
147C8
  8
0
 10
185.20695743061381
 20
147.59143700897539
 30
0.0
  0
VERTEX
  5
147C9
  8
0
 10
185.2014446795543
 20
147.47549937302961
 30
0.0
  0
VERTEX
  5
147CA
  8
0
 10
185.1965727224428
 20
147.36084434799631
 30
0.0
  0
VERTEX
  5
147CB
  8
0
 10
185.19239127056869
 20
147.24757614966501
 30
0.0
  0
VERTEX
  5
147CC
  8
0
 10
185.1889497735315
 20
147.13579543194919
 30
0.0
  0
VERTEX
  5
147CD
  8
0
 10
185.187521847889
 20
147.08049329874461
 30
0.0
  0
VERTEX
  5
147CE
  8
0
 10
185.18629725082741
 20
147.0255990444202
 30
0.0
  0
VERTEX
  5
147CF
  8
0
 10
185.1844821330682
 20
146.91707980476889
 30
0.0
  0
VERTEX
  5
147D0
  8
0
 10
185.18355211543499
 20
146.81032627601371
 30
0.0
  0
VERTEX
  5
147D1
  8
0
 10
185.18343369024171
 20
146.757638172621
 30
0.0
  0
SEQEND
  5
147D2
  8
0
  0
POLYLINE
  5
108BA
  8
0
 66
     1
 10
0.0
 20
0.0
 30
0.0
  0
VERTEX
  5
147D3
  8
0
 10
185.18343369024171
 20
146.757638172621
 30
0.0
  0
VERTEX
  5
147D4
  8
0
 10
185.18351748498671
 20
146.8018982291598
 30
0.0
  0
VERTEX
  5
147D5
  8
0
 10
185.184177533818
 20
146.89139635281751
 30
0.0
  0
VERTEX
  5
147D6
  8
0
 10
185.18547103474469
 20
146.982156812395
 30
0.0
  0
VERTEX
  5
147D7
  8
0
 10
185.1863465397027
 20
147.0279943234961
 30
0.0
  0
VERTEX
  5
147D8
  8
0
 10
185.18736980816291
 20
147.0741278291957
 30
0.0
  0
VERTEX
  5
147D9
  8
0
 10
185.18984527966509
 20
147.16725545129179
 30
0.0
  0
VERTEX
  5
147DA
  8
0
 10
185.19286853878191
 20
147.2614836528719
 30
0.0
  0
VERTEX
  5
147DB
  8
0
 10
185.1964104025559
 20
147.3567544257296
 30
0.0
  0
VERTEX
  5
147DC
  8
0
 10
185.2004414831712
 20
147.45300787606189
 30
0.0
  0
VERTEX
  5
147DD
  8
0
 10
185.20493225886719
 20
147.55018232652239
 30
0.0
  0
VERTEX
  5
147DE
  8
0
 10
185.20734078823409
 20
147.59909519125651
 30
0.0
  0
VERTEX
  5
147DF
  8
0
 10
185.2098531474104
 20
147.6482144236067
 30
0.0
  0
VERTEX
  5
147E0
  8
0
 10
185.21517458145411
 20
147.74703925059751
 30
0.0
  0
VERTEX
  5
147E1
  8
0
 10
185.22086708515681
 20
147.84659044643169
 30
0.0
  0
VERTEX
  5
147E2
  8
0
 10
185.226901351484
 20
147.94680033100411
 30
0.0
  0
VERTEX
  5
147E3
  8
0
 10
185.23324832407951
 20
148.04760010634641
 30
0.0
  0
VERTEX
  5
147E4
  8
0
 10
185.23992054844859
 20
148.14953967079819
 30
0.0
  0
VERTEX
  5
147E5
  8
0
 10
185.24338667016849
 20
148.20114595617471
 30
0.0
  0
VERTEX
  5
147E6
  8
0
 10
185.24693649004021
 20
148.25317199100979
 30
0.0
  0
VERTEX
  5
147E7
  8
0
 10
185.25427795900501
 20
148.35846890769989
 30
0.0
  0
VERTEX
  5
147E8
  8
0
 10
185.26192589159939
 20
148.46540059760329
 30
0.0
  0
VERTEX
  5
147E9
  8
0
 10
185.26585860271359
 20
148.51946973360529
 30
0.0
  0
SEQEND
  5
147EA
  8
0
  0
POLYLINE
  5
108BB
  8
0
 66
     1
 10
0.0
 20
0.0
 30
0.0
  0
VERTEX
  5
147EB
  8
0
 10
185.26585860271359
 20
160.52597163665331
 30
0.0
  0
VERTEX
  5
147EC
  8
0
 10
185.26192589159939
 20
160.58004077265539
 30
0.0
  0
VERTEX
  5
147ED
  8
0
 10
185.25427795900501
 20
160.68697246255871
 30
0.0
  0
VERTEX
  5
147EE
  8
0
 10
185.24693649004021
 20
160.79226937924861
 30
0.0
  0
VERTEX
  5
147EF
  8
0
 10
185.24338667016849
 20
160.84429541408389
 30
0.0
  0
VERTEX
  5
147F0
  8
0
 10
185.23992054844859
 20
160.89590169946041
 30
0.0
  0
VERTEX
  5
147F1
  8
0
 10
185.23324832407951
 20
160.99784126391219
 30
0.0
  0
VERTEX
  5
147F2
  8
0
 10
185.226901351484
 20
161.09864103925449
 30
0.0
  0
VERTEX
  5
147F3
  8
0
 10
185.22086708515681
 20
161.19885092382691
 30
0.0
  0
VERTEX
  5
147F4
  8
0
 10
185.21517458145411
 20
161.2984021196612
 30
0.0
  0
VERTEX
  5
147F5
  8
0
 10
185.2098531474104
 20
161.3972269466519
 30
0.0
  0
VERTEX
  5
147F6
  8
0
 10
185.20734078823409
 20
161.44634617900209
 30
0.0
  0
VERTEX
  5
147F7
  8
0
 10
185.20493225886719
 20
161.49525904373621
 30
0.0
  0
VERTEX
  5
147F8
  8
0
 10
185.2004414831712
 20
161.59243349419671
 30
0.0
  0
VERTEX
  5
147F9
  8
0
 10
185.1964104025559
 20
161.68868694452911
 30
0.0
  0
VERTEX
  5
147FA
  8
0
 10
185.19286853878191
 20
161.7839577173865
 30
0.0
  0
VERTEX
  5
147FB
  8
0
 10
185.18984527966509
 20
161.87818591896689
 30
0.0
  0
VERTEX
  5
147FC
  8
0
 10
185.18736980816291
 20
161.9713135410629
 30
0.0
  0
VERTEX
  5
147FD
  8
0
 10
185.1863465397027
 20
162.0174470467625
 30
0.0
  0
VERTEX
  5
147FE
  8
0
 10
185.18547103474469
 20
162.0632845578636
 30
0.0
  0
VERTEX
  5
147FF
  8
0
 10
185.184177533818
 20
162.15404501744109
 30
0.0
  0
VERTEX
  5
14800
  8
0
 10
185.18351748498671
 20
162.2435431410988
 30
0.0
  0
VERTEX
  5
14801
  8
0
 10
185.18343369024171
 20
162.28780319763769
 30
0.0
  0
SEQEND
  5
14802
  8
0
  0
LINE
  5
108BC
  8
0
 10
155.1895341703304
 20
264.5227206851294
 30
0.0
 11
141.17733321015291
 21
264.5227206851294
 31
0.0
  0
POLYLINE
  5
108BD
  8
0
 66
     1
 10
0.0
 20
0.0
 30
0.0
  0
VERTEX
  5
14803
  8
0
 10
134.72782829903039
 20
271.52272068512929
 30
0.0
  0
VERTEX
  5
14804
  8
0
 10
134.7411048003616
 20
271.52266192881598
 30
0.0
  0
VERTEX
  5
14805
  8
0
 10
134.77298165306931
 20
271.52204092264333
 30
0.0
  0
VERTEX
  5
14806
  8
0
 10
134.81195036310089
 20
271.52035998694282
 30
0.0
  0
VERTEX
  5
14807
  8
0
 10
134.83407564500851
 20
271.51895312077318
 30
0.0
  0
VERTEX
  5
14808
  8
0
 10
134.85794303685731
 20
271.51706674779348
 30
0.0
  0
VERTEX
  5
14809
  8
0
 10
134.91082304636819
 20
271.5115164812164
 30
0.0
  0
VERTEX
  5
1480A
  8
0
 10
134.9703862162668
 20
271.502979330362
 30
0.0
  0
VERTEX
  5
1480B
  8
0
 10
135.03635629350251
 20
271.49064795738332
 30
0.0
  0
VERTEX
  5
1480C
  8
0
 10
135.1083942074996
 20
271.473640941143
 30
0.0
  0
VERTEX
  5
1480D
  8
0
 10
135.18610825627269
 20
271.45099918765959
 30
0.0
  0
VERTEX
  5
1480E
  8
0
 10
135.22695432355951
 20
271.43724294074701
 30
0.0
  0
VERTEX
  5
1480F
  8
0
 10
135.26904401954761
 20
271.42167942071279
 30
0.0
  0
VERTEX
  5
14810
  8
0
 10
135.35667991048979
 20
271.38453772525071
 30
0.0
  0
VERTEX
  5
14811
  8
0
 10
135.4484094318592
 20
271.33830528180528
 30
0.0
  0
VERTEX
  5
14812
  8
0
 10
135.54357661035249
 20
271.28151164973588
 30
0.0
  0
VERTEX
  5
14813
  8
0
 10
135.6003866623229
 20
271.24281982153121
 30
0.0
  0
VERTEX
  5
14814
  8
0
 10
135.6167634478351
 20
271.23094016072952
 30
0.0
  0
VERTEX
  5
14815
  8
0
 10
135.63319735809199
 20
271.21867506005083
 30
0.0
  0
VERTEX
  5
14816
  8
0
 10
135.64143441618481
 20
271.21239453232351
 30
0.0
  0
VERTEX
  5
14817
  8
0
 10
135.64968415769289
 20
271.2060134535725
 30
0.0
  0
VERTEX
  5
14818
  8
0
 10
135.66621948223121
 20
271.1929437353599
 30
0.0
  0
VERTEX
  5
14819
  8
0
 10
135.68279881133449
 20
271.1794537228825
 30
0.0
  0
VERTEX
  5
1481A
  8
0
 10
135.69941743643051
 20
271.16553062037042
 30
0.0
  0
VERTEX
  5
1481B
  8
0
 10
135.71607042276059
 20
271.15116098256863
 30
0.0
  0
VERTEX
  5
1481C
  8
0
 10
135.7327525651574
 20
271.13633067940418
 30
0.0
  0
VERTEX
  5
1481D
  8
0
 10
135.74110285693959
 20
271.12873816704092
 30
0.0
  0
VERTEX
  5
1481E
  8
0
 10
135.74945833712439
 20
271.12102486215139
 30
0.0
  0
VERTEX
  5
1481F
  8
0
 10
135.7661818327708
 20
271.10522793174209
 30
0.0
  0
VERTEX
  5
14820
  8
0
 10
135.78296335128741
 20
271.08887734411468
 30
0.0
  0
VERTEX
  5
14821
  8
0
 10
135.7914365239466
 20
271.08042458693308
 30
0.0
  0
VERTEX
  5
14822
  8
0
 10
135.79996384941049
 20
271.07177995972302
 30
0.0
  0
VERTEX
  5
14823
  8
0
 10
135.8171584656688
 20
271.05391406566059
 30
0.0
  0
VERTEX
  5
14824
  8
0
 10
135.83450153429379
 20
271.03527900461108
 30
0.0
  0
VERTEX
  5
14825
  8
0
 10
135.84321419895119
 20
271.02567347278091
 30
0.0
  0
VERTEX
  5
14826
  8
0
 10
135.85194642568069
 20
271.01587648224091
 30
0.0
  0
VERTEX
  5
14827
  8
0
 10
135.8694457435289
 20
270.99571072126378
 30
0.0
  0
VERTEX
  5
14828
  8
0
 10
135.88695155237741
 20
270.97478858373228
 30
0.0
  0
VERTEX
  5
14829
  8
0
 10
135.90441563859341
 20
270.95311964921939
 30
0.0
  0
VERTEX
  5
1482A
  8
0
 10
135.92178980709369
 20
270.93071623427232
 30
0.0
  0
VERTEX
  5
1482B
  8
0
 10
135.93902621506339
 20
270.9075933359652
 30
0.0
  0
VERTEX
  5
1482C
  8
0
 10
135.94757799477131
 20
270.8957674649414
 30
0.0
  0
VERTEX
  5
1482D
  8
0
 10
135.95607774259329
 20
270.8837684796145
 30
0.0
  0
VERTEX
  5
1482E
  8
0
 10
135.9728987776283
 20
270.85926088340079
 30
0.0
  0
VERTEX
  5
1482F
  8
0
 10
135.98944579803009
 20
270.83409069087128
 30
0.0
  0
VERTEX
  5
14830
  8
0
 10
136.00567353302571
 20
270.8082851687688
 30
0.0
  0
VERTEX
  5
14831
  8
0
 10
136.0215370978473
 20
270.78187649513387
 30
0.0
  0
VERTEX
  5
14832
  8
0
 10
136.0369927701002
 20
270.7549012555412
 30
0.0
  0
VERTEX
  5
14833
  8
0
 10
136.0445544295734
 20
270.74121375896198
 30
0.0
  0
VERTEX
  5
14834
  8
0
 10
136.0519985124983
 20
270.72740021921868
 30
0.0
  0
VERTEX
  5
14835
  8
0
 10
136.06651450280049
 20
270.69941799400209
 30
0.0
  0
VERTEX
  5
14836
  8
0
 10
136.08050366504509
 20
270.6710025329217
 30
0.0
  0
VERTEX
  5
14837
  8
0
 10
136.08728997958531
 20
270.65664807774027
 30
0.0
  0
SEQEND
  5
14838
  8
0
  0
LINE
  5
108BE
  8
0
 10
136.7336862219359
 20
269.27044686262838
 30
0.0
 11
138.0052559555246
 21
266.5435567690368
 31
0.0
  0
POLYLINE
  5
108BF
  8
0
 66
     1
 10
0.0
 20
0.0
 30
0.0
  0
VERTEX
  5
14839
  8
0
 10
138.0052559555246
 20
266.5435567690368
 30
0.0
  0
VERTEX
  5
1483A
  8
0
 10
138.01306845879631
 20
266.52691702711741
 30
0.0
  0
VERTEX
  5
1483B
  8
0
 10
138.02895510612879
 20
266.49376178636771
 30
0.0
  0
VERTEX
  5
1483C
  8
0
 10
138.04518914307349
 20
266.46077524976391
 30
0.0
  0
VERTEX
  5
1483D
  8
0
 10
138.05343587437611
 20
266.44434638366369
 30
0.0
  0
VERTEX
  5
1483E
  8
0
 10
138.06176877837891
 20
266.4279610570145
 30
0.0
  0
VERTEX
  5
1483F
  8
0
 10
138.0786921826608
 20
266.39532282881282
 30
0.0
  0
VERTEX
  5
14840
  8
0
 10
138.09595748860411
 20
266.36286416643537
 30
0.0
  0
VERTEX
  5
14841
  8
0
 10
138.11356279116819
 20
266.3305886513462
 30
0.0
  0
VERTEX
  5
14842
  8
0
 10
138.13150614779741
 20
266.2984998448008
 30
0.0
  0
VERTEX
  5
14843
  8
0
 10
138.14978557863569
 20
266.26660128745311
 30
0.0
  0
VERTEX
  5
14844
  8
0
 10
138.15905069303261
 20
266.25072445295342
 30
0.0
  0
VERTEX
  5
14845
  8
0
 10
138.1683990667448
 20
266.23489649896533
 30
0.0
  0
VERTEX
  5
14846
  8
0
 10
138.1873445583268
 20
266.2033889776194
 30
0.0
  0
VERTEX
  5
14847
  8
0
 10
138.2066199629507
 20
266.17208219993108
 30
0.0
  0
VERTEX
  5
14848
  8
0
 10
138.27665091247391
 20
266.0641390023975
 30
0.0
  0
VERTEX
  5
14849
  8
0
 10
138.33980142505709
 20
265.97371766693459
 30
0.0
  0
VERTEX
  5
1484A
  8
0
 10
138.40576954998619
 20
265.88533095051298
 30
0.0
  0
VERTEX
  5
1484B
  8
0
 10
138.54589388397639
 20
265.71501033227901
 30
0.0
  0
VERTEX
  5
1484C
  8
0
 10
138.69646748995731
 20
265.5538534796363
 30
0.0
  0
VERTEX
  5
1484D
  8
0
 10
138.8568924500716
 20
265.40250033581651
 30
0.0
  0
VERTEX
  5
1484E
  8
0
 10
139.0265317273842
 20
265.26155191417001
 30
0.0
  0
VERTEX
  5
1484F
  8
0
 10
139.2047116955149
 20
265.13156791158229
 30
0.0
  0
VERTEX
  5
14850
  8
0
 10
139.29678458093909
 20
265.07085062478433
 30
0.0
  0
VERTEX
  5
14851
  8
0
 10
139.39072481356331
 20
265.01306448595369
 30
0.0
  0
VERTEX
  5
14852
  8
0
 10
139.58383243570731
 20
264.9065122065706
 30
0.0
  0
VERTEX
  5
14853
  8
0
 10
139.7832677443167
 20
264.81233418550619
 30
0.0
  0
VERTEX
  5
14854
  8
0
 10
139.98823879493639
 20
264.73090439746971
 30
0.0
  0
VERTEX
  5
14855
  8
0
 10
140.19793166104449
 20
264.6625461947786
 30
0.0
  0
VERTEX
  5
14856
  8
0
 10
140.4115136661012
 20
264.60753102334638
 30
0.0
  0
VERTEX
  5
14857
  8
0
 10
140.5194985697525
 20
264.58509743848208
 30
0.0
  0
VERTEX
  5
14858
  8
0
 10
140.62813669005291
 20
264.5660773447903
 30
0.0
  0
VERTEX
  5
14859
  8
0
 10
140.84694053716001
 20
264.53834976893341
 30
0.0
  0
VERTEX
  5
1485A
  8
0
 10
141.06705635177849
 20
264.52445840015031
 30
0.0
  0
VERTEX
  5
1485B
  8
0
 10
141.17733321015291
 20
264.5227206851294
 30
0.0
  0
SEQEND
  5
1485C
  8
0
  0
POLYLINE
  5
108C0
  8
0
 66
     1
 10
0.0
 20
0.0
 30
0.0
  0
VERTEX
  5
1485D
  8
0
 10
155.1895341703304
 20
264.5227206851294
 30
0.0
  0
VERTEX
  5
1485E
  8
0
 10
155.29981102870499
 20
264.52445840015031
 30
0.0
  0
VERTEX
  5
1485F
  8
0
 10
155.51992684332339
 20
264.53834976893341
 30
0.0
  0
VERTEX
  5
14860
  8
0
 10
155.7387306904306
 20
264.5660773447903
 30
0.0
  0
VERTEX
  5
14861
  8
0
 10
155.84736881073081
 20
264.58509743848208
 30
0.0
  0
VERTEX
  5
14862
  8
0
 10
155.9553537143822
 20
264.60753102334638
 30
0.0
  0
VERTEX
  5
14863
  8
0
 10
156.16893571943899
 20
264.6625461947786
 30
0.0
  0
VERTEX
  5
14864
  8
0
 10
156.37862858554709
 20
264.73090439746971
 30
0.0
  0
VERTEX
  5
14865
  8
0
 10
156.5835996361667
 20
264.81233418550619
 30
0.0
  0
VERTEX
  5
14866
  8
0
 10
156.7830349447762
 20
264.9065122065706
 30
0.0
  0
VERTEX
  5
14867
  8
0
 10
156.97614256692
 20
265.01306448595369
 30
0.0
  0
VERTEX
  5
14868
  8
0
 10
157.07008279954439
 20
265.07085062478433
 30
0.0
  0
VERTEX
  5
14869
  8
0
 10
157.1621556849683
 20
265.13156791158229
 30
0.0
  0
VERTEX
  5
1486A
  8
0
 10
157.34033565309909
 20
265.26155191417001
 30
0.0
  0
VERTEX
  5
1486B
  8
0
 10
157.50997493041189
 20
265.40250033581651
 30
0.0
  0
VERTEX
  5
1486C
  8
0
 10
157.67039989052611
 20
265.5538534796363
 30
0.0
  0
VERTEX
  5
1486D
  8
0
 10
157.82097349650681
 20
265.71501033227901
 30
0.0
  0
VERTEX
  5
1486E
  8
0
 10
157.96109783049721
 20
265.88533095051298
 30
0.0
  0
VERTEX
  5
1486F
  8
0
 10
158.02706595542611
 20
265.97371766693459
 30
0.0
  0
VERTEX
  5
14870
  8
0
 10
158.0902164680094
 20
266.0641390023975
 30
0.0
  0
VERTEX
  5
14871
  8
0
 10
158.16024741753279
 20
266.17208219993108
 30
0.0
  0
VERTEX
  5
14872
  8
0
 10
158.17952282215671
 20
266.2033889776194
 30
0.0
  0
VERTEX
  5
14873
  8
0
 10
158.1984683137386
 20
266.23489649896533
 30
0.0
  0
VERTEX
  5
14874
  8
0
 10
158.20781668745079
 20
266.25072445295342
 30
0.0
  0
VERTEX
  5
14875
  8
0
 10
158.2170818018476
 20
266.26660128745311
 30
0.0
  0
VERTEX
  5
14876
  8
0
 10
158.23536123268599
 20
266.2984998448008
 30
0.0
  0
VERTEX
  5
14877
  8
0
 10
158.25330458931521
 20
266.3305886513462
 30
0.0
  0
VERTEX
  5
14878
  8
0
 10
158.27090989187911
 20
266.36286416643537
 30
0.0
  0
VERTEX
  5
14879
  8
0
 10
158.2881751978224
 20
266.39532282881282
 30
0.0
  0
VERTEX
  5
1487A
  8
0
 10
158.30509860210461
 20
266.4279610570145
 30
0.0
  0
VERTEX
  5
1487B
  8
0
 10
158.31343150610709
 20
266.44434638366369
 30
0.0
  0
VERTEX
  5
1487C
  8
0
 10
158.32167823740991
 20
266.46077524976391
 30
0.0
  0
VERTEX
  5
1487D
  8
0
 10
158.33791227435441
 20
266.49376178636771
 30
0.0
  0
VERTEX
  5
1487E
  8
0
 10
158.3537989216872
 20
266.52691702711741
 30
0.0
  0
VERTEX
  5
1487F
  8
0
 10
158.36161142495871
 20
266.5435567690368
 30
0.0
  0
SEQEND
  5
14880
  8
0
  0
LINE
  5
108C1
  8
0
 10
158.36161142495871
 20
266.5435567690368
 30
0.0
 11
159.6331811585475
 21
269.27044686262838
 31
0.0
  0
POLYLINE
  5
108C2
  8
0
 66
     1
 10
0.0
 20
0.0
 30
0.0
  0
VERTEX
  5
14881
  8
0
 10
159.6331811585475
 20
269.27044686262838
 30
0.0
  0
VERTEX
  5
14882
  8
0
 10
159.74810628349769
 20
269.51690458842472
 30
0.0
  0
VERTEX
  5
14883
  8
0
 10
159.9695065660805
 20
269.99169902662601
 30
0.0
  0
VERTEX
  5
14884
  8
0
 10
160.17923546497551
 20
270.44146410173721
 30
0.0
  0
VERTEX
  5
14885
  8
0
 10
160.27957740089789
 20
270.65664807774027
 30
0.0
  0
SEQEND
  5
14886
  8
0
  0
POLYLINE
  5
108C3
  8
0
 66
     1
 10
0.0
 20
0.0
 30
0.0
  0
VERTEX
  5
14887
  8
0
 10
160.27957740089789
 20
270.65664807774027
 30
0.0
  0
VERTEX
  5
14888
  8
0
 10
160.2863637154382
 20
270.67100253292142
 30
0.0
  0
VERTEX
  5
14889
  8
0
 10
160.30035287768291
 20
270.69941799400209
 30
0.0
  0
VERTEX
  5
1488A
  8
0
 10
160.31486886798501
 20
270.72740021921868
 30
0.0
  0
VERTEX
  5
1488B
  8
0
 10
160.32231295091009
 20
270.74121375896198
 30
0.0
  0
VERTEX
  5
1488C
  8
0
 10
160.3298746103832
 20
270.7549012555412
 30
0.0
  0
VERTEX
  5
1488D
  8
0
 10
160.3453302826361
 20
270.78187649513387
 30
0.0
  0
VERTEX
  5
1488E
  8
0
 10
160.36119384745771
 20
270.8082851687688
 30
0.0
  0
VERTEX
  5
1488F
  8
0
 10
160.37742158245331
 20
270.83409069087128
 30
0.0
  0
VERTEX
  5
14890
  8
0
 10
160.39396860285501
 20
270.85926088340079
 30
0.0
  0
VERTEX
  5
14891
  8
0
 10
160.41078963789019
 20
270.8837684796145
 30
0.0
  0
VERTEX
  5
14892
  8
0
 10
160.41928938571201
 20
270.8957674649414
 30
0.0
  0
VERTEX
  5
14893
  8
0
 10
160.42784116542001
 20
270.9075933359652
 30
0.0
  0
VERTEX
  5
14894
  8
0
 10
160.4450775733898
 20
270.93071623427232
 30
0.0
  0
VERTEX
  5
14895
  8
0
 10
160.46245174188991
 20
270.95311964921939
 30
0.0
  0
VERTEX
  5
14896
  8
0
 10
160.47991582810599
 20
270.97478858373228
 30
0.0
  0
VERTEX
  5
14897
  8
0
 10
160.4974216369545
 20
270.99571072126378
 30
0.0
  0
VERTEX
  5
14898
  8
0
 10
160.51492095480279
 20
271.01587648224091
 30
0.0
  0
VERTEX
  5
14899
  8
0
 10
160.5236531815323
 20
271.02567347278091
 30
0.0
  0
VERTEX
  5
1489A
  8
0
 10
160.53236584618949
 20
271.03527900461108
 30
0.0
  0
VERTEX
  5
1489B
  8
0
 10
160.5497089148146
 20
271.05391406566059
 30
0.0
  0
VERTEX
  5
1489C
  8
0
 10
160.56690353107291
 20
271.07177995972302
 30
0.0
  0
VERTEX
  5
1489D
  8
0
 10
160.5754308565368
 20
271.08042458693279
 30
0.0
  0
VERTEX
  5
1489E
  8
0
 10
160.58390402919599
 20
271.08887734411468
 30
0.0
  0
VERTEX
  5
1489F
  8
0
 10
160.6006855477128
 20
271.10522793174209
 30
0.0
  0
VERTEX
  5
148A0
  8
0
 10
160.61740904335909
 20
271.12102486215139
 30
0.0
  0
VERTEX
  5
148A1
  8
0
 10
160.62576452354369
 20
271.12873816704092
 30
0.0
  0
VERTEX
  5
148A2
  8
0
 10
160.63411481532589
 20
271.13633067940418
 30
0.0
  0
VERTEX
  5
148A3
  8
0
 10
160.65079695772269
 20
271.15116098256863
 30
0.0
  0
VERTEX
  5
148A4
  8
0
 10
160.66744994405269
 20
271.16553062037042
 30
0.0
  0
VERTEX
  5
148A5
  8
0
 10
160.68406856914891
 20
271.1794537228825
 30
0.0
  0
VERTEX
  5
148A6
  8
0
 10
160.7006478982521
 20
271.1929437353599
 30
0.0
  0
VERTEX
  5
148A7
  8
0
 10
160.71718322279051
 20
271.2060134535725
 30
0.0
  0
VERTEX
  5
148A8
  8
0
 10
160.72543296429851
 20
271.21239453232351
 30
0.0
  0
VERTEX
  5
148A9
  8
0
 10
160.73367002239129
 20
271.21867506005083
 30
0.0
  0
VERTEX
  5
148AA
  8
0
 10
160.75010393264819
 20
271.23094016072952
 30
0.0
  0
VERTEX
  5
148AB
  8
0
 10
160.76648071816049
 20
271.24281982153121
 30
0.0
  0
VERTEX
  5
148AC
  8
0
 10
160.8232907701308
 20
271.28151164973588
 30
0.0
  0
VERTEX
  5
148AD
  8
0
 10
160.918457948624
 20
271.33830528180528
 30
0.0
  0
VERTEX
  5
148AE
  8
0
 10
161.0101874699935
 20
271.38453772525071
 30
0.0
  0
VERTEX
  5
148AF
  8
0
 10
161.09782336093579
 20
271.42167942071279
 30
0.0
  0
VERTEX
  5
148B0
  8
0
 10
161.1399130569238
 20
271.43724294074701
 30
0.0
  0
VERTEX
  5
148B1
  8
0
 10
161.1807591242106
 20
271.45099918765959
 30
0.0
  0
VERTEX
  5
148B2
  8
0
 10
161.25847317298371
 20
271.473640941143
 30
0.0
  0
VERTEX
  5
148B3
  8
0
 10
161.33051108698089
 20
271.49064795738332
 30
0.0
  0
VERTEX
  5
148B4
  8
0
 10
161.39648116421671
 20
271.502979330362
 30
0.0
  0
VERTEX
  5
148B5
  8
0
 10
161.45604433411509
 20
271.5115164812164
 30
0.0
  0
VERTEX
  5
148B6
  8
0
 10
161.50892434362609
 20
271.51706674779348
 30
0.0
  0
VERTEX
  5
148B7
  8
0
 10
161.53279173547489
 20
271.51895312077318
 30
0.0
  0
VERTEX
  5
148B8
  8
0
 10
161.55491701738251
 20
271.52035998694282
 30
0.0
  0
VERTEX
  5
148B9
  8
0
 10
161.59388572741409
 20
271.52204092264333
 30
0.0
  0
VERTEX
  5
148BA
  8
0
 10
161.62576258012169
 20
271.52266192881598
 30
0.0
  0
VERTEX
  5
148BB
  8
0
 10
161.63903908145289
 20
271.52272068512929
 30
0.0
  0
SEQEND
  5
148BC
  8
0
  0
LINE
  5
108C4
  8
0
 10
91.18343369024177
 20
273.52272068512929
 30
0.0
 11
205.1834336902418
 21
273.52272068512929
 31
0.0
  0
ARC
  5
108CD
  8
0
 10
168.68343369024171
 20
224.58519280822819
 30
0.0
 40
1.999999999999996
 50
0.0
 51
73.690734553588271
  0
ARC
  5
108CE
  8
0
 10
168.68343369024171
 20
84.460248562030515
 30
0.0
 40
2.0000000000000009
 50
286.3092654464117
 51
0.0
  0
ARC
  5
108CF
  8
0
 10
148.18343369024191
 20
154.52272068512909
 30
0.0
 40
75.000000000000043
 50
253.6907345535883
 51
286.3092654464117
  0
ARC
  5
108D0
  8
0
 10
148.18343369024191
 20
154.52272068512929
 30
0.0
 40
75.000000000000199
 50
73.690734553588271
 51
106.3092654464117
  0
ARC
  5
108D1
  8
0
 10
127.6834336902417
 20
224.58519280822819
 30
0.0
 40
1.9999999999999989
 50
106.3092654464117
 51
180.0
  0
ARC
  5
108D2
  8
0
 10
127.6834336902417
 20
84.460248562030515
 30
0.0
 40
1.9999999999999889
 50
180.0
 51
253.6907345535883
  0
LINE
  5
108D3
  8
0
 10
170.68343369024171
 20
224.58519280822819
 30
0.0
 11
170.68343369024171
 21
84.460248562030515
 31
0.0
  0
LINE
  5
108D4
  8
0
 10
125.6834336902417
 20
224.58519280822819
 30
0.0
 11
125.6834336902417
 21
84.460248562030515
 31
0.0
  0
LINE
  5
108D5
  8
0
 10
136.08728997958531
 20
270.65664807774027
 30
0.0
 11
136.7336862219359
 21
269.27044686262838
 31
0.0
  0
LINE
  5
108D6
  8
1
 10
148.18343369024191
 20
63.799171832563381
 30
0.0
 11
148.18343369024191
 21
289.2462695376949
 31
0.0
  0
LINE
  5
13E01
  8
0
 10
415.8967880919713
 20
514.55690611222349
 30
0.0
 11
415.8967880919713
 21
506.48784438300669
 31
0.0
  0
LINE
  5
13E02
  8
0
 10
398.57178809197143
 20
514.55690611222349
 30
0.0
 11
398.57178809197143
 21
506.48784438300669
 31
0.0
  0
LINE
  5
13E03
  8
0
 10
415.8967880919713
 20
427.90690611222351
 30
0.0
 11
415.8967880919713
 21
421.00690611222348
 31
0.0
  0
LINE
  5
13E04
  8
0
 10
398.57178809197143
 20
427.90690611222351
 30
0.0
 11
398.57178809197143
 21
421.00690611222348
 31
0.0
  0
TEXT
  5
13E60
  8
0
 62
     3
 10
0.0
 20
0.0
 30
0.0
 40
10.0
  1
CAFF-150PBL
  7
STANDARD1
  0
ENDSEC
  0
EOF
