  0
SECTION
  2
HEADER
  9
$ACADVER
  1
AC1009
  9
$INSBASE
 10
0.0
 20
0.0
 30
0.0
  9
$EXTMIN
 10
0.0
 20
-2.960436562073669
 30
0.0
  9
$EXTMAX
 10
553.72328067484068
 20
434.5690887083677
 30
0.0
  9
$LIMMIN
 10
0.0
 20
0.0
  9
$LIMMAX
 10
375.0
 20
270.0
  9
$ORTHOMODE
 70
     1
  9
$REGENMODE
 70
     1
  9
$FILLMODE
 70
     1
  9
$QTEXTMODE
 70
     0
  9
$MIRRTEXT
 70
     1
  9
$DRAGMODE
 70
     2
  9
$LTSCALE
 40
10.0
  9
$OSMODE
 70
  3071
  9
$ATTMODE
 70
     1
  9
$TEXTSIZE
 40
5.0
  9
$TRACEWID
 40
0.05
  9
$TEXTSTYLE
  7
STANDARD
  9
$CLAYER
  8
0
  9
$CELTYPE
  6
BYLAYER
  9
$CECOLOR
 62
     6
  9
$DIMSCALE
 40
1.0
  9
$DIMASZ
 40
3.0
  9
$DIMEXO
 40
2.0
  9
$DIMDLI
 40
0.38
  9
$DIMRND
 40
0.0
  9
$DIMDLE
 40
0.0
  9
$DIMEXE
 40
2.0
  9
$DIMTP
 40
0.0
  9
$DIMTM
 40
0.0
  9
$DIMTXT
 40
3.2000000000000002
  9
$DIMCEN
 40
0.0
  9
$DIMTSZ
 40
0.0
  9
$DIMTOL
 70
     0
  9
$DIMLIM
 70
     0
  9
$DIMTIH
 70
     0
  9
$DIMTOH
 70
     0
  9
$DIMSE1
 70
     0
  9
$DIMSE2
 70
     0
  9
$DIMTAD
 70
     1
  9
$DIMZIN
 70
     8
  9
$DIMBLK
  1

  9
$DIMASO
 70
     0
  9
$DIMSHO
 70
     0
  9
$DIMPOST
  1

  9
$DIMAPOST
  1

  9
$DIMALT
 70
     0
  9
$DIMALTD
 70
     2
  9
$DIMALTF
 40
25.399999999999999
  9
$DIMLFAC
 40
1.0
  9
$DIMTOFL
 70
     0
  9
$DIMTVP
 40
1.6000000000000001
  9
$DIMTIX
 70
     1
  9
$DIMSOXD
 70
     0
  9
$DIMSAH
 70
     0
  9
$DIMBLK1
  1

  9
$DIMBLK2
  1

  9
$DIMSTYLE
  2
STANDARD
  9
$DIMCLRD
 70
     0
  9
$DIMCLRE
 70
     0
  9
$DIMCLRT
 70
     0
  9
$DIMTFAC
 40
1.0
  9
$DIMGAP
 40
1.1999999999999991
  9
$LUNITS
 70
     2
  9
$LUPREC
 70
     4
  9
$SKETCHINC
 40
0.1
  9
$FILLETRAD
 40
0.0
  9
$AUNITS
 70
     0
  9
$AUPREC
 70
     4
  9
$MENU
  1
ACAD
  9
$ELEVATION
 40
0.0
  9
$PELEVATION
 40
0.0
  9
$THICKNESS
 40
0.0
  9
$LIMCHECK
 70
     0
  9
$BLIPMODE
 70
     0
  9
$CHAMFERA
 40
0.0
  9
$CHAMFERB
 40
0.0
  9
$SKPOLY
 70
     0
  9
$TDCREATE
 40
2448055.7149187499
  9
$TDUPDATE
 40
2456598.57626779
  9
$TDINDWG
 40
2.0631869676000001
  9
$TDUSRTIMER
 40
2.0631869676000001
  9
$USRTIMER
 70
     1
  9
$ANGBASE
 50
0.0
  9
$ANGDIR
 70
     0
  9
$PDMODE
 70
     0
  9
$PDSIZE
 40
0.0
  9
$PLINEWID
 40
0.0
  9
$COORDS
 70
     1
  9
$SPLFRAME
 70
     0
  9
$SPLINETYPE
 70
     6
  9
$SPLINESEGS
 70
     8
  9
$ATTDIA
 70
     0
  9
$ATTREQ
 70
     1
  9
$HANDLING
 70
     1
  9
$HANDSEED
  5
1436A
  9
$SURFTAB1
 70
     6
  9
$SURFTAB2
 70
     6
  9
$SURFTYPE
 70
     6
  9
$SURFU
 70
     6
  9
$SURFV
 70
     6
  9
$UCSNAME
  2

  9
$UCSORG
 10
0.0
 20
0.0
 30
0.0
  9
$UCSXDIR
 10
1.0
 20
0.0
 30
0.0
  9
$UCSYDIR
 10
0.0
 20
1.0
 30
0.0
  9
$PUCSNAME
  2

  9
$PUCSORG
 10
0.0
 20
0.0
 30
0.0
  9
$PUCSXDIR
 10
1.0
 20
0.0
 30
0.0
  9
$PUCSYDIR
 10
0.0
 20
1.0
 30
0.0
  9
$USERI1
 70
     0
  9
$USERI2
 70
     0
  9
$USERI3
 70
     0
  9
$USERI4
 70
     0
  9
$USERI5
 70
     0
  9
$USERR1
 40
0.0
  9
$USERR2
 40
0.0
  9
$USERR3
 40
0.0
  9
$USERR4
 40
0.0
  9
$USERR5
 40
0.0
  9
$WORLDVIEW
 70
     1
  9
$SHADEDGE
 70
     3
  9
$SHADEDIF
 70
    70
  9
$TILEMODE
 70
     1
  9
$MAXACTVP
 70
    16
  9
$PLIMCHECK
 70
     0
  9
$PEXTMIN
 10
1.0000000000000000E+020
 20
1.0000000000000000E+020
 30
1.0000000000000000E+020
  9
$PEXTMAX
 10
-1.0000000000000000E+020
 20
-1.0000000000000000E+020
 30
-1.0000000000000000E+020
  9
$PLIMMIN
 10
0.0
 20
0.0
  9
$PLIMMAX
 10
12.0
 20
9.0
  9
$UNITMODE
 70
     0
  9
$VISRETAIN
 70
     0
  9
$PLINEGEN
 70
     1
  9
$PSLTSCALE
 70
     0
  0
ENDSEC
  0
SECTION
  2
TABLES
  0
TABLE
  2
VPORT
 70
     1
  0
VPORT
  2
*ACTIVE
 70
     0
 10
0.0
 20
0.0
 11
1.0
 21
1.0
 12
288.98558006901061
 22
215.80914829644169
 13
0.0
 23
0.0
 14
5.0
 24
5.0
 15
10.0
 25
10.0
 16
0.0
 26
0.0
 36
1.0
 17
0.0
 27
0.0
 37
0.0
 40
441.47058986071801
 41
1.831871345029239
 42
50.0
 43
0.0
 44
0.0
 50
0.0
 51
0.0
 71
     0
 72
   500
 73
     1
 74
     1
 75
     0
 76
     0
 77
     0
 78
     2
  0
ENDTAB
  0
TABLE
  2
LTYPE
 70
     3
  0
LTYPE
  2
CONTINUOUS
 70
     0
  3
実線
 72
    65
 73
     0
 40
0.0
  0
LTYPE
  2
CENTER
 70
     0
  3
____ _ ____ _ ____ _ ____ _ ____ _ ____ _ ____
 72
    65
 73
     4
 40
2.0
 49
1.25
 49
-0.25
 49
0.25
 49
-0.25
  0
LTYPE
  2
PHANTOM2
 70
     0
  3
___ _ _ ___ _ _ ___ _ _ ___ _ _
 72
    65
 73
     6
 40
1.25
 49
0.625
 49
-0.125
 49
0.125
 49
-0.125
 49
0.125
 49
-0.125
  0
ENDTAB
  0
TABLE
  2
LAYER
 70
     4
  0
LAYER
  2
0
 70
     0
 62
     7
  6
CONTINUOUS
  0
LAYER
  2
1
 70
     0
 62
     1
  6
CENTER
  0
LAYER
  2
DEFPOINTS
 70
     0
 62
     7
  6
CONTINUOUS
  0
LAYER
  2
3
 70
     0
 62
     3
  6
CONTINUOUS
  0
ENDTAB
  0
TABLE
  2
STYLE
 70
     3
  0
STYLE
  2
STANDARD
 70
     0
 40
0.0
 41
1.0
 50
0.0
 71
     0
 42
5.0
  3
simplex.shx
  4
bigfont.shx
  0
STYLE
  2
07500
 70
     0
 40
0.0
 41
0.75
 50
0.0
 71
     0
 42
0.2
  3
simplex.shx
  4
bigfont.shx
  0
STYLE
  2
STANDARD1
 70
     0
 40
0.0
 41
1.0
 50
0.0
 71
     0
 42
3.0
  3
txt
  4

  0
ENDTAB
  0
TABLE
  2
VIEW
 70
     2
  0
VIEW
  2
ALL
 70
     0
 40
270.0
 10
220.99159663865549
 20
135.0
 41
0.0
 11
0.0
 21
0.0
 31
1.0
 12
0.0
 22
0.0
 32
0.0
 42
0.0
 43
0.0
 44
0.0
 50
0.0
 71
     0
  0
VIEW
  2
OLE1
 70
     0
 40
168.2487151179721
 10
2892.3009567448912
 20
702.51600084347126
 41
162.5749581879237
 11
0.0
 21
0.0
 31
1.0
 12
0.0
 22
0.0
 32
0.0
 42
50.0
 43
0.0
 44
0.0
 50
0.0
 71
     0
  0
ENDTAB
  0
TABLE
  2
UCS
 70
     0
  0
ENDTAB
  0
TABLE
  2
APPID
 70
    48
  0
APPID
  2
ACAD
 70
     0
  0
APPID
  2
DCO15
 70
     0
  0
APPID
  2
GENIUS_GENOREF_13
 70
     0
  0
APPID
  2
GENIUS_GENOENT_13
 70
     0
  0
APPID
  2
GENIUS_GENBH_13
 70
     0
  0
APPID
  2
GENIUS_GENOBJ_13
 70
     0
  0
APPID
  2
GENIUS_GENODEF_13
 70
     0
  0
APPID
  2
GENIUS_GENOLIS_13
 70
     0
  0
APPID
  2
GENIUS_GENOBJ-NBEHI-BHF_13
 70
     0
  0
APPID
  2
GENIUS_GENOBJ-NBEHI-BHB_13
 70
     0
  0
APPID
  2
GENIUS_GENOBJ-F-PART_13
 70
     0
  0
APPID
  2
GENIUS_GEFSTDP_13
 70
     0
  0
APPID
  2
GENIUS_GENOBJ-N-RSSYM_13
 70
     0
  0
APPID
  2
GENIUS_GENSYMENT_13
 70
     0
  0
APPID
  2
GENIUS_GENOBJ-N-TIT_13
 70
     0
  0
APPID
  2
GENIUS_GENTITLE_13
 70
     0
  0
APPID
  2
GENIUS_GENZVEED_13
 70
     0
  0
APPID
  2
GENIUS_GENOBJ-N-LEADER_13
 70
     0
  0
APPID
  2
GENIUS_GENOBJ-N-FIL_13
 70
     0
  0
APPID
  2
GENIUS_GENOBJ-N-SEC_13
 70
     0
  0
APPID
  2
GENIUS_GENOBJ-N-CRS_13
 70
     0
  0
APPID
  2
GENIUS_GENOBJ-N-ZOO_13
 70
     0
  0
APPID
  2
GENIUS_GENZOO_13
 70
     0
  0
APPID
  2
GENIUS_GENOBJ-F-TOL_13
 70
     0
  0
APPID
  2
GENIUS_GENFIL_13
 70
     0
  0
APPID
  2
GENIUS_GENOBJ-N-CHA_13
 70
     0
  0
APPID
  2
_CALL_MAC$
 70
     0
  0
APPID
  2
ASM_BASE
 70
     0
  0
APPID
  2
ASM_EXPLO_VER_2_00
 70
     0
  0
APPID
  2
ASM_CADM_VER_12_00
 70
     0
  0
APPID
  2
ASM_BASEFORO
 70
     0
  0
APPID
  2
ASM_BASETRAVI
 70
     0
  0
APPID
  2
ASM_BASETRAVI1
 70
     0
  0
APPID
  2
ASM_GRUPPI
 70
     0
  0
APPID
  2
ASM_CADM_ALBERO
 70
     0
  0
APPID
  2
ASM_GOLE
 70
     0
  0
APPID
  2
ACAD_MLEADERVER
 70
     0
  0
APPID
  2
ACAD_DSTYLE_DIMJAG
 70
     0
  0
APPID
  2
ACAD_DSTYLE_DIMTALN
 70
     0
  0
APPID
  2
ACAD_EXEMPT_FROM_CAD_STANDARDS
 70
     0
  0
APPID
  2
ACAD_DSTYLE_DIMRADIAL_EXTENSION
 70
     0
  0
APPID
  2
ACAD_PSEXT
 70
     0
  0
APPID
  2
ACAD_DSTYLE_DIMBREAK
 70
     0
  0
APPID
  2
ACAECLAYERSTANDARD
 70
     0
  0
APPID
  2
ACCMTRANSPARENCY
 70
     0
  0
APPID
  2
GRADIENTCOLOR1ACI
 70
     0
  0
APPID
  2
GRADIENTCOLOR2ACI
 70
     0
  0
APPID
  2
ACAD_NAV_VCDISPLAY
 70
     0
  0
ENDTAB
  0
TABLE
  2
DIMSTYLE
 70
     1
  0
DIMSTYLE
  2
STANDARD
 70
     0
  3

  4

  5

  6

  7

 40
1.0
 41
0.18
 42
0.0625
 43
0.38
 44
0.18
 45
0.0
 46
0.0
 47
0.0
 48
0.0
140
0.18
141
0.09
142
0.0
143
25.399999999999999
144
1.0
145
0.0
146
1.0
147
0.09
 71
     0
 72
     0
 73
     1
 74
     1
 75
     0
 76
     0
 77
     0
 78
     0
170
     0
171
     2
172
     0
173
     0
174
     0
175
     0
176
     0
177
     0
178
     0
  0
ENDTAB
  0
ENDSEC
  0
SECTION
  2
BLOCKS
  0
BLOCK
  8
0
  2
$MODEL_SPACE
 70
     0
 10
0.0
 20
0.0
 30
0.0
  3
$MODEL_SPACE
  1

  0
ENDBLK
  5
36
  8
0
  0
BLOCK
 67
     1
  8
0
  2
$PAPER_SPACE
 70
     0
 10
0.0
 20
0.0
 30
0.0
  3
$PAPER_SPACE
  1

  0
ENDBLK
  5
34
 67
     1
  8
0
  0
ENDSEC
  0
SECTION
  2
ENTITIES
  0
LINE
  5
A80D
  8
0
 10
546.02328067484063
 20
243.44368873142051
 30
0.0
 11
546.02328067484063
 21
244.24368873142049
 31
0.0
  0
LINE
  5
A80E
  8
0
 10
476.42328067484073
 20
244.24368873142049
 30
0.0
 11
476.42328067484073
 21
243.44368873142051
 31
0.0
  0
LINE
  5
A80F
  8
0
 10
545.72450133881875
 20
234.94368873142051
 30
0.0
 11
547.22328067484057
 21
243.44368873142051
 31
0.0
  0
LINE
  5
A810
  8
0
 10
475.22328067484062
 20
243.44368873142051
 30
0.0
 11
476.72206001086249
 21
234.94368873142051
 31
0.0
  0
LINE
  5
A811
  8
0
 10
544.22328067484057
 20
198.24419727447321
 30
0.0
 11
544.22328067484057
 21
234.94368873142051
 31
0.0
  0
LINE
  5
A812
  8
0
 10
478.22328067484068
 20
234.94368873142051
 30
0.0
 11
478.22328067484068
 21
198.24419727447321
 31
0.0
  0
LINE
  5
A819
  8
0
 10
553.72328067484068
 20
246.74368873142049
 30
0.0
 11
553.72328067484068
 21
244.24368873142049
 31
0.0
  0
LINE
  5
A81B
  8
0
 10
468.72328067484062
 20
246.74368873142049
 30
0.0
 11
553.72328067484068
 21
246.74368873142049
 31
0.0
  0
LINE
  5
A81D
  8
0
 10
468.72328067484062
 20
244.24368873142049
 30
0.0
 11
553.72328067484068
 21
244.24368873142049
 31
0.0
  0
LINE
  5
A81E
  8
0
 10
468.72328067484062
 20
246.74368873142049
 30
0.0
 11
468.72328067484062
 21
244.24368873142049
 31
0.0
  0
LINE
  5
A832
  8
0
 10
475.22328067484062
 20
243.44368873142051
 30
0.0
 11
547.22328067484057
 21
243.44368873142051
 31
0.0
  0
LINE
  5
A833
  8
0
 10
476.72206001086249
 20
234.94368873142051
 30
0.0
 11
545.72450133881875
 21
234.94368873142051
 31
0.0
  0
LINE
  5
A83A
  8
0
 10
533.72328067484057
 20
175.56739723372459
 30
0.0
 11
533.72328067484057
 21
169.74368873142049
 31
0.0
  0
LINE
  5
A83B
  8
0
 10
530.72328067484057
 20
169.74368873142049
 30
0.0
 11
533.72328067484057
 21
169.74368873142049
 31
0.0
  0
LINE
  5
A83C
  8
0
 10
488.72328067484062
 20
169.74368873142049
 30
0.0
 11
491.72328067484068
 21
169.74368873142049
 31
0.0
  0
LINE
  5
A83D
  8
0
 10
488.72328067484062
 20
169.74368873142049
 30
0.0
 11
488.72328067484062
 21
175.56739723372459
 31
0.0
  0
POLYLINE
  5
A83E
  8
0
 66
     1
 10
0.0
 20
0.0
 30
0.0
  0
VERTEX
  5
13FE8
  8
0
 10
491.72328067484068
 20
176.21381799020401
 30
0.0
  0
VERTEX
  5
13FE9
  8
0
 10
491.15770801738722
 20
176.66663373647251
 30
0.0
  0
VERTEX
  5
13FEA
  8
0
 10
490.06262649490549
 20
177.61041666368521
 30
0.0
  0
VERTEX
  5
13FEB
  8
0
 10
489.01778467113871
 20
178.60318838455339
 30
0.0
  0
VERTEX
  5
13FEC
  8
0
 10
488.5149836771277
 20
179.1172128591077
 30
0.0
  0
VERTEX
  5
13FED
  8
0
 10
488.02566321317698
 20
179.64259185700629
 30
0.0
  0
VERTEX
  5
13FEE
  8
0
 10
487.08861761923498
 20
180.72615932570639
 30
0.0
  0
VERTEX
  5
13FEF
  8
0
 10
486.20887262621932
 20
181.8513181810024
 30
0.0
  0
VERTEX
  5
13FF0
  8
0
 10
485.38851692775029
 20
183.01539706682891
 30
0.0
  0
VERTEX
  5
13FF1
  8
0
 10
484.62949821517918
 20
184.21563222304849
 30
0.0
  0
VERTEX
  5
13FF2
  8
0
 10
483.93361855337213
 20
185.44917404718069
 30
0.0
  0
VERTEX
  5
13FF3
  8
0
 10
483.60987813187251
 20
186.07752264745741
 30
0.0
  0
VERTEX
  5
13FF4
  8
0
 10
483.30253010224118
 20
186.71309385993871
 30
0.0
  0
VERTEX
  5
13FF5
  8
0
 10
482.73773119418092
 20
188.00439085850911
 30
0.0
  0
VERTEX
  5
13FF6
  8
0
 10
482.24056277672207
 20
189.3199992410691
 30
0.0
  0
VERTEX
  5
13FF7
  8
0
 10
481.8122052288499
 20
190.65679548562309
 30
0.0
  0
VERTEX
  5
13FF8
  8
0
 10
481.45367555854358
 20
192.0116057658806
 30
0.0
  0
VERTEX
  5
13FF9
  8
0
 10
481.16582498819281
 20
193.38121348656401
 30
0.0
  0
VERTEX
  5
13FFA
  8
0
 10
481.04862453499862
 20
194.07055138398741
 30
0.0
  0
VERTEX
  5
13FFB
  8
0
 10
480.94933693362208
 20
194.76236692026191
 30
0.0
  0
VERTEX
  5
13FFC
  8
0
 10
480.80472538152338
 20
196.15178692769089
 30
0.0
  0
VERTEX
  5
13FFD
  8
0
 10
480.73233366914661
 20
197.5461747430389
 30
0.0
  0
VERTEX
  5
13FFE
  8
0
 10
480.72328067484062
 20
198.24419727447321
 30
0.0
  0
SEQEND
  5
13FFF
  8
0
  0
POLYLINE
  5
A83F
  8
0
 66
     1
 10
0.0
 20
0.0
 30
0.0
  0
VERTEX
  5
14000
  8
0
 10
480.72328067484062
 20
198.24419727447321
 30
0.0
  0
VERTEX
  5
14001
  8
0
 10
480.72650660106382
 20
198.66089514251951
 30
0.0
  0
VERTEX
  5
14002
  8
0
 10
480.75230991659402
 20
199.4939383106146
 30
0.0
  0
VERTEX
  5
14003
  8
0
 10
480.80389471547318
 20
200.3259240730244
 30
0.0
  0
VERTEX
  5
14004
  8
0
 10
480.83934238304249
 20
200.74130039366301
 30
0.0
  0
VERTEX
  5
14005
  8
0
 10
480.8812173518117
 20
201.15614848673221
 30
0.0
  0
VERTEX
  5
14006
  8
0
 10
480.98421240293942
 20
201.983909098998
 30
0.0
  0
VERTEX
  5
14007
  8
0
 10
481.11279272476071
 20
202.80850554170391
 30
0.0
  0
VERTEX
  5
14008
  8
0
 10
481.26684952548629
 20
203.62924012393529
 30
0.0
  0
VERTEX
  5
14009
  8
0
 10
481.4462524576827
 20
204.44541842229711
 30
0.0
  0
VERTEX
  5
1400A
  8
0
 10
481.65084972855811
 20
205.25634986846521
 30
0.0
  0
VERTEX
  5
1400B
  8
0
 10
481.76254297302421
 20
205.65963341736111
 30
0.0
  0
VERTEX
  5
1400C
  8
0
 10
481.8804682283955
 20
206.06134833347619
 30
0.0
  0
VERTEX
  5
1400D
  8
0
 10
482.13491367701971
 20
206.85973270826139
 30
0.0
  0
VERTEX
  5
1400E
  8
0
 10
482.41397078817857
 20
207.6508274799325
 30
0.0
  0
VERTEX
  5
1400F
  8
0
 10
482.7174034516965
 20
208.43396330333329
 30
0.0
  0
VERTEX
  5
14010
  8
0
 10
483.04495493324629
 20
209.2084775673722
 30
0.0
  0
VERTEX
  5
14011
  8
0
 10
483.39634809157383
 20
209.97371495565781
 30
0.0
  0
VERTEX
  5
14012
  8
0
 10
483.58089317022291
 20
210.35265216624941
 30
0.0
  0
VERTEX
  5
14013
  8
0
 10
483.77128561298491
 20
210.7290280009617
 30
0.0
  0
VERTEX
  5
14014
  8
0
 10
484.16945026290489
 20
211.4737776330405
 30
0.0
  0
VERTEX
  5
14015
  8
0
 10
484.59050515428862
 20
212.20733371935279
 30
0.0
  0
VERTEX
  5
14016
  8
0
 10
484.80950585941531
 20
212.5697198416988
 30
0.0
  0
VERTEX
  5
14017
  8
0
 10
485.03409403266181
 20
212.92907559821481
 30
0.0
  0
VERTEX
  5
14018
  8
0
 10
485.49984157754761
 20
213.6383926039411
 30
0.0
  0
VERTEX
  5
14019
  8
0
 10
485.9873537200246
 20
214.33468458352999
 30
0.0
  0
VERTEX
  5
1401A
  8
0
 10
486.23914332402632
 20
214.67776164042479
 30
0.0
  0
VERTEX
  5
1401B
  8
0
 10
486.49621797614918
 20
215.01736240445209
 30
0.0
  0
VERTEX
  5
1401C
  8
0
 10
487.0260037959581
 20
215.6858484531152
 30
0.0
  0
VERTEX
  5
1401D
  8
0
 10
487.57626292775598
 20
216.33957712358341
 30
0.0
  0
VERTEX
  5
1401E
  8
0
 10
488.14652979738207
 20
216.9779952961363
 30
0.0
  0
VERTEX
  5
1401F
  8
0
 10
488.73632190213192
 20
217.60056280526291
 30
0.0
  0
VERTEX
  5
14020
  8
0
 10
489.3451402190023
 20
218.20675289669589
 30
0.0
  0
VERTEX
  5
14021
  8
0
 10
489.65652384865092
 20
218.50354557712549
 30
0.0
  0
VERTEX
  5
14022
  8
0
 10
489.9724696269156
 20
218.79605267309901
 30
0.0
  0
VERTEX
  5
14023
  8
0
 10
490.6177793425631
 20
219.36796352802821
 30
0.0
  0
VERTEX
  5
14024
  8
0
 10
491.28052336949997
 20
219.92200156780291
 30
0.0
  0
VERTEX
  5
14025
  8
0
 10
491.96014096011459
 20
220.4576980209288
 30
0.0
  0
VERTEX
  5
14026
  8
0
 10
492.65605709007463
 20
220.97459963472511
 30
0.0
  0
VERTEX
  5
14027
  8
0
 10
493.36768294485739
 20
221.4722690588213
 30
0.0
  0
VERTEX
  5
14028
  8
0
 10
493.7291993661338
 20
221.71375946737521
 30
0.0
  0
VERTEX
  5
14029
  8
0
 10
494.09441641794399
 20
221.9502852151995
 30
0.0
  0
VERTEX
  5
1402A
  8
0
 10
494.8356426202626
 20
222.40824365446829
 30
0.0
  0
VERTEX
  5
1402B
  8
0
 10
495.5907344004446
 20
222.84575689806769
 30
0.0
  0
VERTEX
  5
1402C
  8
0
 10
496.35905287545978
 20
223.26245476611399
 30
0.0
  0
VERTEX
  5
1402D
  8
0
 10
497.13994797117209
 20
223.65798469060971
 30
0.0
  0
VERTEX
  5
1402E
  8
0
 10
497.9327589723697
 20
224.0320120137506
 30
0.0
  0
VERTEX
  5
1402F
  8
0
 10
498.33342369174937
 20
224.2108625865649
 30
0.0
  0
VERTEX
  5
14030
  8
0
 10
498.73681508179487
 20
224.38422027108021
 30
0.0
  0
VERTEX
  5
14031
  8
0
 10
499.55143598770542
 20
224.71431145924981
 30
0.0
  0
VERTEX
  5
14032
  8
0
 10
500.3759324394868
 20
225.02200628815939
 30
0.0
  0
VERTEX
  5
14033
  8
0
 10
501.20960683082711
 20
225.3070444172649
 30
0.0
  0
VERTEX
  5
14034
  8
0
 10
502.0517537899604
 20
225.56918467585189
 30
0.0
  0
VERTEX
  5
14035
  8
0
 10
502.90166077648308
 20
225.80820526709101
 30
0.0
  0
VERTEX
  5
14036
  8
0
 10
503.32929979921391
 20
225.91898172001351
 30
0.0
  0
VERTEX
  5
14037
  8
0
 10
503.75860868423382
 20
226.0239039556989
 30
0.0
  0
VERTEX
  5
14038
  8
0
 10
504.62187244972841
 20
226.21609823905101
 30
0.0
  0
VERTEX
  5
14039
  8
0
 10
505.49072166563718
 20
226.38462550159551
 30
0.0
  0
VERTEX
  5
1403A
  8
0
 10
506.3644211987812
 20
226.52934315244329
 30
0.0
  0
VERTEX
  5
1403B
  8
0
 10
507.24223181212909
 20
226.65012874601399
 30
0.0
  0
VERTEX
  5
1403C
  8
0
 10
508.12341079026532
 20
226.74688008563669
 30
0.0
  0
VERTEX
  5
1403D
  8
0
 10
508.5650305210371
 20
226.78621653220091
 30
0.0
  0
VERTEX
  5
1403E
  8
0
 10
509.00721256780122
 20
226.81951531001849
 30
0.0
  0
VERTEX
  5
1403F
  8
0
 10
509.89288936019778
 20
226.8679729625083
 30
0.0
  0
VERTEX
  5
14040
  8
0
 10
510.77969179646738
 20
226.8922120430943
 30
0.0
  0
VERTEX
  5
14041
  8
0
 10
511.22328067484068
 20
226.8952424089245
 30
0.0
  0
VERTEX
  5
14042
  8
0
 10
511.66686955321393
 20
226.8922120430943
 30
0.0
  0
VERTEX
  5
14043
  8
0
 10
512.55367198948352
 20
226.8679729625083
 30
0.0
  0
VERTEX
  5
14044
  8
0
 10
513.4393487818802
 20
226.81951531001849
 30
0.0
  0
VERTEX
  5
14045
  8
0
 10
513.88153082864426
 20
226.78621653220091
 30
0.0
  0
VERTEX
  5
14046
  8
0
 10
514.32315055941626
 20
226.74688008563669
 30
0.0
  0
VERTEX
  5
14047
  8
0
 10
515.20432953755221
 20
226.65012874601399
 30
0.0
  0
VERTEX
  5
14048
  8
0
 10
516.08214015090005
 20
226.52934315244329
 30
0.0
  0
VERTEX
  5
14049
  8
0
 10
516.95583968404412
 20
226.38462550159551
 30
0.0
  0
VERTEX
  5
1404A
  8
0
 10
517.82468889995278
 20
226.21609823905101
 30
0.0
  0
VERTEX
  5
1404B
  8
0
 10
518.68795266544737
 20
226.0239039556989
 30
0.0
  0
VERTEX
  5
1404C
  8
0
 10
519.11726155046745
 20
225.91898172001351
 30
0.0
  0
VERTEX
  5
1404D
  8
0
 10
519.54490057319811
 20
225.80820526709101
 30
0.0
  0
VERTEX
  5
1404E
  8
0
 10
520.39480755972079
 20
225.56918467585189
 30
0.0
  0
VERTEX
  5
1404F
  8
0
 10
521.2369545188543
 20
225.3070444172649
 30
0.0
  0
VERTEX
  5
14050
  8
0
 10
522.07062891019439
 20
225.02200628815939
 30
0.0
  0
VERTEX
  5
14051
  8
0
 10
522.89512536197594
 20
224.71431145924981
 30
0.0
  0
VERTEX
  5
14052
  8
0
 10
523.70974626788643
 20
224.38422027108021
 30
0.0
  0
VERTEX
  5
14053
  8
0
 10
524.11313765793193
 20
224.2108625865649
 30
0.0
  0
VERTEX
  5
14054
  8
0
 10
524.51380237731155
 20
224.0320120137506
 30
0.0
  0
VERTEX
  5
14055
  8
0
 10
525.30661337850916
 20
223.65798469060971
 30
0.0
  0
VERTEX
  5
14056
  8
0
 10
526.08750847422152
 20
223.26245476611399
 30
0.0
  0
VERTEX
  5
14057
  8
0
 10
526.85582694923664
 20
222.84575689806769
 30
0.0
  0
VERTEX
  5
14058
  8
0
 10
527.6109187294187
 20
222.40824365446829
 30
0.0
  0
VERTEX
  5
14059
  8
0
 10
528.35214493173714
 20
221.9502852151995
 30
0.0
  0
VERTEX
  5
1405A
  8
0
 10
528.71736198354745
 20
221.71375946737521
 30
0.0
  0
VERTEX
  5
1405B
  8
0
 10
529.07887840482385
 20
221.4722690588213
 30
0.0
  0
VERTEX
  5
1405C
  8
0
 10
529.79050425960668
 20
220.97459963472511
 30
0.0
  0
VERTEX
  5
1405D
  8
0
 10
530.48642038956666
 20
220.4576980209288
 30
0.0
  0
VERTEX
  5
1405E
  8
0
 10
531.16603798018116
 20
219.92200156780291
 30
0.0
  0
VERTEX
  5
1405F
  8
0
 10
531.82878200711821
 20
219.36796352802821
 30
0.0
  0
VERTEX
  5
14060
  8
0
 10
532.47409172276559
 20
218.79605267309901
 30
0.0
  0
VERTEX
  5
14061
  8
0
 10
532.79003750103038
 20
218.50354557712549
 30
0.0
  0
VERTEX
  5
14062
  8
0
 10
533.101421130679
 20
218.20675289669589
 30
0.0
  0
VERTEX
  5
14063
  8
0
 10
533.71023944754927
 20
217.60056280526291
 30
0.0
  0
VERTEX
  5
14064
  8
0
 10
534.30003155229917
 20
216.9779952961363
 30
0.0
  0
VERTEX
  5
14065
  8
0
 10
534.87029842192533
 20
216.33957712358341
 30
0.0
  0
VERTEX
  5
14066
  8
0
 10
535.42055755372326
 20
215.6858484531152
 30
0.0
  0
VERTEX
  5
14067
  8
0
 10
535.95034337353206
 20
215.01736240445209
 30
0.0
  0
VERTEX
  5
14068
  8
0
 10
536.20741802565487
 20
214.67776164042479
 30
0.0
  0
VERTEX
  5
14069
  8
0
 10
536.4592076296567
 20
214.33468458353011
 30
0.0
  0
VERTEX
  5
1406A
  8
0
 10
536.94671977213375
 20
213.6383926039411
 30
0.0
  0
VERTEX
  5
1406B
  8
0
 10
537.41246731701949
 20
212.92907559821481
 30
0.0
  0
VERTEX
  5
1406C
  8
0
 10
537.63705549026599
 20
212.56971984169891
 30
0.0
  0
VERTEX
  5
1406D
  8
0
 10
537.85605619539274
 20
212.20733371935279
 30
0.0
  0
VERTEX
  5
1406E
  8
0
 10
538.27711108677624
 20
211.4737776330405
 30
0.0
  0
VERTEX
  5
1406F
  8
0
 10
538.67527573669645
 20
210.7290280009617
 30
0.0
  0
VERTEX
  5
14070
  8
0
 10
538.86566817945845
 20
210.35265216624941
 30
0.0
  0
VERTEX
  5
14071
  8
0
 10
539.05021325810753
 20
209.97371495565781
 30
0.0
  0
VERTEX
  5
14072
  8
0
 10
539.4016064164349
 20
209.2084775673722
 30
0.0
  0
VERTEX
  5
14073
  8
0
 10
539.72915789798481
 20
208.43396330333329
 30
0.0
  0
VERTEX
  5
14074
  8
0
 10
540.03259056150273
 20
207.6508274799325
 30
0.0
  0
VERTEX
  5
14075
  8
0
 10
540.31164767266159
 20
206.85973270826139
 30
0.0
  0
VERTEX
  5
14076
  8
0
 10
540.5660931212858
 20
206.06134833347619
 30
0.0
  0
VERTEX
  5
14077
  8
0
 10
540.68401837665715
 20
205.65963341736111
 30
0.0
  0
VERTEX
  5
14078
  8
0
 10
540.79571162112325
 20
205.25634986846521
 30
0.0
  0
VERTEX
  5
14079
  8
0
 10
541.00030889199866
 20
204.44541842229711
 30
0.0
  0
VERTEX
  5
1407A
  8
0
 10
541.17971182419501
 20
203.62924012393529
 30
0.0
  0
VERTEX
  5
1407B
  8
0
 10
541.33376862492059
 20
202.80850554170391
 30
0.0
  0
VERTEX
  5
1407C
  8
0
 10
541.46234894674194
 20
201.983909098998
 30
0.0
  0
VERTEX
  5
1407D
  8
0
 10
541.56534399786949
 20
201.15614848673221
 30
0.0
  0
VERTEX
  5
1407E
  8
0
 10
541.60721896663881
 20
200.74130039366301
 30
0.0
  0
VERTEX
  5
1407F
  8
0
 10
541.64266663420813
 20
200.3259240730244
 30
0.0
  0
VERTEX
  5
14080
  8
0
 10
541.6942514330874
 20
199.4939383106146
 30
0.0
  0
VERTEX
  5
14081
  8
0
 10
541.72005474861737
 20
198.66089514251959
 30
0.0
  0
VERTEX
  5
14082
  8
0
 10
541.72328067484068
 20
198.24419727447321
 30
0.0
  0
SEQEND
  5
14083
  8
0
  0
POLYLINE
  5
A840
  8
0
 66
     1
 10
0.0
 20
0.0
 30
0.0
  0
VERTEX
  5
14084
  8
0
 10
541.72328067484068
 20
198.24419727447321
 30
0.0
  0
VERTEX
  5
14085
  8
0
 10
541.7142276805348
 20
197.5461747430389
 30
0.0
  0
VERTEX
  5
14086
  8
0
 10
541.64183596815781
 20
196.15178692769089
 30
0.0
  0
VERTEX
  5
14087
  8
0
 10
541.49722441605923
 20
194.76236692026191
 30
0.0
  0
VERTEX
  5
14088
  8
0
 10
541.39793681468268
 20
194.07055138398741
 30
0.0
  0
VERTEX
  5
14089
  8
0
 10
541.28073636148861
 20
193.38121348656401
 30
0.0
  0
VERTEX
  5
1408A
  8
0
 10
540.99288579113772
 20
192.0116057658806
 30
0.0
  0
VERTEX
  5
1408B
  8
0
 10
540.6343561208314
 20
190.65679548562309
 30
0.0
  0
VERTEX
  5
1408C
  8
0
 10
540.20599857295917
 20
189.3199992410691
 30
0.0
  0
VERTEX
  5
1408D
  8
0
 10
539.70883015550044
 20
188.00439085850911
 30
0.0
  0
VERTEX
  5
1408E
  8
0
 10
539.14403124744013
 20
186.71309385993871
 30
0.0
  0
VERTEX
  5
1408F
  8
0
 10
538.83668321780874
 20
186.07752264745741
 30
0.0
  0
VERTEX
  5
14090
  8
0
 10
538.51294279630918
 20
185.44917404718069
 30
0.0
  0
VERTEX
  5
14091
  8
0
 10
537.81706313450206
 20
184.21563222304849
 30
0.0
  0
VERTEX
  5
14092
  8
0
 10
537.05804442193096
 20
183.01539706682891
 30
0.0
  0
VERTEX
  5
14093
  8
0
 10
536.23768872346216
 20
181.8513181810024
 30
0.0
  0
VERTEX
  5
14094
  8
0
 10
535.35794373044632
 20
180.72615932570639
 30
0.0
  0
VERTEX
  5
14095
  8
0
 10
534.42089813650432
 20
179.64259185700629
 30
0.0
  0
VERTEX
  5
14096
  8
0
 10
533.93157767255354
 20
179.1172128591077
 30
0.0
  0
VERTEX
  5
14097
  8
0
 10
533.42877667854259
 20
178.60318838455339
 30
0.0
  0
VERTEX
  5
14098
  8
0
 10
532.38393485477582
 20
177.61041666368521
 30
0.0
  0
VERTEX
  5
14099
  8
0
 10
531.28885333229414
 20
176.66663373647251
 30
0.0
  0
VERTEX
  5
1409A
  8
0
 10
530.72328067484057
 20
176.21381799020401
 30
0.0
  0
SEQEND
  5
1409B
  8
0
  0
POLYLINE
  5
A842
  8
0
 66
     1
 10
0.0
 20
0.0
 30
0.0
  0
VERTEX
  5
1409C
  8
0
 10
488.72328067484062
 20
175.56739723372451
 30
0.0
  0
VERTEX
  5
1409D
  8
0
 10
488.17894272002241
 20
176.0550008885194
 30
0.0
  0
VERTEX
  5
1409E
  8
0
 10
487.12645813292511
 20
177.06453091150181
 30
0.0
  0
VERTEX
  5
1409F
  8
0
 10
486.12404045768102
 20
178.11806675670539
 30
0.0
  0
VERTEX
  5
140A0
  8
0
 10
485.64226175863382
 20
178.66065625715871
 30
0.0
  0
VERTEX
  5
140A1
  8
0
 10
485.17377245675033
 20
179.21341945144729
 30
0.0
  0
VERTEX
  5
140A2
  8
0
 10
484.27762853917142
 20
180.34831313853829
 30
0.0
  0
VERTEX
  5
140A3
  8
0
 10
483.43747065825642
 20
181.520389804921
 30
0.0
  0
VERTEX
  5
140A4
  8
0
 10
482.6550444429356
 20
182.72721418100571
 30
0.0
  0
VERTEX
  5
140A5
  8
0
 10
481.93197557079742
 20
183.966278800526
 30
0.0
  0
VERTEX
  5
140A6
  8
0
 10
481.2697663903536
 20
185.23500921039849
 30
0.0
  0
VERTEX
  5
140A7
  8
0
 10
480.96191917209251
 20
185.8796775671106
 30
0.0
  0
VERTEX
  5
140A8
  8
0
 10
480.66979279955098
 20
186.53076931976591
 30
0.0
  0
VERTEX
  5
140A9
  8
0
 10
480.13330138701531
 20
187.8508668771054
 30
0.0
  0
VERTEX
  5
140AA
  8
0
 10
479.66140684196353
 20
189.19255906402589
 30
0.0
  0
VERTEX
  5
140AB
  8
0
 10
479.25508963817191
 20
190.5530581941282
 30
0.0
  0
VERTEX
  5
140AC
  8
0
 10
478.91519399680692
 20
191.9295375050913
 30
0.0
  0
VERTEX
  5
140AD
  8
0
 10
478.64242613235302
 20
193.31913703194621
 30
0.0
  0
VERTEX
  5
140AE
  8
0
 10
478.53139770526008
 20
194.0179555195686
 30
0.0
  0
VERTEX
  5
140AF
  8
0
 10
478.43735278528402
 20
194.7189695493378
 30
0.0
  0
VERTEX
  5
140B0
  8
0
 10
478.30040004452388
 20
196.12612657042581
 30
0.0
  0
VERTEX
  5
140B1
  8
0
 10
478.23185246214598
 20
197.5376843899615
 30
0.0
  0
VERTEX
  5
140B2
  8
0
 10
478.22328067484068
 20
198.24419727447321
 30
0.0
  0
SEQEND
  5
140B3
  8
0
  0
POLYLINE
  5
A843
  8
0
 66
     1
 10
0.0
 20
0.0
 30
0.0
  0
VERTEX
  5
140B4
  8
0
 10
478.22328067484068
 20
198.24419727447321
 30
0.0
  0
VERTEX
  5
140B5
  8
0
 10
478.22677102124612
 20
198.69505070547419
 30
0.0
  0
VERTEX
  5
140B6
  8
0
 10
478.25468936263928
 20
199.59637610046221
 30
0.0
  0
VERTEX
  5
140B7
  8
0
 10
478.3105024237218
 20
200.49655741716791
 30
0.0
  0
VERTEX
  5
140B8
  8
0
 10
478.34885563781307
 20
200.94598097720319
 30
0.0
  0
VERTEX
  5
140B9
  8
0
 10
478.39416298107147
 20
201.39483301232721
 30
0.0
  0
VERTEX
  5
140BA
  8
0
 10
478.50560024950482
 20
202.29044285510659
 30
0.0
  0
VERTEX
  5
140BB
  8
0
 10
478.64471994196742
 20
203.18262917016551
 30
0.0
  0
VERTEX
  5
140BC
  8
0
 10
478.8114043493099
 20
204.07063707880931
 30
0.0
  0
VERTEX
  5
140BD
  8
0
 10
479.00551243988292
 20
204.95371523769251
 30
0.0
  0
VERTEX
  5
140BE
  8
0
 10
479.22687997886283
 20
205.83111647453001
 30
0.0
  0
VERTEX
  5
140BF
  8
0
 10
479.34772840730147
 20
206.2674560520241
 30
0.0
  0
VERTEX
  5
140C0
  8
0
 10
479.47531966721129
 20
206.7020984202797
 30
0.0
  0
VERTEX
  5
140C1
  8
0
 10
479.75062130014931
 20
207.56592413726051
 30
0.0
  0
VERTEX
  5
140C2
  8
0
 10
480.05255194500972
 20
208.42186274267519
 30
0.0
  0
VERTEX
  5
140C3
  8
0
 10
480.38085613832408
 20
209.2691900270103
 30
0.0
  0
VERTEX
  5
140C4
  8
0
 10
480.73525610196822
 20
210.10718906679011
 30
0.0
  0
VERTEX
  5
140C5
  8
0
 10
481.11545197819117
 20
210.9351508311648
 30
0.0
  0
VERTEX
  5
140C6
  8
0
 10
481.3151237026313
 20
211.34514846885401
 30
0.0
  0
VERTEX
  5
140C7
  8
0
 10
481.5211220833246
 20
211.7523747818214
 30
0.0
  0
VERTEX
  5
140C8
  8
0
 10
481.95192317995929
 20
212.55816946570991
 30
0.0
  0
VERTEX
  5
140C9
  8
0
 10
482.40749076735818
 20
213.3518531000806
 30
0.0
  0
VERTEX
  5
140CA
  8
0
 10
482.6444423499542
 20
213.74394300294691
 30
0.0
  0
VERTEX
  5
140CB
  8
0
 10
482.88743938986039
 20
214.13275414934111
 30
0.0
  0
VERTEX
  5
140CC
  8
0
 10
483.3913629630153
 20
214.9002118932417
 30
0.0
  0
VERTEX
  5
140CD
  8
0
 10
483.91883511717077
 20
215.65357698591171
 30
0.0
  0
VERTEX
  5
140CE
  8
0
 10
484.1912632133039
 20
216.02477511304369
 30
0.0
  0
VERTEX
  5
140CF
  8
0
 10
484.4694095582235
 20
216.39221200527001
 30
0.0
  0
VERTEX
  5
140D0
  8
0
 10
485.04262044522989
 20
217.11549199234801
 30
0.0
  0
VERTEX
  5
140D1
  8
0
 10
485.63798278455238
 20
217.82280498006779
 30
0.0
  0
VERTEX
  5
140D2
  8
0
 10
486.25499284021339
 20
218.51355251102669
 30
0.0
  0
VERTEX
  5
140D3
  8
0
 10
486.8931285601065
 20
219.18715014385211
 30
0.0
  0
VERTEX
  5
140D4
  8
0
 10
487.551850017704
 20
219.84302794769781
 30
0.0
  0
VERTEX
  5
140D5
  8
0
 10
487.88875689568448
 20
220.16414789701511
 30
0.0
  0
VERTEX
  5
140D6
  8
0
 10
488.2305998688891
 20
220.48063098446181
 30
0.0
  0
VERTEX
  5
140D7
  8
0
 10
488.92880382352382
 20
221.09941977831949
 30
0.0
  0
VERTEX
  5
140D8
  8
0
 10
489.6458711313573
 20
221.6988707721741
 30
0.0
  0
VERTEX
  5
140D9
  8
0
 10
490.38119508185832
 20
222.27847677063829
 30
0.0
  0
VERTEX
  5
140DA
  8
0
 10
491.13415351755287
 20
222.83774736917201
 30
0.0
  0
VERTEX
  5
140DB
  8
0
 10
491.90410936043259
 20
223.37620936901379
 30
0.0
  0
VERTEX
  5
140DC
  8
0
 10
492.29525827525617
 20
223.63749407335081
 30
0.0
  0
VERTEX
  5
140DD
  8
0
 10
492.69041115098548
 20
223.89340717755411
 30
0.0
  0
VERTEX
  5
140DE
  8
0
 10
493.49239359939543
 20
224.38890319381221
 30
0.0
  0
VERTEX
  5
140DF
  8
0
 10
494.30937814844509
 20
224.86227817869019
 30
0.0
  0
VERTEX
  5
140E0
  8
0
 10
495.14067354764171
 20
225.31313160969111
 30
0.0
  0
VERTEX
  5
140E1
  8
0
 10
495.98557643808448
 20
225.74108201980121
 30
0.0
  0
VERTEX
  5
140E2
  8
0
 10
496.84337194757688
 20
226.14576732024881
 30
0.0
  0
VERTEX
  5
140E3
  8
0
 10
497.27687803739758
 20
226.33927777608071
 30
0.0
  0
VERTEX
  5
140E4
  8
0
 10
497.71333429547963
 20
226.52684510686771
 30
0.0
  0
VERTEX
  5
140E5
  8
0
 10
498.59472740679269
 20
226.8839929498053
 30
0.0
  0
VERTEX
  5
140E6
  8
0
 10
499.48680553494972
 20
227.2169086663304
 30
0.0
  0
VERTEX
  5
140E7
  8
0
 10
500.38881389279322
 20
227.52531057651009
 30
0.0
  0
VERTEX
  5
140E8
  8
0
 10
501.29998929119961
 20
227.8089377415387
 30
0.0
  0
VERTEX
  5
140E9
  8
0
 10
502.21956078481458
 20
228.0675501845185
 30
0.0
  0
VERTEX
  5
140EA
  8
0
 10
502.68225218645728
 20
228.18740667456589
 30
0.0
  0
VERTEX
  5
140EB
  8
0
 10
503.14675032434792
 20
228.30092909350429
 30
0.0
  0
VERTEX
  5
140EC
  8
0
 10
504.0807734148832
 20
228.50887700663941
 30
0.0
  0
VERTEX
  5
140ED
  8
0
 10
505.02083977963701
 20
228.6912179792285
 30
0.0
  0
VERTEX
  5
140EE
  8
0
 10
505.96615402861238
 20
228.8477977326049
 30
0.0
  0
VERTEX
  5
140EF
  8
0
 10
506.9159163315789
 20
228.97848378466489
 30
0.0
  0
VERTEX
  5
140F0
  8
0
 10
507.86932309480812
 20
229.08316556196149
 30
0.0
  0
VERTEX
  5
140F1
  8
0
 10
508.34714116416808
 20
229.12572630742449
 30
0.0
  0
VERTEX
  5
140F2
  8
0
 10
508.82556764099439
 20
229.16175449325991
 30
0.0
  0
VERTEX
  5
140F3
  8
0
 10
509.78384089178462
 20
229.2141840844784
 30
0.0
  0
VERTEX
  5
140F4
  8
0
 10
510.74333205233847
 20
229.24040997494851
 30
0.0
  0
VERTEX
  5
140F5
  8
0
 10
511.22328067484068
 20
229.24368873142049
 30
0.0
  0
VERTEX
  5
140F6
  8
0
 10
511.70322929734277
 20
229.24040997494851
 30
0.0
  0
VERTEX
  5
140F7
  8
0
 10
512.66272045789674
 20
229.2141840844784
 30
0.0
  0
VERTEX
  5
140F8
  8
0
 10
513.62099370868691
 20
229.16175449325991
 30
0.0
  0
VERTEX
  5
140F9
  8
0
 10
514.09942018551317
 20
229.12572630742449
 30
0.0
  0
VERTEX
  5
140FA
  8
0
 10
514.57723825487324
 20
229.08316556196149
 30
0.0
  0
VERTEX
  5
140FB
  8
0
 10
515.5306450181024
 20
228.97848378466489
 30
0.0
  0
VERTEX
  5
140FC
  8
0
 10
516.48040732106892
 20
228.8477977326049
 30
0.0
  0
VERTEX
  5
140FD
  8
0
 10
517.42572157004429
 20
228.6912179792285
 30
0.0
  0
VERTEX
  5
140FE
  8
0
 10
518.36578793479816
 20
228.50887700663941
 30
0.0
  0
VERTEX
  5
140FF
  8
0
 10
519.29981102533327
 20
228.30092909350429
 30
0.0
  0
VERTEX
  5
14100
  8
0
 10
519.76430916322386
 20
228.18740667456589
 30
0.0
  0
VERTEX
  5
14101
  8
0
 10
520.22700056486701
 20
228.0675501845185
 30
0.0
  0
VERTEX
  5
14102
  8
0
 10
521.14657205848175
 20
227.8089377415387
 30
0.0
  0
VERTEX
  5
14103
  8
0
 10
522.05774745688814
 20
227.52531057651009
 30
0.0
  0
VERTEX
  5
14104
  8
0
 10
522.95975581473147
 20
227.2169086663304
 30
0.0
  0
VERTEX
  5
14105
  8
0
 10
523.85183394288845
 20
226.8839929498053
 30
0.0
  0
VERTEX
  5
14106
  8
0
 10
524.73322705420173
 20
226.52684510686771
 30
0.0
  0
VERTEX
  5
14107
  8
0
 10
525.16968331228372
 20
226.33927777608071
 30
0.0
  0
VERTEX
  5
14108
  8
0
 10
525.60318940210425
 20
226.14576732024881
 30
0.0
  0
VERTEX
  5
14109
  8
0
 10
526.46098491159682
 20
225.74108201980121
 30
0.0
  0
VERTEX
  5
1410A
  8
0
 10
527.30588780203971
 20
225.31313160969111
 30
0.0
  0
VERTEX
  5
1410B
  8
0
 10
528.13718320123621
 20
224.86227817869019
 30
0.0
  0
VERTEX
  5
1410C
  8
0
 10
528.95416775028593
 20
224.38890319381221
 30
0.0
  0
VERTEX
  5
1410D
  8
0
 10
529.75615019869576
 20
223.89340717755411
 30
0.0
  0
VERTEX
  5
1410E
  8
0
 10
530.15130307442519
 20
223.63749407335081
 30
0.0
  0
VERTEX
  5
1410F
  8
0
 10
530.54245198924866
 20
223.37620936901379
 30
0.0
  0
VERTEX
  5
14110
  8
0
 10
531.31240783212843
 20
222.83774736917201
 30
0.0
  0
VERTEX
  5
14111
  8
0
 10
532.06536626782304
 20
222.27847677063829
 30
0.0
  0
VERTEX
  5
14112
  8
0
 10
532.80069021832401
 20
221.6988707721741
 30
0.0
  0
VERTEX
  5
14113
  8
0
 10
533.51775752615754
 20
221.09941977831949
 30
0.0
  0
VERTEX
  5
14114
  8
0
 10
534.2159614807922
 20
220.48063098446181
 30
0.0
  0
VERTEX
  5
14115
  8
0
 10
534.55780445399682
 20
220.16414789701511
 30
0.0
  0
VERTEX
  5
14116
  8
0
 10
534.89471133197731
 20
219.84302794769781
 30
0.0
  0
VERTEX
  5
14117
  8
0
 10
535.5534327895748
 20
219.18715014385211
 30
0.0
  0
VERTEX
  5
14118
  8
0
 10
536.19156850946786
 20
218.51355251102669
 30
0.0
  0
VERTEX
  5
14119
  8
0
 10
536.80857856512887
 20
217.82280498006779
 30
0.0
  0
VERTEX
  5
1411A
  8
0
 10
537.40394090445136
 20
217.1154919923481
 30
0.0
  0
VERTEX
  5
1411B
  8
0
 10
537.97715179145769
 20
216.39221200527001
 30
0.0
  0
VERTEX
  5
1411C
  8
0
 10
538.25529813637729
 20
216.02477511304369
 30
0.0
  0
VERTEX
  5
1411D
  8
0
 10
538.52772623251053
 20
215.65357698591171
 30
0.0
  0
VERTEX
  5
1411E
  8
0
 10
539.05519838666567
 20
214.9002118932417
 30
0.0
  0
VERTEX
  5
1411F
  8
0
 10
539.55912195982091
 20
214.13275414934111
 30
0.0
  0
VERTEX
  5
14120
  8
0
 10
539.8021189997271
 20
213.74394300294691
 30
0.0
  0
VERTEX
  5
14121
  8
0
 10
540.03907058232312
 20
213.3518531000806
 30
0.0
  0
VERTEX
  5
14122
  8
0
 10
540.49463816972207
 20
212.55816946570991
 30
0.0
  0
VERTEX
  5
14123
  8
0
 10
540.92543926635676
 20
211.7523747818214
 30
0.0
  0
VERTEX
  5
14124
  8
0
 10
541.13143764705001
 20
211.34514846885401
 30
0.0
  0
VERTEX
  5
14125
  8
0
 10
541.33110937149013
 20
210.9351508311648
 30
0.0
  0
VERTEX
  5
14126
  8
0
 10
541.7113052477132
 20
210.10718906679011
 30
0.0
  0
VERTEX
  5
14127
  8
0
 10
542.06570521135723
 20
209.2691900270103
 30
0.0
  0
VERTEX
  5
14128
  8
0
 10
542.39400940467158
 20
208.42186274267519
 30
0.0
  0
VERTEX
  5
14129
  8
0
 10
542.69594004953206
 20
207.5659241372604
 30
0.0
  0
VERTEX
  5
1412A
  8
0
 10
542.97124168247001
 20
206.7020984202797
 30
0.0
  0
VERTEX
  5
1412B
  8
0
 10
543.09883294237977
 20
206.2674560520241
 30
0.0
  0
VERTEX
  5
1412C
  8
0
 10
543.21968137081853
 20
205.83111647453001
 30
0.0
  0
VERTEX
  5
1412D
  8
0
 10
543.4410489097985
 20
204.95371523769251
 30
0.0
  0
VERTEX
  5
1412E
  8
0
 10
543.63515700037135
 20
204.07063707880931
 30
0.0
  0
VERTEX
  5
1412F
  8
0
 10
543.80184140771394
 20
203.18262917016551
 30
0.0
  0
VERTEX
  5
14130
  8
0
 10
543.94096110017654
 20
202.29044285510659
 30
0.0
  0
VERTEX
  5
14131
  8
0
 10
544.05239836860983
 20
201.39483301232721
 30
0.0
  0
VERTEX
  5
14132
  8
0
 10
544.09770571186823
 20
200.94598097720319
 30
0.0
  0
VERTEX
  5
14133
  8
0
 10
544.13605892595945
 20
200.49655741716791
 30
0.0
  0
VERTEX
  5
14134
  8
0
 10
544.19187198704208
 20
199.59637610046221
 30
0.0
  0
VERTEX
  5
14135
  8
0
 10
544.21979032843524
 20
198.69505070547419
 30
0.0
  0
VERTEX
  5
14136
  8
0
 10
544.22328067484057
 20
198.24419727447321
 30
0.0
  0
SEQEND
  5
14137
  8
0
  0
POLYLINE
  5
A844
  8
0
 66
     1
 10
0.0
 20
0.0
 30
0.0
  0
VERTEX
  5
14138
  8
0
 10
544.22328067484057
 20
198.24419727447321
 30
0.0
  0
VERTEX
  5
14139
  8
0
 10
544.21470888753527
 20
197.5376843899615
 30
0.0
  0
VERTEX
  5
1413A
  8
0
 10
544.14616130515742
 20
196.12612657042581
 30
0.0
  0
VERTEX
  5
1413B
  8
0
 10
544.00920856439734
 20
194.7189695493378
 30
0.0
  0
VERTEX
  5
1413C
  8
0
 10
543.91516364442123
 20
194.0179555195686
 30
0.0
  0
VERTEX
  5
1413D
  8
0
 10
543.80413521732839
 20
193.31913703194621
 30
0.0
  0
VERTEX
  5
1413E
  8
0
 10
543.53136735287444
 20
191.9295375050913
 30
0.0
  0
VERTEX
  5
1413F
  8
0
 10
543.19147171150939
 20
190.5530581941282
 30
0.0
  0
VERTEX
  5
14140
  8
0
 10
542.78515450771783
 20
189.19255906402589
 30
0.0
  0
VERTEX
  5
14141
  8
0
 10
542.31325996266605
 20
187.8508668771054
 30
0.0
  0
VERTEX
  5
14142
  8
0
 10
541.77676855013033
 20
186.53076931976591
 30
0.0
  0
VERTEX
  5
14143
  8
0
 10
541.48464217758874
 20
185.8796775671106
 30
0.0
  0
VERTEX
  5
14144
  8
0
 10
541.17679495932771
 20
185.23500921039849
 30
0.0
  0
VERTEX
  5
14145
  8
0
 10
540.51458577888388
 20
183.966278800526
 30
0.0
  0
VERTEX
  5
14146
  8
0
 10
539.79151690674576
 20
182.72721418100571
 30
0.0
  0
VERTEX
  5
14147
  8
0
 10
539.00909069142494
 20
181.520389804921
 30
0.0
  0
VERTEX
  5
14148
  8
0
 10
538.16893281050989
 20
180.3483131385382
 30
0.0
  0
VERTEX
  5
14149
  8
0
 10
537.27278889293086
 20
179.21341945144729
 30
0.0
  0
VERTEX
  5
1414A
  8
0
 10
536.80429959104754
 20
178.66065625715871
 30
0.0
  0
VERTEX
  5
1414B
  8
0
 10
536.32252089200017
 20
178.11806675670539
 30
0.0
  0
VERTEX
  5
1414C
  8
0
 10
535.32010321675625
 20
177.06453091150181
 30
0.0
  0
VERTEX
  5
1414D
  8
0
 10
534.26761862965895
 20
176.0550008885194
 30
0.0
  0
VERTEX
  5
1414E
  8
0
 10
533.72328067484057
 20
175.56739723372451
 30
0.0
  0
SEQEND
  5
1414F
  8
0
  0
LINE
  5
A848
  8
0
 10
530.72328067484057
 20
220.2746054865502
 30
0.0
 11
530.72328067484057
 21
169.74368873142049
 31
0.0
  0
LINE
  5
A84B
  8
0
 10
491.72328067484068
 20
169.74368873142049
 30
0.0
 11
491.72328067484068
 21
220.2746054865502
 31
0.0
  0
LINE
  5
A865
  8
0
 10
535.72328067484057
 20
173.92868873142041
 30
0.0
 11
536.32328067484048
 21
173.92868873142041
 31
0.0
  0
LINE
  5
A867
  8
0
 10
476.49028067484068
 20
175.74368873142049
 30
0.0
 11
478.72328067484068
 21
175.74368873142049
 31
0.0
  0
LINE
  5
A868
  8
0
 10
478.72328067484068
 20
183.74368873142041
 30
0.0
 11
476.49028067484068
 21
183.74368873142041
 31
0.0
  0
LINE
  5
A869
  8
0
 10
475.72328067484062
 20
176.51068873142049
 30
0.0
 11
476.49028067484068
 21
175.74368873142049
 31
0.0
  0
LINE
  5
A86A
  8
0
 10
476.49028067484068
 20
183.74368873142041
 30
0.0
 11
475.72328067484062
 21
182.97668873142041
 31
0.0
  0
LINE
  5
A86C
  8
0
 10
540.76386096542524
 20
172.51718786206359
 30
0.0
 11
541.02328067484063
 21
173.48535539808711
 31
0.0
  0
LINE
  5
A86E
  8
0
 10
536.32328067484048
 20
173.48535539808711
 30
0.0
 11
536.58270038425621
 21
172.51718786206359
 31
0.0
  0
LINE
  5
A86F
  8
0
 10
486.72328067484068
 20
175.74368873142049
 30
0.0
 11
488.52354981054259
 21
175.74368873142049
 31
0.0
  0
LINE
  5
A872
  8
0
 10
478.72328067484068
 20
173.92868873142041
 30
0.0
 11
481.22328067484062
 21
173.92868873142041
 31
0.0
  0
LINE
  5
A874
  8
0
 10
481.1128896472369
 20
185.55868873142049
 30
0.0
 11
478.72328067484068
 21
185.55868873142049
 31
0.0
  0
LINE
  5
A876
  8
0
 10
486.463860965425
 20
172.51718786206359
 30
0.0
 11
486.72328067484068
 21
173.48535539808711
 31
0.0
  0
LINE
  5
A878
  8
0
 10
481.22328067484062
 20
173.48535539808711
 30
0.0
 11
481.48270038425619
 21
172.51718786206359
 31
0.0
  0
LINE
  5
A87A
  8
0
 10
533.92301153913866
 20
175.74368873142049
 30
0.0
 11
535.72328067484057
 21
175.74368873142049
 31
0.0
  0
LINE
  5
A87D
  8
0
 10
491.72328067484068
 20
173.74368873142049
 30
0.0
 11
496.22328067484062
 21
173.74368873142049
 31
0.0
  0
LINE
  5
A87F
  8
0
 10
526.22328067484057
 20
173.74368873142049
 30
0.0
 11
530.72328067484057
 21
173.74368873142049
 31
0.0
  0
LINE
  5
A882
  8
0
 10
530.72328067484057
 20
185.74368873142049
 30
0.0
 11
526.22328067484057
 21
185.74368873142049
 31
0.0
  0
LINE
  5
A884
  8
0
 10
496.22328067484062
 20
185.74368873142049
 30
0.0
 11
491.72328067484068
 21
185.74368873142049
 31
0.0
  0
LINE
  5
A887
  8
0
 10
535.72328067484057
 20
177.47591541084969
 30
0.0
 11
535.72328067484057
 21
173.92868873142041
 31
0.0
  0
LINE
  5
A888
  8
0
 10
476.49028067484068
 20
183.74368873142041
 30
0.0
 11
476.49028067484068
 21
175.74368873142049
 31
0.0
  0
LINE
  5
A889
  8
0
 10
475.72328067484062
 20
182.97668873142041
 30
0.0
 11
475.72328067484062
 21
176.51068873142049
 31
0.0
  0
LINE
  5
A88B
  8
0
 10
541.02328067484063
 20
184.93225686379671
 30
0.0
 11
541.02328067484063
 21
173.48535539808711
 31
0.0
  0
LINE
  5
A88D
  8
0
 10
536.32328067484048
 20
178.11758416269839
 30
0.0
 11
536.32328067484048
 21
173.48535539808711
 31
0.0
  0
POLYLINE
  5
A88E
  8
0
 66
     1
 10
0.0
 20
0.0
 30
0.0
  0
VERTEX
  5
14150
  8
0
 10
540.76386096542524
 20
176.130438296742
 30
0.0
  0
VERTEX
  5
14151
  8
0
 10
540.84470561868318
 20
175.80586440106981
 30
0.0
  0
VERTEX
  5
14152
  8
0
 10
540.9593159574365
 20
175.19630382229801
 30
0.0
  0
VERTEX
  5
14153
  8
0
 10
541.01609054122082
 20
174.6138956507223
 30
0.0
  0
VERTEX
  5
14154
  8
0
 10
541.02328067484063
 20
174.3238130794029
 30
0.0
  0
SEQEND
  5
14155
  8
0
  0
POLYLINE
  5
A88F
  8
0
 66
     1
 10
0.0
 20
0.0
 30
0.0
  0
VERTEX
  5
14156
  8
0
 10
541.02328067484063
 20
174.3238130794029
 30
0.0
  0
VERTEX
  5
14157
  8
0
 10
541.01609054122082
 20
174.03373050808341
 30
0.0
  0
VERTEX
  5
14158
  8
0
 10
540.95931595743616
 20
173.4513223365077
 30
0.0
  0
VERTEX
  5
14159
  8
0
 10
540.84470561868318
 20
172.8417617577359
 30
0.0
  0
VERTEX
  5
1415A
  8
0
 10
540.76386096542524
 20
172.51718786206359
 30
0.0
  0
SEQEND
  5
1415B
  8
0
  0
POLYLINE
  5
A890
  8
0
 66
     1
 10
0.0
 20
0.0
 30
0.0
  0
VERTEX
  5
1415C
  8
0
 10
536.58270038425621
 20
172.51718786206359
 30
0.0
  0
VERTEX
  5
1415D
  8
0
 10
536.50185573099805
 20
172.8417617577359
 30
0.0
  0
VERTEX
  5
1415E
  8
0
 10
536.38724539224495
 20
173.4513223365077
 30
0.0
  0
VERTEX
  5
1415F
  8
0
 10
536.33047080846063
 20
174.03373050808341
 30
0.0
  0
VERTEX
  5
14160
  8
0
 10
536.32328067484048
 20
174.3238130794029
 30
0.0
  0
SEQEND
  5
14161
  8
0
  0
POLYLINE
  5
A891
  8
0
 66
     1
 10
0.0
 20
0.0
 30
0.0
  0
VERTEX
  5
14162
  8
0
 10
536.32328067484048
 20
174.3238130794029
 30
0.0
  0
VERTEX
  5
14163
  8
0
 10
536.33047080846063
 20
174.6138956507223
 30
0.0
  0
VERTEX
  5
14164
  8
0
 10
536.38724539224495
 20
175.19630382229801
 30
0.0
  0
VERTEX
  5
14165
  8
0
 10
536.50185573099805
 20
175.80586440106981
 30
0.0
  0
VERTEX
  5
14166
  8
0
 10
536.58270038425621
 20
176.130438296742
 30
0.0
  0
SEQEND
  5
14167
  8
0
  0
LINE
  5
A892
  8
0
 10
540.76386096542524
 20
172.51718786206359
 30
0.0
 11
536.58270038425621
 21
172.51718786206359
 31
0.0
  0
POLYLINE
  5
A89E
  8
0
 66
     1
 10
0.0
 20
0.0
 30
0.0
  0
VERTEX
  5
14168
  8
0
 10
541.01809117789026
 20
184.9171951390052
 30
0.0
  0
VERTEX
  5
14169
  8
0
 10
541.00244543051849
 20
184.66876147166511
 30
0.0
  0
VERTEX
  5
1416A
  8
0
 10
540.93996235712359
 20
184.16497491744741
 30
0.0
  0
VERTEX
  5
1416B
  8
0
 10
540.83427008492924
 20
183.6365734059533
 30
0.0
  0
VERTEX
  5
1416C
  8
0
 10
540.76386096542524
 20
183.3569391660989
 30
0.0
  0
SEQEND
  5
1416D
  8
0
  0
LINE
  5
A8A6
  8
0
 10
540.76386096542524
 20
183.3569391660989
 30
0.0
 11
540.16881166912663
 21
183.3569391660989
 31
0.0
  0
POLYLINE
  5
A8A8
  8
0
 66
     1
 10
0.0
 20
0.0
 30
0.0
  0
VERTEX
  5
1416E
  8
0
 10
540.76386096542524
 20
183.3569391660989
 30
0.0
  0
VERTEX
  5
1416F
  8
0
 10
540.84470561868318
 20
182.70779137475441
 30
0.0
  0
VERTEX
  5
14170
  8
0
 10
540.9593159574365
 20
181.4886702172108
 30
0.0
  0
VERTEX
  5
14171
  8
0
 10
541.01609054122082
 20
180.32385387405941
 30
0.0
  0
VERTEX
  5
14172
  8
0
 10
541.02328067484063
 20
179.74368873142049
 30
0.0
  0
SEQEND
  5
14173
  8
0
  0
POLYLINE
  5
A8A9
  8
0
 66
     1
 10
0.0
 20
0.0
 30
0.0
  0
VERTEX
  5
14174
  8
0
 10
541.02328067484063
 20
179.74368873142049
 30
0.0
  0
VERTEX
  5
14175
  8
0
 10
541.01609054122082
 20
179.16352358878149
 30
0.0
  0
VERTEX
  5
14176
  8
0
 10
540.95931595743616
 20
177.99870724563019
 30
0.0
  0
VERTEX
  5
14177
  8
0
 10
540.84470561868318
 20
176.77958608808649
 30
0.0
  0
VERTEX
  5
14178
  8
0
 10
540.76386096542524
 20
176.130438296742
 30
0.0
  0
SEQEND
  5
14179
  8
0
  0
LINE
  5
A8AA
  8
0
 10
540.76386096542524
 20
176.130438296742
 30
0.0
 11
536.58270038425621
 21
176.130438296742
 31
0.0
  0
POLYLINE
  5
A8AB
  8
0
 66
     1
 10
0.0
 20
0.0
 30
0.0
  0
VERTEX
  5
1417A
  8
0
 10
536.58270038425621
 20
176.130438296742
 30
0.0
  0
VERTEX
  5
1417B
  8
0
 10
536.53612246599437
 20
176.4920100950946
 30
0.0
  0
VERTEX
  5
1417C
  8
0
 10
536.45785458895125
 20
177.18662579527111
 30
0.0
  0
VERTEX
  5
1417D
  8
0
 10
536.39817782459181
 20
177.85244848189251
 30
0.0
  0
VERTEX
  5
1417E
  8
0
 10
536.37497624211255
 20
178.1777804568506
 30
0.0
  0
SEQEND
  5
1417F
  8
0
  0
LINE
  5
A8AD
  8
0
 10
478.72328067484068
 20
185.55868873142049
 30
0.0
 11
478.72328067484068
 21
173.92868873142041
 31
0.0
  0
LINE
  5
A8AE
  8
0
 10
486.72328067484068
 20
177.4758750368575
 30
0.0
 11
486.72328067484068
 21
173.48535539808711
 31
0.0
  0
LINE
  5
A8B1
  8
0
 10
481.22328067484062
 20
185.3375168407639
 30
0.0
 11
481.22328067484062
 21
173.48535539808711
 31
0.0
  0
POLYLINE
  5
A8B2
  8
0
 66
     1
 10
0.0
 20
0.0
 30
0.0
  0
VERTEX
  5
14180
  8
0
 10
486.463860965425
 20
176.130438296742
 30
0.0
  0
VERTEX
  5
14181
  8
0
 10
486.54470561868328
 20
175.80586440106981
 30
0.0
  0
VERTEX
  5
14182
  8
0
 10
486.65931595743632
 20
175.19630382229801
 30
0.0
  0
VERTEX
  5
14183
  8
0
 10
486.71609054122081
 20
174.6138956507223
 30
0.0
  0
VERTEX
  5
14184
  8
0
 10
486.72328067484068
 20
174.3238130794029
 30
0.0
  0
SEQEND
  5
14185
  8
0
  0
POLYLINE
  5
A8B3
  8
0
 66
     1
 10
0.0
 20
0.0
 30
0.0
  0
VERTEX
  5
14186
  8
0
 10
486.72328067484068
 20
174.3238130794029
 30
0.0
  0
VERTEX
  5
14187
  8
0
 10
486.71609054122081
 20
174.03373050808341
 30
0.0
  0
VERTEX
  5
14188
  8
0
 10
486.65931595743632
 20
173.4513223365077
 30
0.0
  0
VERTEX
  5
14189
  8
0
 10
486.54470561868328
 20
172.8417617577359
 30
0.0
  0
VERTEX
  5
1418A
  8
0
 10
486.463860965425
 20
172.51718786206359
 30
0.0
  0
SEQEND
  5
1418B
  8
0
  0
POLYLINE
  5
A8B4
  8
0
 66
     1
 10
0.0
 20
0.0
 30
0.0
  0
VERTEX
  5
1418C
  8
0
 10
481.48270038425619
 20
172.51718786206359
 30
0.0
  0
VERTEX
  5
1418D
  8
0
 10
481.40185573099802
 20
172.8417617577359
 30
0.0
  0
VERTEX
  5
1418E
  8
0
 10
481.28724539224498
 20
173.4513223365077
 30
0.0
  0
VERTEX
  5
1418F
  8
0
 10
481.2304708084605
 20
174.03373050808341
 30
0.0
  0
VERTEX
  5
14190
  8
0
 10
481.22328067484062
 20
174.3238130794029
 30
0.0
  0
SEQEND
  5
14191
  8
0
  0
POLYLINE
  5
A8B5
  8
0
 66
     1
 10
0.0
 20
0.0
 30
0.0
  0
VERTEX
  5
14192
  8
0
 10
481.22328067484062
 20
174.3238130794029
 30
0.0
  0
VERTEX
  5
14193
  8
0
 10
481.2304708084605
 20
174.6138956507223
 30
0.0
  0
VERTEX
  5
14194
  8
0
 10
481.28724539224498
 20
175.19630382229801
 30
0.0
  0
VERTEX
  5
14195
  8
0
 10
481.40185573099802
 20
175.80586440106981
 30
0.0
  0
VERTEX
  5
14196
  8
0
 10
481.48270038425619
 20
176.130438296742
 30
0.0
  0
SEQEND
  5
14197
  8
0
  0
LINE
  5
A8B6
  8
0
 10
486.463860965425
 20
172.51718786206359
 30
0.0
 11
481.48270038425619
 21
172.51718786206359
 31
0.0
  0
POLYLINE
  5
A8BF
  8
0
 66
     1
 10
0.0
 20
0.0
 30
0.0
  0
VERTEX
  5
14198
  8
0
 10
481.22328067484062
 20
185.16356438343811
 30
0.0
  0
VERTEX
  5
14199
  8
0
 10
481.22334351305682
 20
185.1906540783225
 30
0.0
  0
VERTEX
  5
1419A
  8
0
 10
481.22384479477131
 20
185.24473715313229
 30
0.0
  0
VERTEX
  5
1419B
  8
0
 10
481.22484396651379
 20
185.29871228975179
 30
0.0
  0
VERTEX
  5
1419C
  8
0
 10
481.22552927709211
 20
185.3256669836816
 30
0.0
  0
SEQEND
  5
1419D
  8
0
  0
POLYLINE
  5
A8C3
  8
0
 66
     1
 10
0.0
 20
0.0
 30
0.0
  0
VERTEX
  5
1419E
  8
0
 10
481.48270038425619
 20
183.3569391660989
 30
0.0
  0
VERTEX
  5
1419F
  8
0
 10
481.40185573099802
 20
183.68151306177111
 30
0.0
  0
VERTEX
  5
141A0
  8
0
 10
481.28724539224498
 20
184.29107364054289
 30
0.0
  0
VERTEX
  5
141A1
  8
0
 10
481.2304708084605
 20
184.8734818121186
 30
0.0
  0
VERTEX
  5
141A2
  8
0
 10
481.22328067484062
 20
185.16356438343811
 30
0.0
  0
SEQEND
  5
141A3
  8
0
  0
POLYLINE
  5
A8C9
  8
0
 66
     1
 10
0.0
 20
0.0
 30
0.0
  0
VERTEX
  5
141A4
  8
0
 10
481.22328067484062
 20
179.74368873142049
 30
0.0
  0
VERTEX
  5
141A5
  8
0
 10
481.2304708084605
 20
180.32385387405941
 30
0.0
  0
VERTEX
  5
141A6
  8
0
 10
481.28724539224498
 20
181.4886702172108
 30
0.0
  0
VERTEX
  5
141A7
  8
0
 10
481.40185573099802
 20
182.70779137475441
 30
0.0
  0
VERTEX
  5
141A8
  8
0
 10
481.48270038425619
 20
183.3569391660989
 30
0.0
  0
SEQEND
  5
141A9
  8
0
  0
LINE
  5
A8CB
  8
0
 10
482.27774968055468
 20
183.3569391660989
 30
0.0
 11
481.48270038425619
 21
183.3569391660989
 31
0.0
  0
POLYLINE
  5
A8CE
  8
0
 66
     1
 10
0.0
 20
0.0
 30
0.0
  0
VERTEX
  5
141AA
  8
0
 10
486.62626895550642
 20
177.584342843835
 30
0.0
  0
VERTEX
  5
141AB
  8
0
 10
486.60495217086498
 20
177.35151866865451
 30
0.0
  0
VERTEX
  5
141AC
  8
0
 10
486.55560185037928
 20
176.8758739883032
 30
0.0
  0
VERTEX
  5
141AD
  8
0
 10
486.49690080566842
 20
176.3838321732218
 30
0.0
  0
VERTEX
  5
141AE
  8
0
 10
486.463860965425
 20
176.130438296742
 30
0.0
  0
SEQEND
  5
141AF
  8
0
  0
LINE
  5
A8CF
  8
0
 10
486.463860965425
 20
176.130438296742
 30
0.0
 11
481.48270038425619
 21
176.130438296742
 31
0.0
  0
POLYLINE
  5
A8D0
  8
0
 66
     1
 10
0.0
 20
0.0
 30
0.0
  0
VERTEX
  5
141B0
  8
0
 10
481.48270038425619
 20
176.130438296742
 30
0.0
  0
VERTEX
  5
141B1
  8
0
 10
481.40185573099802
 20
176.77958608808649
 30
0.0
  0
VERTEX
  5
141B2
  8
0
 10
481.28724539224498
 20
177.99870724563019
 30
0.0
  0
VERTEX
  5
141B3
  8
0
 10
481.2304708084605
 20
179.16352358878149
 30
0.0
  0
VERTEX
  5
141B4
  8
0
 10
481.22328067484062
 20
179.74368873142049
 30
0.0
  0
SEQEND
  5
141B5
  8
0
  0
ARC
  5
A8F6
  8
0
 10
524.22328067484068
 20
215.45083087413471
 30
0.0
 40
1.9999999999999889
 50
0.0
 51
69.994809911838999
  0
ARC
  5
A8F7
  8
0
 10
524.22328067484068
 20
144.03654658870619
 30
0.0
 40
1.9999999999999849
 50
290.00519008816099
 51
0.0
  0
ARC
  5
A8F8
  8
0
 10
511.22328067484068
 20
179.74368873142029
 30
0.0
 40
39.999999999999922
 50
249.99480991183901
 51
290.00519008816099
  0
ARC
  5
A8F9
  8
0
 10
511.22328067484068
 20
179.7436887314206
 30
0.0
 40
39.999999999999929
 50
69.994809911838999
 51
110.005190088161
  0
ARC
  5
A8FA
  8
0
 10
498.22328067484062
 20
215.45083087413471
 30
0.0
 40
1.999999999999958
 50
110.005190088161
 51
180.0
  0
ARC
  5
A8FB
  8
0
 10
498.22328067484062
 20
144.03654658870619
 30
0.0
 40
1.999999999999966
 50
180.0
 51
249.99480991183901
  0
LINE
  5
A906
  8
0
 10
526.22328067484057
 20
215.45083087413471
 30
0.0
 11
526.22328067484057
 21
144.03654658870619
 31
0.0
  0
LINE
  5
A908
  8
0
 10
496.22328067484062
 20
215.45083087413471
 30
0.0
 11
496.22328067484062
 21
144.03654658870619
 31
0.0
  0
LINE
  5
A92D
  8
0
 10
392.7023159840478
 20
243.44368873142051
 30
0.0
 11
392.7023159840478
 21
244.24368873142049
 31
0.0
  0
LINE
  5
A92E
  8
0
 10
323.10231598404772
 20
244.24368873142049
 30
0.0
 11
323.10231598404772
 21
243.44368873142051
 31
0.0
  0
LINE
  5
A92F
  8
0
 10
392.40353664802569
 20
234.94368873142051
 30
0.0
 11
393.90231598404762
 21
243.44368873142051
 31
0.0
  0
LINE
  5
A930
  8
0
 10
321.90231598404762
 20
243.44368873142051
 30
0.0
 11
323.40109532006949
 21
234.94368873142051
 31
0.0
  0
LINE
  5
A931
  8
0
 10
390.90231598404762
 20
229.24368873142041
 30
0.0
 11
390.90231598404762
 21
234.94368873142051
 31
0.0
  0
LINE
  5
A932
  8
0
 10
324.90231598404762
 20
234.94368873142051
 30
0.0
 11
324.90231598404762
 21
232.94368873142051
 31
0.0
  0
LINE
  5
A935
  8
0
 10
407.90231598404762
 20
246.74368873142041
 30
0.0
 11
407.90231598404762
 21
244.24368873142049
 31
0.0
  0
LINE
  5
A937
  8
0
 10
307.90231598404762
 20
246.74368873142041
 30
0.0
 11
307.90231598404762
 21
244.24368873142049
 31
0.0
  0
LINE
  5
A938
  8
0
 10
307.90231598404762
 20
246.74368873142041
 30
0.0
 11
407.90231598404762
 21
246.74368873142041
 31
0.0
  0
LINE
  5
A93A
  8
0
 10
307.90231598404762
 20
244.24368873142049
 30
0.0
 11
407.90231598404762
 21
244.24368873142049
 31
0.0
  0
LINE
  5
A94E
  8
0
 10
321.90231598404762
 20
243.44368873142051
 30
0.0
 11
393.90231598404762
 21
243.44368873142051
 31
0.0
  0
LINE
  5
A94F
  8
0
 10
323.40109532006949
 20
234.94368873142051
 30
0.0
 11
392.40353664802569
 21
234.94368873142051
 31
0.0
  0
LINE
  5
A950
  8
0
 10
333.76210057490101
 20
232.94368873142051
 30
0.0
 11
315.00231598404781
 21
232.94368873142051
 31
0.0
  0
LINE
  5
A951
  8
0
 10
333.76210057490101
 20
232.94368873142051
 30
0.0
 11
333.76210057490101
 21
175.56739723372451
 31
0.0
  0
LINE
  5
A952
  8
0
 10
315.00231598404781
 20
232.94368873142051
 30
0.0
 11
315.00231598404781
 21
229.24368873142041
 31
0.0
  0
LINE
  5
A954
  8
0
 10
315.00231598404781
 20
229.24368873142041
 30
0.0
 11
304.44236805069698
 21
181.92162728387859
 31
0.0
  0
ARC
  5
A955
  8
0
 10
314.2023159840478
 20
179.74368873142041
 30
0.0
 40
10.0
 50
167.42051153556861
 51
270.0
  0
LINE
  5
A956
  8
0
 10
314.2023159840478
 20
169.74368873142041
 30
0.0
 11
323.60231598404772
 21
169.74368873142041
 31
0.0
  0
ARC
  5
A957
  8
0
 10
323.60231598404772
 20
179.74368873142041
 30
0.0
 40
9.9999999999999751
 50
270.0
 51
313.20962034755189
  0
LINE
  5
A958
  8
0
 10
330.4490109342899
 20
172.45515196068729
 30
0.0
 11
333.76210057490101
 21
175.56739723372459
 31
0.0
  0
POLYLINE
  5
A959
  8
0
 66
     1
 10
0.0
 20
0.0
 30
0.0
  0
VERTEX
  5
141B6
  8
0
 10
333.76210057490101
 20
175.56739723372451
 30
0.0
  0
VERTEX
  5
141B7
  8
0
 10
334.01267357122811
 20
175.802780126421
 30
0.0
  0
VERTEX
  5
141B8
  8
0
 10
334.52257273547002
 20
176.28176845326411
 30
0.0
  0
VERTEX
  5
141B9
  8
0
 10
335.04393388458539
 20
176.77152392259691
 30
0.0
  0
VERTEX
  5
141BA
  8
0
 10
335.30883304494978
 20
177.020364506193
 30
0.0
  0
VERTEX
  5
141BB
  8
0
 10
335.57650141980429
 20
177.2718064304232
 30
0.0
  0
VERTEX
  5
141BC
  8
0
 10
336.12001424839542
 20
177.78237071183671
 30
0.0
  0
VERTEX
  5
141BD
  8
0
 10
336.67420591166569
 20
178.30296646126291
 30
0.0
  0
VERTEX
  5
141BE
  8
0
 10
337.23880471559409
 20
178.83333845517151
 30
0.0
  0
VERTEX
  5
141BF
  8
0
 10
337.8135338640293
 20
179.37322667720099
 30
0.0
  0
VERTEX
  5
141C0
  8
0
 10
338.39811159439017
 20
179.92236644563249
 30
0.0
  0
VERTEX
  5
141C1
  8
0
 10
338.69400430292308
 20
180.20032170291549
 30
0.0
  0
VERTEX
  5
141C2
  8
0
 10
338.99225131580027
 20
180.4804885431503
 30
0.0
  0
VERTEX
  5
141C3
  8
0
 10
339.59566174959042
 20
181.04731934882651
 30
0.0
  0
VERTEX
  5
141C4
  8
0
 10
340.20804707209891
 20
181.6225809722645
 30
0.0
  0
VERTEX
  5
141C5
  8
0
 10
340.82910705969903
 20
182.20599138983621
 30
0.0
  0
VERTEX
  5
141C6
  8
0
 10
341.45853723598537
 20
182.7972645829434
 30
0.0
  0
VERTEX
  5
141C7
  8
0
 10
342.09602902104439
 20
183.39611067824049
 30
0.0
  0
VERTEX
  5
141C8
  8
0
 10
342.4177005007769
 20
183.69828195969239
 30
0.0
  0
VERTEX
  5
141C9
  8
0
 10
342.74126988273542
 20
184.00223608974559
 30
0.0
  0
VERTEX
  5
141CA
  8
0
 10
343.39394348991158
 20
184.61534366277081
 30
0.0
  0
VERTEX
  5
141CB
  8
0
 10
344.05372986750172
 20
185.2351328196045
 30
0.0
  0
VERTEX
  5
141CC
  8
0
 10
344.38618939517551
 20
185.5474381616622
 30
0.0
  0
VERTEX
  5
141CD
  8
0
 10
344.72030555337869
 20
185.86129970686969
 30
0.0
  0
VERTEX
  5
141CE
  8
0
 10
345.39334375693812
 20
186.49353734448911
 30
0.0
  0
VERTEX
  5
141CF
  8
0
 10
346.07251451930819
 20
187.131535776183
 30
0.0
  0
VERTEX
  5
141D0
  8
0
 10
346.41429567135492
 20
187.4525976520321
 30
0.0
  0
VERTEX
  5
141D1
  8
0
 10
346.7574848751126
 20
187.774982221426
 30
0.0
  0
VERTEX
  5
141D2
  8
0
 10
347.44791901570812
 20
188.42356122878911
 30
0.0
  0
VERTEX
  5
141D3
  8
0
 10
348.14347845381621
 20
189.07695483059001
 30
0.0
  0
VERTEX
  5
141D4
  8
0
 10
348.84382218946598
 20
189.73484269877781
 30
0.0
  0
VERTEX
  5
141D5
  8
0
 10
349.54860687717149
 20
190.3969023019755
 30
0.0
  0
VERTEX
  5
141D6
  8
0
 10
350.25748699425822
 20
191.0628090636005
 30
0.0
  0
VERTEX
  5
141D7
  8
0
 10
350.61335430932451
 20
191.39710317854599
 30
0.0
  0
VERTEX
  5
141D8
  8
0
 10
350.97011501025509
 20
191.73223652099071
 30
0.0
  0
VERTEX
  5
141D9
  8
0
 10
351.686141557273
 20
192.4048564854522
 30
0.0
  0
VERTEX
  5
141DA
  8
0
 10
352.40521560128423
 20
193.08033920315631
 30
0.0
  0
VERTEX
  5
141DB
  8
0
 10
353.12698461421633
 20
193.75835351680109
 30
0.0
  0
VERTEX
  5
141DC
  8
0
 10
353.85109474678097
 20
194.43856702796251
 30
0.0
  0
VERTEX
  5
141DD
  8
0
 10
354.57719100194959
 20
195.120646260054
 30
0.0
  0
VERTEX
  5
141DE
  8
0
 10
354.94087271792318
 20
195.46228105542889
 30
0.0
  0
VERTEX
  5
141DF
  8
0
 10
355.30491740899112
 20
195.80425682181399
 30
0.0
  0
VERTEX
  5
141E0
  8
0
 10
356.03391719798839
 20
196.4890635712423
 30
0.0
  0
VERTEX
  5
141E1
  8
0
 10
356.76383297474422
 20
197.17473077990411
 30
0.0
  0
VERTEX
  5
141E2
  8
0
 10
357.49430689599723
 20
197.86092229752239
 30
0.0
  0
VERTEX
  5
141E3
  8
0
 10
358.22498084485278
 20
198.54730171677579
 30
0.0
  0
VERTEX
  5
141E4
  8
0
 10
358.95549660635311
 20
199.23353253822401
 30
0.0
  0
VERTEX
  5
141E5
  8
0
 10
359.32058324107447
 20
199.57648708410571
 30
0.0
  0
VERTEX
  5
141E6
  8
0
 10
359.68549604309169
 20
199.91927833527711
 30
0.0
  0
VERTEX
  5
141E7
  8
0
 10
360.41462127079171
 20
200.60420291912979
 30
0.0
  0
VERTEX
  5
141E8
  8
0
 10
361.14251483376029
 20
201.28797050357861
 30
0.0
  0
VERTEX
  5
141E9
  8
0
 10
361.86881988013101
 20
201.97024586964241
 30
0.0
  0
VERTEX
  5
141EA
  8
0
 10
362.59318033681262
 20
202.6506945299046
 30
0.0
  0
VERTEX
  5
141EB
  8
0
 10
363.31524108405438
 20
203.3289828924959
 30
0.0
  0
VERTEX
  5
141EC
  8
0
 10
363.67529839524741
 20
203.66721299983979
 30
0.0
  0
VERTEX
  5
141ED
  8
0
 10
364.03464812954422
 20
204.0047784246392
 30
0.0
  0
VERTEX
  5
141EE
  8
0
 10
364.75104878195498
 20
204.6777498156743
 30
0.0
  0
VERTEX
  5
141EF
  8
0
 10
365.46409182385241
 20
205.3475671394846
 30
0.0
  0
VERTEX
  5
141F0
  8
0
 10
366.17342768388022
 20
206.01390201624321
 30
0.0
  0
VERTEX
  5
141F1
  8
0
 10
366.87870860813791
 20
206.6764277734033
 30
0.0
  0
VERTEX
  5
141F2
  8
0
 10
367.57958883066982
 20
207.33481960584911
 30
0.0
  0
VERTEX
  5
141F3
  8
0
 10
367.92827121224241
 20
207.6623643485386
 30
0.0
  0
VERTEX
  5
141F4
  8
0
 10
368.275724742975
 20
207.98875473513351
 30
0.0
  0
VERTEX
  5
141F5
  8
0
 10
368.96677506246562
 20
208.63791256772041
 30
0.0
  0
VERTEX
  5
141F6
  8
0
 10
369.65240099977859
 20
209.28197485215671
 30
0.0
  0
VERTEX
  5
141F7
  8
0
 10
369.99307467608509
 20
209.60199638907409
 30
0.0
  0
VERTEX
  5
141F8
  8
0
 10
370.3322664248708
 20
209.9206258350965
 30
0.0
  0
VERTEX
  5
141F9
  8
0
 10
371.00603803180519
 20
210.55355241609959
 30
0.0
  0
VERTEX
  5
141FA
  8
0
 10
371.67338550215709
 20
211.1804443011294
 30
0.0
  0
VERTEX
  5
141FB
  8
0
 10
372.00454781838789
 20
211.49153107061019
 30
0.0
  0
VERTEX
  5
141FC
  8
0
 10
372.33398166695218
 20
211.80099415467691
 30
0.0
  0
VERTEX
  5
141FD
  8
0
 10
372.98750266706361
 20
212.41489775043101
 30
0.0
  0
VERTEX
  5
141FE
  8
0
 10
373.63362811198289
 20
213.0218541204278
 30
0.0
  0
VERTEX
  5
141FF
  8
0
 10
374.27204123689398
 20
213.62156570259981
 30
0.0
  0
VERTEX
  5
14200
  8
0
 10
374.90242905796657
 20
214.21373848665769
 30
0.0
  0
VERTEX
  5
14201
  8
0
 10
375.52448252579939
 20
214.79808215822871
 30
0.0
  0
VERTEX
  5
14202
  8
0
 10
375.83228841245949
 20
215.0872283992567
 30
0.0
  0
VERTEX
  5
14203
  8
0
 10
376.13789667692998
 20
215.37431024118459
 30
0.0
  0
VERTEX
  5
14204
  8
0
 10
376.74237078334619
 20
215.9421402380874
 30
0.0
  0
VERTEX
  5
14205
  8
0
 10
377.33760849991722
 20
216.50129376868441
 30
0.0
  0
VERTEX
  5
14206
  8
0
 10
377.92331800967889
 20
217.0514967063846
 30
0.0
  0
VERTEX
  5
14207
  8
0
 10
378.499212166897
 20
217.59247931265091
 30
0.0
  0
VERTEX
  5
14208
  8
0
 10
379.06500863784117
 20
218.12397636923899
 30
0.0
  0
VERTEX
  5
14209
  8
0
 10
379.34403336156493
 20
218.3860862037649
 30
0.0
  0
VERTEX
  5
1420A
  8
0
 10
379.62043003920081
 20
218.64572730822249
 30
0.0
  0
VERTEX
  5
1420B
  8
0
 10
380.16520407407188
 20
219.15747633973629
 30
0.0
  0
VERTEX
  5
1420C
  8
0
 10
380.699063665452
 20
219.65897257737859
 30
0.0
  0
VERTEX
  5
1420D
  8
0
 10
381.22174708717512
 20
220.1499701612085
 30
0.0
  0
VERTEX
  5
1420E
  8
0
 10
381.73299809222362
 20
220.63022837828009
 30
0.0
  0
VERTEX
  5
1420F
  8
0
 10
382.23256603835512
 20
221.0995117806518
 30
0.0
  0
VERTEX
  5
14210
  8
0
 10
382.47789210147829
 20
221.32996581695349
 30
0.0
  0
VERTEX
  5
14211
  8
0
 10
382.72020601097893
 20
221.557590300816
 30
0.0
  0
VERTEX
  5
14212
  8
0
 10
383.19567894322722
 20
222.00423936448999
 30
0.0
  0
VERTEX
  5
14213
  8
0
 10
383.65875173315789
 20
222.43924000071419
 30
0.0
  0
VERTEX
  5
14214
  8
0
 10
384.1091973580335
 20
222.86237894920359
 30
0.0
  0
VERTEX
  5
14215
  8
0
 10
384.54679498561973
 20
223.27344876489869
 30
0.0
  0
VERTEX
  5
14216
  8
0
 10
384.97133008244919
 20
223.6722479196664
 30
0.0
  0
VERTEX
  5
14217
  8
0
 10
385.17863388838759
 20
223.86698466394489
 30
0.0
  0
VERTEX
  5
14218
  8
0
 10
385.38259451899648
 20
224.05858090109979
 30
0.0
  0
VERTEX
  5
14219
  8
0
 10
385.78038667171558
 20
224.4322583083682
 30
0.0
  0
VERTEX
  5
1421A
  8
0
 10
386.16451152188478
 20
224.79309694507199
 30
0.0
  0
VERTEX
  5
1421B
  8
0
 10
386.5347807512162
 20
225.1409199090545
 30
0.0
  0
VERTEX
  5
1421C
  8
0
 10
386.89101283417858
 20
225.4755566791298
 30
0.0
  0
VERTEX
  5
1421D
  8
0
 10
387.2330331269921
 20
225.79684319868039
 30
0.0
  0
VERTEX
  5
1421E
  8
0
 10
387.39866117878029
 20
225.95243063433011
 30
0.0
  0
VERTEX
  5
1421F
  8
0
 10
387.56067395324573
 20
226.1046219560865
 30
0.0
  0
VERTEX
  5
14220
  8
0
 10
387.87377468610339
 20
226.39874206194671
 30
0.0
  0
VERTEX
  5
14221
  8
0
 10
388.17218182705051
 20
226.67905932305209
 30
0.0
  0
VERTEX
  5
14222
  8
0
 10
388.31582930001377
 20
226.81399867489861
 30
0.0
  0
VERTEX
  5
14223
  8
0
 10
388.45574908114668
 20
226.94543631307729
 30
0.0
  0
VERTEX
  5
14224
  8
0
 10
388.7243374287487
 20
227.1977424399536
 30
0.0
  0
VERTEX
  5
14225
  8
0
 10
388.9778151936635
 20
227.43585400989301
 30
0.0
  0
VERTEX
  5
14226
  8
0
 10
389.0988484827385
 20
227.54955008294431
 30
0.0
  0
VERTEX
  5
14227
  8
0
 10
389.21605810770387
 20
227.65965428802861
 30
0.0
  0
VERTEX
  5
14228
  8
0
 10
389.43894937161173
 20
227.86903355564479
 30
0.0
  0
VERTEX
  5
14229
  8
0
 10
389.6463797123177
 20
228.06388916396691
 30
0.0
  0
VERTEX
  5
1422A
  8
0
 10
389.83824743651422
 20
228.24412558448489
 30
0.0
  0
VERTEX
  5
1422B
  8
0
 10
390.0144584805098
 20
228.40965445578681
 30
0.0
  0
VERTEX
  5
1422C
  8
0
 10
390.17492645634479
 20
228.56039462687789
 30
0.0
  0
VERTEX
  5
1422D
  8
0
 10
390.24923190679738
 20
228.63019557162079
 30
0.0
  0
VERTEX
  5
1422E
  8
0
 10
390.31957269414261
 20
228.69627219696579
 30
0.0
  0
VERTEX
  5
1422F
  8
0
 10
390.44832628067837
 20
228.81722055168899
 30
0.0
  0
VERTEX
  5
14230
  8
0
 10
390.56112409414459
 20
228.92318039577711
 30
0.0
  0
VERTEX
  5
14231
  8
0
 10
390.65791083509572
 20
229.01409978211831
 30
0.0
  0
VERTEX
  5
14232
  8
0
 10
390.73863905355978
 20
229.08993413722769
 30
0.0
  0
VERTEX
  5
14233
  8
0
 10
390.80326917230082
 20
229.1506462830996
 30
0.0
  0
VERTEX
  5
14234
  8
0
 10
390.82953723394422
 20
229.17532193620599
 30
0.0
  0
VERTEX
  5
14235
  8
0
 10
390.85176950622122
 20
229.19620645543381
 30
0.0
  0
VERTEX
  5
14236
  8
0
 10
390.88411627789611
 20
229.22659231822749
 30
0.0
  0
VERTEX
  5
14237
  8
0
 10
390.90029362922951
 20
229.24178897472609
 30
0.0
  0
VERTEX
  5
14238
  8
0
 10
390.90231598404762
 20
229.24368873142041
 30
0.0
  0
SEQEND
  5
14239
  8
0
  0
LINE
  5
A95D
  8
0
 10
306.93563698083858
 20
232.74368873142041
 30
0.0
 11
258.41897648244321
 21
219.74368873142041
 31
0.0
  0
LINE
  5
A95E
  8
0
 10
315.00231598404781
 20
232.74368873142041
 30
0.0
 11
306.93563698083858
 21
232.74368873142041
 31
0.0
  0
LINE
  5
A95F
  8
0
 10
261.90231598404762
 20
206.74368873142041
 30
0.0
 11
309.98142675749159
 21
206.74368873142041
 31
0.0
  0
LINE
  5
A961
  8
0
 10
258.41897648244299
 20
219.74368873142041
 30
0.0
 11
261.90231598404762
 21
206.74368873142041
 31
0.0
  0
ARC
  5
A981
  8
0
 10
318.90231598404762
 20
179.74368873142041
 30
0.0
 40
40.000000000000021
 50
137.5458497956013
 51
23.913610422481561
  0
ARC
  5
A983
  8
0
 10
318.90231598404762
 20
179.74368873142041
 30
0.0
 40
30.832662348034841
 50
118.8726961155143
 51
17.824565553047758
  0
ARC
  5
A98C
  8
0
 10
318.90231598404762
 20
179.74368873142041
 30
0.0
 40
17.143250174624502
 50
135.7301031338441
 51
352.76321923320631
  0
ARC
  5
A992
  8
0
 10
318.90231598404779
 20
179.74368873142041
 30
0.0
 40
14.65972704814879
 50
161.71785495546951
 51
173.80835380091071
  0
ARC
  5
A996
  8
0
 10
318.90231598404762
 20
179.74368873142041
 30
0.0
 40
35.707142142714247
 50
130.8739350267895
 51
21.48311446655217
  0
LINE
  5
A9A1
  8
0
 10
304.20231598404757
 20
361.5756729869276
 30
0.0
 11
304.20231598404757
 21
361.67567298692762
 31
0.0
  0
LINE
  5
A9A4
  8
0
 10
304.20231598404757
 20
406.47567298692758
 30
0.0
 11
304.20231598404757
 21
406.5756729869276
 31
0.0
  0
LINE
  5
A9A9
  8
0
 10
307.90231598404762
 20
350.5756729869276
 30
0.0
 11
307.90231598404762
 21
417.57567298692749
 31
0.0
  0
ARC
  5
A9AA
  8
0
 10
316.90231598404762
 20
350.5756729869276
 30
0.0
 40
8.9999999999999911
 50
180.0
 51
270.0
  0
LINE
  5
A9AB
  8
0
 10
398.90231598404762
 20
341.5756729869276
 30
0.0
 11
316.90231598404762
 21
341.5756729869276
 31
0.0
  0
ARC
  5
A9AC
  8
0
 10
398.90231598404762
 20
350.5756729869276
 30
0.0
 40
9.0000000000000142
 50
270.0
 51
0.0
  0
LINE
  5
A9AD
  8
0
 10
407.90231598404762
 20
417.57567298692749
 30
0.0
 11
407.90231598404762
 21
350.5756729869276
 31
0.0
  0
ARC
  5
A9AE
  8
0
 10
398.90231598404762
 20
417.57567298692749
 30
0.0
 40
9.0
 50
0.0
 51
90.0
  0
LINE
  5
A9AF
  8
0
 10
316.90231598404762
 20
426.57567298692749
 30
0.0
 11
398.90231598404762
 21
426.57567298692749
 31
0.0
  0
ARC
  5
A9B0
  8
0
 10
316.90231598404762
 20
417.57567298692749
 30
0.0
 40
8.9999999999999947
 50
90.0
 51
180.0
  0
LINE
  5
A9B1
  8
0
 10
402.17139082527501
 20
412.6526480398519
 30
0.0
 11
399.67139082527501
 21
405.15264803985178
 31
0.0
  0
ARC
  5
A9B2
  8
0
 10
395.40231598404762
 20
406.5756729869276
 30
0.0
 40
4.499999999999968
 50
161.56505117707999
 51
341.56505117708002
  0
LINE
  5
A9B3
  8
0
 10
391.13324114282022
 20
407.99869793400319
 30
0.0
 11
393.63324114282022
 21
415.49869793400342
 31
0.0
  0
ARC
  5
A9B4
  8
0
 10
397.90231598404762
 20
414.07567298692749
 30
0.0
 40
4.499999999999968
 50
341.56505117708002
 51
161.56505117707999
  0
LINE
  5
A9B5
  8
0
 10
393.63324114282022
 20
352.65264803985178
 30
0.0
 11
391.13324114282022
 21
360.15264803985178
 31
0.0
  0
ARC
  5
A9B6
  8
0
 10
395.40231598404762
 20
361.5756729869276
 30
0.0
 40
4.4999999999999938
 50
18.434948822919949
 51
198.43494882291989
  0
LINE
  5
A9B7
  8
0
 10
399.67139082527501
 20
362.99869793400342
 30
0.0
 11
402.17139082527501
 21
355.4986979340033
 31
0.0
  0
ARC
  5
A9B8
  8
0
 10
397.90231598404762
 20
354.0756729869276
 30
0.0
 40
4.4999999999999929
 50
198.43494882291989
 51
18.434948822919949
  0
LINE
  5
A9B9
  8
0
 10
316.13324114282022
 20
405.15264803985178
 30
0.0
 11
313.63324114282022
 21
412.65264803985178
 31
0.0
  0
ARC
  5
A9BA
  8
0
 10
317.90231598404762
 20
414.07567298692749
 30
0.0
 40
4.4999999999999956
 50
18.434948822919949
 51
198.43494882291989
  0
LINE
  5
A9BB
  8
0
 10
322.17139082527501
 20
415.49869793400342
 30
0.0
 11
324.67139082527501
 21
407.9986979340033
 31
0.0
  0
ARC
  5
A9BC
  8
0
 10
320.40231598404762
 20
406.5756729869276
 30
0.0
 40
4.4999999999999973
 50
198.43494882291989
 51
18.434948822919949
  0
LINE
  5
A9BD
  8
0
 10
324.67139082527501
 20
360.15264803985178
 30
0.0
 11
322.17139082527501
 21
352.65264803985178
 31
0.0
  0
ARC
  5
A9BE
  8
0
 10
317.90231598404762
 20
354.0756729869276
 30
0.0
 40
4.4999999999999956
 50
161.56505117707999
 51
341.56505117708002
  0
LINE
  5
A9BF
  8
0
 10
313.63324114282022
 20
355.4986979340033
 30
0.0
 11
316.13324114282022
 21
362.99869793400342
 31
0.0
  0
ARC
  5
A9C0
  8
0
 10
320.40231598404762
 20
361.5756729869276
 30
0.0
 40
4.4999999999999947
 50
341.56505117708002
 51
161.56505117707999
  0
LINE
  5
A9D5
  8
0
 10
324.90231598404762
 20
361.5756729869276
 30
0.0
 11
315.65889949379522
 21
361.5756729869276
 31
0.0
  0
LINE
  5
A9D9
  8
0
 10
324.90231598404762
 20
406.5756729869276
 30
0.0
 11
315.65889949379522
 21
406.5756729869276
 31
0.0
  0
LINE
  5
A9DD
  8
0
 10
307.90231598404762
 20
406.5756729869276
 30
0.0
 11
304.20231598404757
 21
406.5756729869276
 31
0.0
  0
LINE
  5
A9DE
  8
0
 10
304.20231598404757
 20
361.5756729869276
 30
0.0
 11
307.90231598404762
 21
361.5756729869276
 31
0.0
  0
LINE
  5
A9EB
  8
0
 10
307.90231598404762
 20
361.67567298692762
 30
0.0
 11
258.41897648244299
 21
361.67567298692762
 31
0.0
  0
LINE
  5
A9EC
  8
0
 10
306.9356369808383
 20
406.47567298692758
 30
0.0
 11
306.9356369808383
 21
361.67567298692762
 31
0.0
  0
LINE
  5
A9EE
  8
0
 10
307.90231598404762
 20
406.47567298692758
 30
0.0
 11
258.41897648244299
 21
406.47567298692758
 31
0.0
  0
LINE
  5
A9F5
  8
0
 10
258.41897648244299
 20
406.47567298692758
 30
0.0
 11
258.41897648244299
 21
361.67567298692762
 31
0.0
  0
LINE
  5
AA1B
  8
0
 10
314.90231598404762
 20
416.5756729869276
 30
0.0
 11
314.90231598404762
 21
417.42977495317717
 31
0.0
  0
LINE
  5
AA1F
  8
0
 10
322.90231598404762
 20
408.5756729869276
 30
0.0
 11
322.90231598404762
 21
406.5756729869276
 31
0.0
  0
LINE
  5
AA23
  8
0
 10
322.90231598404762
 20
361.5756729869276
 30
0.0
 11
322.90231598404762
 21
359.5756729869276
 31
0.0
  0
LINE
  5
AA27
  8
0
 10
314.98753491410588
 20
359.5756729869276
 30
0.0
 11
324.4812296477437
 21
359.5756729869276
 31
0.0
  0
LINE
  5
AA2D
  8
0
 10
313.40245607981018
 20
354.27567298692759
 30
0.0
 11
322.7165268291767
 21
354.27567298692759
 31
0.0
  0
LINE
  5
AA30
  8
0
 10
314.7917223793861
 20
358.97567298692758
 30
0.0
 11
324.28481268213909
 21
358.97567298692758
 31
0.0
  0
POLYLINE
  5
AA3C
  8
0
 66
     1
 10
0.0
 20
0.0
 30
0.0
  0
VERTEX
  5
1423A
  8
0
 10
322.03148265071422
 20
358.97567298692758
 30
0.0
  0
VERTEX
  5
1423B
  8
0
 10
321.5290448987987
 20
358.96848285330759
 30
0.0
  0
VERTEX
  5
1423C
  8
0
 10
320.52028435488643
 20
358.91170826952327
 30
0.0
  0
VERTEX
  5
1423D
  8
0
 10
319.46449446216252
 20
358.79709793077018
 30
0.0
  0
VERTEX
  5
1423E
  8
0
 10
318.90231598404762
 20
358.71625327751212
 30
0.0
  0
SEQEND
  5
1423F
  8
0
  0
POLYLINE
  5
AA3D
  8
0
 66
     1
 10
0.0
 20
0.0
 30
0.0
  0
VERTEX
  5
14240
  8
0
 10
318.90231598404762
 20
354.53509269634321
 30
0.0
  0
VERTEX
  5
14241
  8
0
 10
319.46449446216252
 20
354.45424804308499
 30
0.0
  0
VERTEX
  5
14242
  8
0
 10
320.52028435488643
 20
354.33963770433189
 30
0.0
  0
VERTEX
  5
14243
  8
0
 10
321.5290448987987
 20
354.28286312054752
 30
0.0
  0
VERTEX
  5
14244
  8
0
 10
322.03148265071422
 20
354.27567298692759
 30
0.0
  0
SEQEND
  5
14245
  8
0
  0
POLYLINE
  5
AA3E
  8
0
 66
     1
 10
0.0
 20
0.0
 30
0.0
  0
VERTEX
  5
14246
  8
0
 10
322.03148265071422
 20
354.27567298692759
 30
0.0
  0
VERTEX
  5
14247
  8
0
 10
322.14620962865638
 20
354.27604863829072
 30
0.0
  0
VERTEX
  5
14248
  8
0
 10
322.37484828954831
 20
354.27903485796497
 30
0.0
  0
VERTEX
  5
14249
  8
0
 10
322.60290931759749
 20
354.28496739257258
 30
0.0
  0
VERTEX
  5
1424A
  8
0
 10
322.7169106027215
 20
354.28902971147738
 30
0.0
  0
SEQEND
  5
1424B
  8
0
  0
POLYLINE
  5
AA41
  8
0
 66
     1
 10
0.0
 20
0.0
 30
0.0
  0
VERTEX
  5
1424C
  8
0
 10
324.2324100127575
 20
358.84268108257191
 30
0.0
  0
VERTEX
  5
1424D
  8
0
 10
323.85328395880128
 20
358.88347389787867
 30
0.0
  0
VERTEX
  5
1424E
  8
0
 10
323.1168391402598
 20
358.94237964800772
 30
0.0
  0
VERTEX
  5
1424F
  8
0
 10
322.39380813051548
 20
358.9719300212879
 30
0.0
  0
VERTEX
  5
14250
  8
0
 10
322.03148265071422
 20
358.97567298692758
 30
0.0
  0
SEQEND
  5
14251
  8
0
  0
POLYLINE
  5
AA42
  8
0
 66
     1
 10
0.0
 20
0.0
 30
0.0
  0
VERTEX
  5
14252
  8
0
 10
315.77314931738101
 20
358.97567298692758
 30
0.0
  0
VERTEX
  5
14253
  8
0
 10
315.60779837582282
 20
358.97489277097299
 30
0.0
  0
VERTEX
  5
14254
  8
0
 10
315.27850997299521
 20
358.9687038610648
 30
0.0
  0
VERTEX
  5
14255
  8
0
 10
314.94959719707731
 20
358.9564243817041
 30
0.0
  0
VERTEX
  5
14256
  8
0
 10
314.78472788484851
 20
358.94801503535649
 30
0.0
  0
SEQEND
  5
14257
  8
0
  0
POLYLINE
  5
AA46
  8
0
 66
     1
 10
0.0
 20
0.0
 30
0.0
  0
VERTEX
  5
14258
  8
0
 10
313.41815622273089
 20
354.42713329494092
 30
0.0
  0
VERTEX
  5
14259
  8
0
 10
313.82631080777787
 20
354.38057562616859
 30
0.0
  0
VERTEX
  5
1425A
  8
0
 10
314.6152443624722
 20
354.31351511152837
 30
0.0
  0
VERTEX
  5
1425B
  8
0
 10
315.3868039970298
 20
354.27992802226032
 30
0.0
  0
VERTEX
  5
1425C
  8
0
 10
315.77314931738101
 20
354.27567298692759
 30
0.0
  0
SEQEND
  5
1425D
  8
0
  0
POLYLINE
  5
AA47
  8
0
 66
     1
 10
0.0
 20
0.0
 30
0.0
  0
VERTEX
  5
1425E
  8
0
 10
315.77314931738101
 20
354.27567298692759
 30
0.0
  0
VERTEX
  5
1425F
  8
0
 10
316.27558706929648
 20
354.28286312054752
 30
0.0
  0
VERTEX
  5
14260
  8
0
 10
317.28434761320892
 20
354.33963770433189
 30
0.0
  0
VERTEX
  5
14261
  8
0
 10
318.34013750593272
 20
354.45424804308499
 30
0.0
  0
VERTEX
  5
14262
  8
0
 10
318.90231598404762
 20
354.53509269634321
 30
0.0
  0
SEQEND
  5
14263
  8
0
  0
LINE
  5
AA48
  8
0
 10
318.90231598404762
 20
354.53509269634321
 30
0.0
 11
318.90231598404762
 21
358.71625327751212
 31
0.0
  0
POLYLINE
  5
AA49
  8
0
 66
     1
 10
0.0
 20
0.0
 30
0.0
  0
VERTEX
  5
14264
  8
0
 10
318.90231598404762
 20
358.71625327751212
 30
0.0
  0
VERTEX
  5
14265
  8
0
 10
318.34013750593272
 20
358.79709793077018
 30
0.0
  0
VERTEX
  5
14266
  8
0
 10
317.28434761320892
 20
358.91170826952327
 30
0.0
  0
VERTEX
  5
14267
  8
0
 10
316.27558706929648
 20
358.96848285330759
 30
0.0
  0
VERTEX
  5
14268
  8
0
 10
315.77314931738101
 20
358.97567298692758
 30
0.0
  0
SEQEND
  5
14269
  8
0
  0
LINE
  5
AA4D
  8
0
 10
314.15615184239158
 20
416.5756729869276
 30
0.0
 11
321.64398724818062
 21
416.5756729869276
 31
0.0
  0
LINE
  5
AA51
  8
0
 10
314.98800225626837
 20
408.5756729869276
 30
0.0
 11
324.48044479778031
 21
408.5756729869276
 31
0.0
  0
LINE
  5
AA54
  8
0
 10
313.39821634312369
 20
414.07567298692749
 30
0.0
 11
322.64891274977589
 21
414.07567298692749
 31
0.0
  0
POLYLINE
  5
AA60
  8
0
 66
     1
 10
0.0
 20
0.0
 30
0.0
  0
VERTEX
  5
1426A
  8
0
 10
322.03148265071422
 20
414.07567298692749
 30
0.0
  0
VERTEX
  5
1426B
  8
0
 10
321.5290448987987
 20
414.06848285330773
 30
0.0
  0
VERTEX
  5
1426C
  8
0
 10
320.52028435488643
 20
414.01170826952318
 30
0.0
  0
VERTEX
  5
1426D
  8
0
 10
319.46449446216252
 20
413.8970979307702
 30
0.0
  0
VERTEX
  5
1426E
  8
0
 10
318.90231598404762
 20
413.81625327751209
 30
0.0
  0
SEQEND
  5
1426F
  8
0
  0
POLYLINE
  5
AA61
  8
0
 66
     1
 10
0.0
 20
0.0
 30
0.0
  0
VERTEX
  5
14270
  8
0
 10
318.90231598404762
 20
408.83509269634311
 30
0.0
  0
VERTEX
  5
14271
  8
0
 10
319.46449446216252
 20
408.75424804308489
 30
0.0
  0
VERTEX
  5
14272
  8
0
 10
320.52028435488643
 20
408.6396377043319
 30
0.0
  0
VERTEX
  5
14273
  8
0
 10
321.5290448987987
 20
408.58286312054747
 30
0.0
  0
VERTEX
  5
14274
  8
0
 10
322.03148265071422
 20
408.5756729869276
 30
0.0
  0
SEQEND
  5
14275
  8
0
  0
POLYLINE
  5
AA62
  8
0
 66
     1
 10
0.0
 20
0.0
 30
0.0
  0
VERTEX
  5
14276
  8
0
 10
322.03148265071422
 20
408.5756729869276
 30
0.0
  0
VERTEX
  5
14277
  8
0
 10
322.42358436641638
 20
408.58005559712518
 30
0.0
  0
VERTEX
  5
14278
  8
0
 10
323.20679819250222
 20
408.61464865090278
 30
0.0
  0
VERTEX
  5
14279
  8
0
 10
324.00843289830323
 20
408.68374669350243
 30
0.0
  0
VERTEX
  5
1427A
  8
0
 10
324.42367062291709
 20
408.73174986255952
 30
0.0
  0
SEQEND
  5
1427B
  8
0
  0
POLYLINE
  5
AA65
  8
0
 66
     1
 10
0.0
 20
0.0
 30
0.0
  0
VERTEX
  5
1427C
  8
0
 10
322.64951204052431
 20
414.06480583288629
 30
0.0
  0
VERTEX
  5
1427D
  8
0
 10
322.54675442768462
 20
414.06811167445971
 30
0.0
  0
VERTEX
  5
1427E
  8
0
 10
322.34110837964232
 20
414.07293883477001
 30
0.0
  0
VERTEX
  5
1427F
  8
0
 10
322.134920319505
 20
414.07536762111749
 30
0.0
  0
VERTEX
  5
14280
  8
0
 10
322.03148265071422
 20
414.07567298692749
 30
0.0
  0
SEQEND
  5
14281
  8
0
  0
POLYLINE
  5
AA66
  8
0
 66
     1
 10
0.0
 20
0.0
 30
0.0
  0
VERTEX
  5
14282
  8
0
 10
315.77314931738101
 20
414.07567298692749
 30
0.0
  0
VERTEX
  5
14283
  8
0
 10
315.38512846228309
 20
414.07138101158961
 30
0.0
  0
VERTEX
  5
14284
  8
0
 10
314.61017760109053
 20
414.03750265226392
 30
0.0
  0
VERTEX
  5
14285
  8
0
 10
313.81755209904509
 20
413.96985240768981
 30
0.0
  0
VERTEX
  5
14286
  8
0
 10
313.4073410017661
 20
413.92287657361419
 30
0.0
  0
SEQEND
  5
14287
  8
0
  0
POLYLINE
  5
AA6A
  8
0
 66
     1
 10
0.0
 20
0.0
 30
0.0
  0
VERTEX
  5
14288
  8
0
 10
314.98667624479822
 20
408.59323611492368
 30
0.0
  0
VERTEX
  5
14289
  8
0
 10
315.11757606539209
 20
408.5878956290415
 30
0.0
  0
VERTEX
  5
1428A
  8
0
 10
315.3792513979003
 20
408.58009578931927
 30
0.0
  0
VERTEX
  5
1428B
  8
0
 10
315.64151203441571
 20
408.57616752107913
 30
0.0
  0
VERTEX
  5
1428C
  8
0
 10
315.77314931738101
 20
408.5756729869276
 30
0.0
  0
SEQEND
  5
1428D
  8
0
  0
POLYLINE
  5
AA6B
  8
0
 66
     1
 10
0.0
 20
0.0
 30
0.0
  0
VERTEX
  5
1428E
  8
0
 10
315.77314931738101
 20
408.5756729869276
 30
0.0
  0
VERTEX
  5
1428F
  8
0
 10
316.27558706929648
 20
408.58286312054747
 30
0.0
  0
VERTEX
  5
14290
  8
0
 10
317.28434761320892
 20
408.6396377043319
 30
0.0
  0
VERTEX
  5
14291
  8
0
 10
318.34013750593272
 20
408.75424804308489
 30
0.0
  0
VERTEX
  5
14292
  8
0
 10
318.90231598404762
 20
408.83509269634311
 30
0.0
  0
SEQEND
  5
14293
  8
0
  0
LINE
  5
AA6C
  8
0
 10
318.90231598404762
 20
408.83509269634311
 30
0.0
 11
318.90231598404762
 21
413.81625327751209
 31
0.0
  0
POLYLINE
  5
AA6D
  8
0
 66
     1
 10
0.0
 20
0.0
 30
0.0
  0
VERTEX
  5
14294
  8
0
 10
318.90231598404762
 20
413.81625327751209
 30
0.0
  0
VERTEX
  5
14295
  8
0
 10
318.34013750593272
 20
413.8970979307702
 30
0.0
  0
VERTEX
  5
14296
  8
0
 10
317.28434761320892
 20
414.01170826952318
 30
0.0
  0
VERTEX
  5
14297
  8
0
 10
316.27558706929648
 20
414.06848285330773
 30
0.0
  0
VERTEX
  5
14298
  8
0
 10
315.77314931738101
 20
414.07567298692749
 30
0.0
  0
SEQEND
  5
14299
  8
0
  0
LINE
  5
FC3E
  8
0
 10
172.9506323061228
 20
243.44368873142039
 30
0.0
 11
172.9506323061228
 21
244.24368873142041
 31
0.0
  0
LINE
  5
FC3F
  8
0
 10
103.35063230612261
 20
244.24368873142041
 30
0.0
 11
103.35063230612261
 21
243.44368873142039
 31
0.0
  0
LINE
  5
FC40
  8
0
 10
172.65185297010061
 20
234.94368873142039
 30
0.0
 11
174.15063230612259
 21
243.44368873142039
 31
0.0
  0
LINE
  5
FC41
  8
0
 10
102.1506323061226
 20
243.44368873142039
 30
0.0
 11
103.6494116421445
 21
234.94368873142039
 31
0.0
  0
LINE
  5
FC42
  8
0
 10
171.15063230612259
 20
198.24419727447309
 30
0.0
 11
171.15063230612259
 21
234.94368873142039
 31
0.0
  0
LINE
  5
FC43
  8
0
 10
105.1506323061226
 20
234.94368873142039
 30
0.0
 11
105.1506323061226
 21
198.24419727447309
 31
0.0
  0
LINE
  5
FC4B
  8
0
 10
95.650632306122574
 20
246.74368873142041
 30
0.0
 11
95.650632306122574
 21
244.24368873142041
 31
0.0
  0
LINE
  5
FC4D
  8
0
 10
95.650632306122574
 20
246.74368873142041
 30
0.0
 11
180.65063230612259
 21
246.74368873142041
 31
0.0
  0
LINE
  5
FC4E
  8
0
 10
180.6506323061223
 20
246.74368873142041
 30
0.0
 11
180.6506323061223
 21
244.24368873142041
 31
0.0
  0
LINE
  5
FC4F
  8
0
 10
95.650632306122574
 20
244.24368873142041
 30
0.0
 11
180.65063230612259
 21
244.24368873142041
 31
0.0
  0
LINE
  5
FC63
  8
0
 10
102.1506323061226
 20
243.44368873142039
 30
0.0
 11
174.15063230612259
 21
243.44368873142039
 31
0.0
  0
LINE
  5
FC64
  8
0
 10
103.6494116421445
 20
234.94368873142039
 30
0.0
 11
172.65185297010061
 21
234.94368873142039
 31
0.0
  0
LINE
  5
FC65
  8
0
 10
115.6506323061226
 20
232.94368873142039
 30
0.0
 11
160.65063230612259
 21
232.94368873142039
 31
0.0
  0
LINE
  5
FC69
  8
0
 10
115.6506323061226
 20
169.74368873142041
 30
0.0
 11
115.6506323061226
 21
232.94368873142039
 31
0.0
  0
LINE
  5
FC6B
  8
0
 10
160.65063230612259
 20
232.94368873142039
 30
0.0
 11
160.65063230612259
 21
169.74368873142041
 31
0.0
  0
LINE
  5
FC6C
  8
0
 10
118.6506323061226
 20
169.74368873142041
 30
0.0
 11
115.6506323061226
 21
169.74368873142041
 31
0.0
  0
LINE
  5
FC6D
  8
0
 10
160.65063230612259
 20
169.74368873142041
 30
0.0
 11
157.65063230612259
 21
169.74368873142041
 31
0.0
  0
POLYLINE
  5
FC76
  8
0
 66
     1
 10
0.0
 20
0.0
 30
0.0
  0
VERTEX
  5
1429A
  8
0
 10
160.65063230612259
 20
175.56739723372451
 30
0.0
  0
VERTEX
  5
1429B
  8
0
 10
160.68412345466001
 20
175.5967613154649
 30
0.0
  0
VERTEX
  5
1429C
  8
0
 10
160.75097540363461
 20
175.65562036471101
 30
0.0
  0
VERTEX
  5
1429D
  8
0
 10
160.8176531258118
 20
175.71465355004861
 30
0.0
  0
VERTEX
  5
1429E
  8
0
 10
160.8509264911672
 20
175.74423530158879
 30
0.0
  0
SEQEND
  5
1429F
  8
0
  0
POLYLINE
  5
FC78
  8
0
 66
     1
 10
0.0
 20
0.0
 30
0.0
  0
VERTEX
  5
142A0
  8
0
 10
168.26140775258131
 20
185.55941444791199
 30
0.0
  0
VERTEX
  5
142A1
  8
0
 10
168.41746781064191
 20
185.89150647019599
 30
0.0
  0
VERTEX
  5
142A2
  8
0
 10
168.71711572521511
 20
186.56072647446959
 30
0.0
  0
VERTEX
  5
142A3
  8
0
 10
168.99999802591489
 20
187.23635482338139
 30
0.0
  0
VERTEX
  5
142A4
  8
0
 10
169.13510322198809
 20
187.57645645261931
 30
0.0
  0
VERTEX
  5
142A5
  8
0
 10
169.26595955274661
 20
187.91802093704311
 30
0.0
  0
VERTEX
  5
142A6
  8
0
 10
169.51485442670219
 20
188.60535092387209
 30
0.0
  0
VERTEX
  5
142A7
  8
0
 10
169.7465461297765
 20
189.29796778567069
 30
0.0
  0
VERTEX
  5
142A8
  8
0
 10
169.9609075798453
 20
189.9954916244078
 30
0.0
  0
VERTEX
  5
142A9
  8
0
 10
170.15782120037099
 20
190.69753985059199
 30
0.0
  0
VERTEX
  5
142AA
  8
0
 10
170.3371789848911
 20
191.40372739312039
 30
0.0
  0
VERTEX
  5
142AB
  8
0
 10
170.4202433181344
 20
191.7582524466799
 30
0.0
  0
VERTEX
  5
142AC
  8
0
 10
170.49888255626129
 20
192.113666910489
 30
0.0
  0
VERTEX
  5
142AD
  8
0
 10
170.64284322061391
 20
192.82696900324811
 30
0.0
  0
VERTEX
  5
142AE
  8
0
 10
170.76898201600579
 20
193.54324242758679
 30
0.0
  0
VERTEX
  5
142AF
  8
0
 10
170.87722975573021
 20
194.26209430992839
 30
0.0
  0
VERTEX
  5
142B0
  8
0
 10
170.96752706626421
 20
194.98313036242121
 30
0.0
  0
VERTEX
  5
142B1
  8
0
 10
171.0398244198345
 20
195.70595509920301
 30
0.0
  0
VERTEX
  5
142B2
  8
0
 10
171.06921033432309
 20
196.06791436066121
 30
0.0
  0
VERTEX
  5
142B3
  8
0
 10
171.09408216158499
 20
196.4301720533243
 30
0.0
  0
VERTEX
  5
142B4
  8
0
 10
171.130270531326
 20
197.15538399420939
 30
0.0
  0
VERTEX
  5
142B5
  8
0
 10
171.14836967985769
 20
197.88119314553521
 30
0.0
  0
VERTEX
  5
142B6
  8
0
 10
171.15063230612259
 20
198.24419727447309
 30
0.0
  0
SEQEND
  5
142B7
  8
0
  0
POLYLINE
  5
FC7A
  8
0
 66
     1
 10
0.0
 20
0.0
 30
0.0
  0
VERTEX
  5
142B8
  8
0
 10
105.1506323061226
 20
198.24419727447309
 30
0.0
  0
VERTEX
  5
142B9
  8
0
 10
105.15314168290089
 20
197.86191225625791
 30
0.0
  0
VERTEX
  5
142BA
  8
0
 10
105.1732144073769
 20
197.0975747678697
 30
0.0
  0
VERTEX
  5
142BB
  8
0
 10
105.21334764587731
 20
196.33393478214671
 30
0.0
  0
VERTEX
  5
142BC
  8
0
 10
105.2409298050006
 20
195.95252154281451
 30
0.0
  0
VERTEX
  5
142BD
  8
0
 10
105.2735169849261
 20
195.57145682941339
 30
0.0
  0
VERTEX
  5
142BE
  8
0
 10
105.3536858228747
 20
194.8106047331176
 30
0.0
  0
VERTEX
  5
142BF
  8
0
 10
105.453805392166
 20
194.05184132768119
 30
0.0
  0
VERTEX
  5
142C0
  8
0
 10
105.5738147890015
 20
193.2956281769531
 30
0.0
  0
VERTEX
  5
142C1
  8
0
 10
105.713641010389
 20
192.54242529343529
 30
0.0
  0
VERTEX
  5
142C2
  8
0
 10
105.87319899855039
 20
191.7926908584522
 30
0.0
  0
VERTEX
  5
142C3
  8
0
 10
105.9603475409692
 20
191.4192669214965
 30
0.0
  0
VERTEX
  5
142C4
  8
0
 10
106.0523916926652
 20
191.04688094343399
 30
0.0
  0
VERTEX
  5
142C5
  8
0
 10
106.2511100879114
 20
190.30544923248391
 30
0.0
  0
VERTEX
  5
142C6
  8
0
 10
106.4692333017758
 20
189.5688467463967
 30
0.0
  0
VERTEX
  5
142C7
  8
0
 10
106.7066286475881
 20
188.83752156829851
 30
0.0
  0
VERTEX
  5
142C8
  8
0
 10
106.9631517152343
 20
188.11191857107281
 30
0.0
  0
VERTEX
  5
142C9
  8
0
 10
107.2386464590042
 20
187.3924791467397
 30
0.0
  0
VERTEX
  5
142CA
  8
0
 10
107.3834562867589
 20
187.03520769149239
 30
0.0
  0
VERTEX
  5
142CB
  8
0
 10
107.53294529251571
 20
186.67964093795231
 30
0.0
  0
VERTEX
  5
142CC
  8
0
 10
107.84586919065799
 20
185.97383757177391
 30
0.0
  0
VERTEX
  5
142CD
  8
0
 10
108.1772277984962
 20
185.27549839589869
 30
0.0
  0
VERTEX
  5
142CE
  8
0
 10
108.3497575629913
 20
184.92926081600899
 30
0.0
  0
SEQEND
  5
142CF
  8
0
  0
POLYLINE
  5
FC7C
  8
0
 66
     1
 10
0.0
 20
0.0
 30
0.0
  0
VERTEX
  5
142D0
  8
0
 10
115.45033812107791
 20
175.74423530158879
 30
0.0
  0
VERTEX
  5
142D1
  8
0
 10
115.4836114864336
 20
175.71465355004861
 30
0.0
  0
VERTEX
  5
142D2
  8
0
 10
115.55028920861059
 20
175.65562036471101
 30
0.0
  0
VERTEX
  5
142D3
  8
0
 10
115.6171411575851
 20
175.5967613154649
 30
0.0
  0
VERTEX
  5
142D4
  8
0
 10
115.6506323061226
 20
175.56739723372451
 30
0.0
  0
SEQEND
  5
142D5
  8
0
  0
LINE
  5
FC86
  8
0
 10
118.6506323061226
 20
217.3288741656977
 30
0.0
 11
119.1506323061226
 21
217.3288741656977
 31
0.0
  0
LINE
  5
FC87
  8
0
 10
118.6506323061226
 20
169.74368873142041
 30
0.0
 11
118.6506323061226
 21
217.3288741656977
 31
0.0
  0
LINE
  5
FC89
  8
0
 10
119.1506323061226
 20
219.74368873142041
 30
0.0
 11
115.6506323061226
 21
219.74368873142041
 31
0.0
  0
LINE
  5
FC8A
  8
0
 10
160.6506323061223
 20
219.74368873142041
 30
0.0
 11
157.15063230612259
 21
219.74368873142041
 31
0.0
  0
LINE
  5
FC8C
  8
0
 10
157.65063230612259
 20
217.3288741656977
 30
0.0
 11
157.65063230612259
 21
169.74368873142041
 31
0.0
  0
LINE
  5
FC8D
  8
0
 10
157.15063230612259
 20
217.3288741656977
 30
0.0
 11
157.65063230612259
 21
217.3288741656977
 31
0.0
  0
LINE
  5
FC9E
  8
0
 10
113.6506323061226
 20
185.5586887314204
 30
0.0
 11
113.05063230612269
 21
185.5586887314204
 31
0.0
  0
LINE
  5
FC9F
  8
0
 10
113.05063230612269
 20
173.92868873142041
 30
0.0
 11
113.6506323061226
 21
173.92868873142041
 31
0.0
  0
LINE
  5
FCA0
  8
0
 10
172.88363230612271
 20
183.74368873142029
 30
0.0
 11
170.65063230612259
 21
183.74368873142029
 31
0.0
  0
LINE
  5
FCA1
  8
0
 10
170.65063230612259
 20
175.74368873142041
 30
0.0
 11
172.88363230612271
 21
175.74368873142041
 31
0.0
  0
LINE
  5
FCA2
  8
0
 10
173.65063230612259
 20
182.97668873142041
 30
0.0
 11
172.88363230612271
 21
183.74368873142029
 31
0.0
  0
LINE
  5
FCA3
  8
0
 10
172.88363230612271
 20
175.74368873142041
 30
0.0
 11
173.65063230612259
 21
176.51068873142029
 31
0.0
  0
LINE
  5
FCA4
  8
0
 10
108.610052015538
 20
186.97018960077719
 30
0.0
 11
108.35063230612261
 21
186.0020220647537
 31
0.0
  0
LINE
  5
FCA5
  8
0
 10
108.35063230612261
 20
173.48535539808699
 30
0.0
 11
108.610052015538
 21
172.51718786206351
 31
0.0
  0
LINE
  5
FCA6
  8
0
 10
113.05063230612269
 20
186.0020220647537
 30
0.0
 11
112.791212596707
 21
186.97018960077719
 31
0.0
  0
LINE
  5
FCA7
  8
0
 10
112.791212596707
 20
172.51718786206351
 30
0.0
 11
113.05063230612269
 21
173.48535539808699
 31
0.0
  0
LINE
  5
FCA8
  8
0
 10
162.65063230612259
 20
183.74368873142029
 30
0.0
 11
160.65063230612259
 21
183.74368873142029
 31
0.0
  0
LINE
  5
FCA9
  8
0
 10
160.65063230612259
 20
175.74368873142041
 30
0.0
 11
162.65063230612259
 21
175.74368873142041
 31
0.0
  0
LINE
  5
FCAA
  8
0
 10
170.65063230612259
 20
185.5586887314204
 30
0.0
 11
168.15063230612259
 21
185.5586887314204
 31
0.0
  0
LINE
  5
FCAB
  8
0
 10
168.15063230612259
 20
173.92868873142041
 30
0.0
 11
170.65063230612259
 21
173.92868873142041
 31
0.0
  0
LINE
  5
FCAC
  8
0
 10
162.91005201553801
 20
186.97018960077719
 30
0.0
 11
162.65063230612259
 21
186.0020220647537
 31
0.0
  0
LINE
  5
FCAD
  8
0
 10
162.65063230612259
 20
173.48535539808699
 30
0.0
 11
162.91005201553801
 21
172.51718786206351
 31
0.0
  0
LINE
  5
FCAE
  8
0
 10
168.15063230612259
 20
186.0020220647537
 30
0.0
 11
167.89121259670719
 21
186.97018960077719
 31
0.0
  0
LINE
  5
FCAF
  8
0
 10
167.89121259670719
 20
172.51718786206351
 30
0.0
 11
168.15063230612259
 21
173.48535539808699
 31
0.0
  0
LINE
  5
FCB0
  8
0
 10
115.6506323061226
 20
183.74368873142029
 30
0.0
 11
113.6506323061226
 21
183.74368873142029
 31
0.0
  0
LINE
  5
FCB1
  8
0
 10
113.6506323061226
 20
175.74368873142041
 30
0.0
 11
115.6506323061226
 21
175.74368873142041
 31
0.0
  0
LINE
  5
FCB3
  8
0
 10
157.65063230612259
 20
185.74368873142041
 30
0.0
 11
153.15063230612259
 21
185.74368873142041
 31
0.0
  0
LINE
  5
FCB5
  8
0
 10
123.1506323061226
 20
185.74368873142041
 30
0.0
 11
118.6506323061226
 21
185.74368873142041
 31
0.0
  0
LINE
  5
FCB8
  8
0
 10
118.6506323061226
 20
173.74368873142041
 30
0.0
 11
123.1506323061226
 21
173.74368873142041
 31
0.0
  0
LINE
  5
FCBA
  8
0
 10
153.15063230612259
 20
173.74368873142041
 30
0.0
 11
157.65063230612259
 21
173.74368873142041
 31
0.0
  0
LINE
  5
FCBC
  8
0
 10
113.6506323061226
 20
173.92868873142041
 30
0.0
 11
113.6506323061226
 21
185.5586887314204
 31
0.0
  0
LINE
  5
FCBD
  8
0
 10
172.88363230612271
 20
175.74368873142041
 30
0.0
 11
172.88363230612271
 21
183.74368873142029
 31
0.0
  0
LINE
  5
FCBE
  8
0
 10
173.65063230612259
 20
176.51068873142029
 30
0.0
 11
173.65063230612259
 21
182.97668873142041
 31
0.0
  0
LINE
  5
FCBF
  8
0
 10
108.35063230612261
 20
173.48535539808699
 30
0.0
 11
108.35063230612261
 21
186.0020220647537
 31
0.0
  0
LINE
  5
FCC0
  8
0
 10
113.05063230612269
 20
173.48535539808699
 30
0.0
 11
113.05063230612269
 21
186.0020220647537
 31
0.0
  0
LINE
  5
FCC5
  8
0
 10
108.610052015538
 20
172.51718786206351
 30
0.0
 11
112.791212596707
 21
172.51718786206351
 31
0.0
  0
POLYLINE
  5
FCC6
  8
0
 66
     1
 10
0.0
 20
0.0
 30
0.0
  0
VERTEX
  5
142D6
  8
0
 10
108.610052015538
 20
172.51718786206351
 30
0.0
  0
VERTEX
  5
142D7
  8
0
 10
108.52920736228
 20
172.8417617577357
 30
0.0
  0
VERTEX
  5
142D8
  8
0
 10
108.41459702352699
 20
173.45132233650759
 30
0.0
  0
VERTEX
  5
142D9
  8
0
 10
108.35782243974241
 20
174.03373050808329
 30
0.0
  0
VERTEX
  5
142DA
  8
0
 10
108.35063230612261
 20
174.32381307940281
 30
0.0
  0
SEQEND
  5
142DB
  8
0
  0
POLYLINE
  5
FCC7
  8
0
 66
     1
 10
0.0
 20
0.0
 30
0.0
  0
VERTEX
  5
142DC
  8
0
 10
108.35063230612261
 20
174.32381307940281
 30
0.0
  0
VERTEX
  5
142DD
  8
0
 10
108.35782243974241
 20
174.61389565072221
 30
0.0
  0
VERTEX
  5
142DE
  8
0
 10
108.41459702352699
 20
175.19630382229789
 30
0.0
  0
VERTEX
  5
142DF
  8
0
 10
108.52920736228
 20
175.80586440106981
 30
0.0
  0
VERTEX
  5
142E0
  8
0
 10
108.610052015538
 20
176.130438296742
 30
0.0
  0
SEQEND
  5
142E1
  8
0
  0
POLYLINE
  5
FCC8
  8
0
 66
     1
 10
0.0
 20
0.0
 30
0.0
  0
VERTEX
  5
142E2
  8
0
 10
112.791212596707
 20
176.130438296742
 30
0.0
  0
VERTEX
  5
142E3
  8
0
 10
112.8720572499651
 20
175.8058644010697
 30
0.0
  0
VERTEX
  5
142E4
  8
0
 10
112.9866675887183
 20
175.19630382229789
 30
0.0
  0
VERTEX
  5
142E5
  8
0
 10
113.04344217250259
 20
174.61389565072221
 30
0.0
  0
VERTEX
  5
142E6
  8
0
 10
113.05063230612269
 20
174.32381307940281
 30
0.0
  0
SEQEND
  5
142E7
  8
0
  0
POLYLINE
  5
FCC9
  8
0
 66
     1
 10
0.0
 20
0.0
 30
0.0
  0
VERTEX
  5
142E8
  8
0
 10
113.05063230612269
 20
174.32381307940281
 30
0.0
  0
VERTEX
  5
142E9
  8
0
 10
113.04344217250259
 20
174.03373050808329
 30
0.0
  0
VERTEX
  5
142EA
  8
0
 10
112.9866675887183
 20
173.45132233650759
 30
0.0
  0
VERTEX
  5
142EB
  8
0
 10
112.87205724996529
 20
172.8417617577357
 30
0.0
  0
VERTEX
  5
142EC
  8
0
 10
112.791212596707
 20
172.51718786206351
 30
0.0
  0
SEQEND
  5
142ED
  8
0
  0
LINE
  5
FCCA
  8
0
 10
108.610052015538
 20
176.130438296742
 30
0.0
 11
112.791212596707
 21
176.130438296742
 31
0.0
  0
POLYLINE
  5
FCCB
  8
0
 66
     1
 10
0.0
 20
0.0
 30
0.0
  0
VERTEX
  5
142EE
  8
0
 10
108.610052015538
 20
176.130438296742
 30
0.0
  0
VERTEX
  5
142EF
  8
0
 10
108.52920736228
 20
176.77958608808629
 30
0.0
  0
VERTEX
  5
142F0
  8
0
 10
108.41459702352699
 20
177.9987072456301
 30
0.0
  0
VERTEX
  5
142F1
  8
0
 10
108.35782243974241
 20
179.1635235887814
 30
0.0
  0
VERTEX
  5
142F2
  8
0
 10
108.35063230612261
 20
179.74368873142029
 30
0.0
  0
SEQEND
  5
142F3
  8
0
  0
POLYLINE
  5
FCCC
  8
0
 66
     1
 10
0.0
 20
0.0
 30
0.0
  0
VERTEX
  5
142F4
  8
0
 10
108.35063230612261
 20
179.74368873142029
 30
0.0
  0
VERTEX
  5
142F5
  8
0
 10
108.35782243974241
 20
180.3238538740593
 30
0.0
  0
VERTEX
  5
142F6
  8
0
 10
108.41459702352699
 20
181.4886702172106
 30
0.0
  0
VERTEX
  5
142F7
  8
0
 10
108.52920736228
 20
182.70779137475441
 30
0.0
  0
VERTEX
  5
142F8
  8
0
 10
108.610052015538
 20
183.35693916609881
 30
0.0
  0
SEQEND
  5
142F9
  8
0
  0
POLYLINE
  5
FCCD
  8
0
 66
     1
 10
0.0
 20
0.0
 30
0.0
  0
VERTEX
  5
142FA
  8
0
 10
112.791212596707
 20
183.35693916609881
 30
0.0
  0
VERTEX
  5
142FB
  8
0
 10
112.8720572499651
 20
182.70779137475441
 30
0.0
  0
VERTEX
  5
142FC
  8
0
 10
112.9866675887183
 20
181.4886702172106
 30
0.0
  0
VERTEX
  5
142FD
  8
0
 10
113.04344217250259
 20
180.3238538740593
 30
0.0
  0
VERTEX
  5
142FE
  8
0
 10
113.05063230612269
 20
179.74368873142029
 30
0.0
  0
SEQEND
  5
142FF
  8
0
  0
POLYLINE
  5
FCCE
  8
0
 66
     1
 10
0.0
 20
0.0
 30
0.0
  0
VERTEX
  5
14300
  8
0
 10
113.05063230612269
 20
179.74368873142029
 30
0.0
  0
VERTEX
  5
14301
  8
0
 10
113.04344217250259
 20
179.1635235887814
 30
0.0
  0
VERTEX
  5
14302
  8
0
 10
112.9866675887183
 20
177.9987072456301
 30
0.0
  0
VERTEX
  5
14303
  8
0
 10
112.87205724996529
 20
176.77958608808629
 30
0.0
  0
VERTEX
  5
14304
  8
0
 10
112.791212596707
 20
176.130438296742
 30
0.0
  0
SEQEND
  5
14305
  8
0
  0
POLYLINE
  5
FCD3
  8
0
 66
     1
 10
0.0
 20
0.0
 30
0.0
  0
VERTEX
  5
14306
  8
0
 10
113.05063230612269
 20
185.163564383438
 30
0.0
  0
VERTEX
  5
14307
  8
0
 10
113.04344217250259
 20
184.87348181211851
 30
0.0
  0
VERTEX
  5
14308
  8
0
 10
112.9866675887183
 20
184.29107364054289
 30
0.0
  0
VERTEX
  5
14309
  8
0
 10
112.8720572499651
 20
183.681513061771
 30
0.0
  0
VERTEX
  5
1430A
  8
0
 10
112.791212596707
 20
183.35693916609881
 30
0.0
  0
SEQEND
  5
1430B
  8
0
  0
LINE
  5
FCD4
  8
0
 10
108.610052015538
 20
183.35693916609881
 30
0.0
 11
112.791212596707
 21
183.35693916609881
 31
0.0
  0
POLYLINE
  5
FCD5
  8
0
 66
     1
 10
0.0
 20
0.0
 30
0.0
  0
VERTEX
  5
1430C
  8
0
 10
108.610052015538
 20
183.35693916609881
 30
0.0
  0
VERTEX
  5
1430D
  8
0
 10
108.52920736228
 20
183.681513061771
 30
0.0
  0
VERTEX
  5
1430E
  8
0
 10
108.41459702352699
 20
184.29107364054289
 30
0.0
  0
VERTEX
  5
1430F
  8
0
 10
108.35782243974241
 20
184.87348181211851
 30
0.0
  0
VERTEX
  5
14310
  8
0
 10
108.35063230612261
 20
185.163564383438
 30
0.0
  0
SEQEND
  5
14311
  8
0
  0
POLYLINE
  5
FCD6
  8
0
 66
     1
 10
0.0
 20
0.0
 30
0.0
  0
VERTEX
  5
14312
  8
0
 10
108.35063230612261
 20
185.163564383438
 30
0.0
  0
VERTEX
  5
14313
  8
0
 10
108.35782243974241
 20
185.4536469547574
 30
0.0
  0
VERTEX
  5
14314
  8
0
 10
108.41459702352699
 20
186.03605512633311
 30
0.0
  0
VERTEX
  5
14315
  8
0
 10
108.52920736228
 20
186.645615705105
 30
0.0
  0
VERTEX
  5
14316
  8
0
 10
108.610052015538
 20
186.97018960077719
 30
0.0
  0
SEQEND
  5
14317
  8
0
  0
LINE
  5
FCD7
  8
0
 10
108.610052015538
 20
186.97018960077719
 30
0.0
 11
112.791212596707
 21
186.97018960077719
 31
0.0
  0
POLYLINE
  5
FCD8
  8
0
 66
     1
 10
0.0
 20
0.0
 30
0.0
  0
VERTEX
  5
14318
  8
0
 10
112.791212596707
 20
186.97018960077719
 30
0.0
  0
VERTEX
  5
14319
  8
0
 10
112.87205724996529
 20
186.645615705105
 30
0.0
  0
VERTEX
  5
1431A
  8
0
 10
112.9866675887183
 20
186.03605512633311
 30
0.0
  0
VERTEX
  5
1431B
  8
0
 10
113.04344217250259
 20
185.4536469547574
 30
0.0
  0
VERTEX
  5
1431C
  8
0
 10
113.05063230612269
 20
185.163564383438
 30
0.0
  0
SEQEND
  5
1431D
  8
0
  0
LINE
  5
FCDD
  8
0
 10
170.65063230612259
 20
173.92868873142041
 30
0.0
 11
170.65063230612259
 21
185.5586887314204
 31
0.0
  0
LINE
  5
FCDE
  8
0
 10
162.65063230612259
 20
173.48535539808699
 30
0.0
 11
162.65063230612259
 21
186.0020220647537
 31
0.0
  0
LINE
  5
FCDF
  8
0
 10
168.15063230612259
 20
173.48535539808699
 30
0.0
 11
168.15063230612259
 21
186.0020220647537
 31
0.0
  0
LINE
  5
FCE4
  8
0
 10
162.91005201553801
 20
172.51718786206351
 30
0.0
 11
167.89121259670719
 21
172.51718786206351
 31
0.0
  0
POLYLINE
  5
FCE5
  8
0
 66
     1
 10
0.0
 20
0.0
 30
0.0
  0
VERTEX
  5
1431E
  8
0
 10
162.91005201553801
 20
172.51718786206351
 30
0.0
  0
VERTEX
  5
1431F
  8
0
 10
162.8292073622801
 20
172.8417617577357
 30
0.0
  0
VERTEX
  5
14320
  8
0
 10
162.71459702352689
 20
173.45132233650759
 30
0.0
  0
VERTEX
  5
14321
  8
0
 10
162.6578224397426
 20
174.03373050808329
 30
0.0
  0
VERTEX
  5
14322
  8
0
 10
162.65063230612259
 20
174.32381307940281
 30
0.0
  0
SEQEND
  5
14323
  8
0
  0
POLYLINE
  5
FCE6
  8
0
 66
     1
 10
0.0
 20
0.0
 30
0.0
  0
VERTEX
  5
14324
  8
0
 10
162.65063230612259
 20
174.32381307940281
 30
0.0
  0
VERTEX
  5
14325
  8
0
 10
162.6578224397426
 20
174.61389565072221
 30
0.0
  0
VERTEX
  5
14326
  8
0
 10
162.71459702352689
 20
175.19630382229789
 30
0.0
  0
VERTEX
  5
14327
  8
0
 10
162.8292073622801
 20
175.8058644010697
 30
0.0
  0
VERTEX
  5
14328
  8
0
 10
162.91005201553801
 20
176.130438296742
 30
0.0
  0
SEQEND
  5
14329
  8
0
  0
POLYLINE
  5
FCE7
  8
0
 66
     1
 10
0.0
 20
0.0
 30
0.0
  0
VERTEX
  5
1432A
  8
0
 10
167.89121259670719
 20
176.130438296742
 30
0.0
  0
VERTEX
  5
1432B
  8
0
 10
167.97205724996499
 20
175.8058644010697
 30
0.0
  0
VERTEX
  5
1432C
  8
0
 10
168.0866675887182
 20
175.19630382229789
 30
0.0
  0
VERTEX
  5
1432D
  8
0
 10
168.14344217250249
 20
174.61389565072221
 30
0.0
  0
VERTEX
  5
1432E
  8
0
 10
168.15063230612259
 20
174.32381307940281
 30
0.0
  0
SEQEND
  5
1432F
  8
0
  0
POLYLINE
  5
FCE8
  8
0
 66
     1
 10
0.0
 20
0.0
 30
0.0
  0
VERTEX
  5
14330
  8
0
 10
168.15063230612259
 20
174.32381307940281
 30
0.0
  0
VERTEX
  5
14331
  8
0
 10
168.14344217250249
 20
174.03373050808329
 30
0.0
  0
VERTEX
  5
14332
  8
0
 10
168.0866675887182
 20
173.45132233650759
 30
0.0
  0
VERTEX
  5
14333
  8
0
 10
167.97205724996499
 20
172.8417617577357
 30
0.0
  0
VERTEX
  5
14334
  8
0
 10
167.89121259670719
 20
172.51718786206351
 30
0.0
  0
SEQEND
  5
14335
  8
0
  0
LINE
  5
FCE9
  8
0
 10
162.91005201553801
 20
176.130438296742
 30
0.0
 11
167.89121259670719
 21
176.130438296742
 31
0.0
  0
POLYLINE
  5
FCEA
  8
0
 66
     1
 10
0.0
 20
0.0
 30
0.0
  0
VERTEX
  5
14336
  8
0
 10
162.91005201553801
 20
176.130438296742
 30
0.0
  0
VERTEX
  5
14337
  8
0
 10
162.8292073622801
 20
176.77958608808629
 30
0.0
  0
VERTEX
  5
14338
  8
0
 10
162.71459702352689
 20
177.9987072456301
 30
0.0
  0
VERTEX
  5
14339
  8
0
 10
162.6578224397426
 20
179.1635235887814
 30
0.0
  0
VERTEX
  5
1433A
  8
0
 10
162.65063230612259
 20
179.74368873142029
 30
0.0
  0
SEQEND
  5
1433B
  8
0
  0
POLYLINE
  5
FCEB
  8
0
 66
     1
 10
0.0
 20
0.0
 30
0.0
  0
VERTEX
  5
1433C
  8
0
 10
162.65063230612259
 20
179.74368873142029
 30
0.0
  0
VERTEX
  5
1433D
  8
0
 10
162.6578224397426
 20
180.3238538740593
 30
0.0
  0
VERTEX
  5
1433E
  8
0
 10
162.71459702352689
 20
181.4886702172106
 30
0.0
  0
VERTEX
  5
1433F
  8
0
 10
162.8292073622801
 20
182.70779137475441
 30
0.0
  0
VERTEX
  5
14340
  8
0
 10
162.91005201553801
 20
183.35693916609881
 30
0.0
  0
SEQEND
  5
14341
  8
0
  0
POLYLINE
  5
FCEC
  8
0
 66
     1
 10
0.0
 20
0.0
 30
0.0
  0
VERTEX
  5
14342
  8
0
 10
167.89121259670719
 20
183.35693916609881
 30
0.0
  0
VERTEX
  5
14343
  8
0
 10
167.97205724996499
 20
182.70779137475441
 30
0.0
  0
VERTEX
  5
14344
  8
0
 10
168.0866675887182
 20
181.4886702172106
 30
0.0
  0
VERTEX
  5
14345
  8
0
 10
168.14344217250249
 20
180.3238538740593
 30
0.0
  0
VERTEX
  5
14346
  8
0
 10
168.15063230612259
 20
179.74368873142029
 30
0.0
  0
SEQEND
  5
14347
  8
0
  0
POLYLINE
  5
FCED
  8
0
 66
     1
 10
0.0
 20
0.0
 30
0.0
  0
VERTEX
  5
14348
  8
0
 10
168.15063230612259
 20
179.74368873142029
 30
0.0
  0
VERTEX
  5
14349
  8
0
 10
168.14344217250249
 20
179.1635235887814
 30
0.0
  0
VERTEX
  5
1434A
  8
0
 10
168.0866675887182
 20
177.9987072456301
 30
0.0
  0
VERTEX
  5
1434B
  8
0
 10
167.97205724996499
 20
176.77958608808629
 30
0.0
  0
VERTEX
  5
1434C
  8
0
 10
167.89121259670719
 20
176.130438296742
 30
0.0
  0
SEQEND
  5
1434D
  8
0
  0
POLYLINE
  5
FCF2
  8
0
 66
     1
 10
0.0
 20
0.0
 30
0.0
  0
VERTEX
  5
1434E
  8
0
 10
168.15063230612259
 20
185.163564383438
 30
0.0
  0
VERTEX
  5
1434F
  8
0
 10
168.14344217250249
 20
184.87348181211851
 30
0.0
  0
VERTEX
  5
14350
  8
0
 10
168.0866675887182
 20
184.29107364054289
 30
0.0
  0
VERTEX
  5
14351
  8
0
 10
167.97205724996499
 20
183.681513061771
 30
0.0
  0
VERTEX
  5
14352
  8
0
 10
167.89121259670719
 20
183.35693916609881
 30
0.0
  0
SEQEND
  5
14353
  8
0
  0
LINE
  5
FCF3
  8
0
 10
162.91005201553801
 20
183.35693916609881
 30
0.0
 11
167.89121259670719
 21
183.35693916609881
 31
0.0
  0
POLYLINE
  5
FCF4
  8
0
 66
     1
 10
0.0
 20
0.0
 30
0.0
  0
VERTEX
  5
14354
  8
0
 10
162.91005201553801
 20
183.35693916609881
 30
0.0
  0
VERTEX
  5
14355
  8
0
 10
162.8292073622801
 20
183.681513061771
 30
0.0
  0
VERTEX
  5
14356
  8
0
 10
162.71459702352689
 20
184.29107364054289
 30
0.0
  0
VERTEX
  5
14357
  8
0
 10
162.6578224397426
 20
184.87348181211851
 30
0.0
  0
VERTEX
  5
14358
  8
0
 10
162.65063230612259
 20
185.163564383438
 30
0.0
  0
SEQEND
  5
14359
  8
0
  0
POLYLINE
  5
FCF5
  8
0
 66
     1
 10
0.0
 20
0.0
 30
0.0
  0
VERTEX
  5
1435A
  8
0
 10
162.65063230612259
 20
185.163564383438
 30
0.0
  0
VERTEX
  5
1435B
  8
0
 10
162.6578224397426
 20
185.4536469547574
 30
0.0
  0
VERTEX
  5
1435C
  8
0
 10
162.71459702352689
 20
186.03605512633311
 30
0.0
  0
VERTEX
  5
1435D
  8
0
 10
162.8292073622801
 20
186.645615705105
 30
0.0
  0
VERTEX
  5
1435E
  8
0
 10
162.91005201553801
 20
186.97018960077719
 30
0.0
  0
SEQEND
  5
1435F
  8
0
  0
LINE
  5
FCF6
  8
0
 10
162.91005201553801
 20
186.97018960077719
 30
0.0
 11
167.89121259670719
 21
186.97018960077719
 31
0.0
  0
POLYLINE
  5
FCF7
  8
0
 66
     1
 10
0.0
 20
0.0
 30
0.0
  0
VERTEX
  5
14360
  8
0
 10
167.89121259670719
 20
186.97018960077719
 30
0.0
  0
VERTEX
  5
14361
  8
0
 10
167.97205724996499
 20
186.645615705105
 30
0.0
  0
VERTEX
  5
14362
  8
0
 10
168.0866675887182
 20
186.03605512633311
 30
0.0
  0
VERTEX
  5
14363
  8
0
 10
168.14344217250249
 20
185.4536469547574
 30
0.0
  0
VERTEX
  5
14364
  8
0
 10
168.15063230612259
 20
185.163564383438
 30
0.0
  0
SEQEND
  5
14365
  8
0
  0
ARC
  5
FD20
  8
0
 10
125.1506323061226
 20
144.0365465887061
 30
0.0
 40
1.9999999999999869
 50
180.0
 51
249.99480991183901
  0
ARC
  5
FD23
  8
0
 10
138.15063230612259
 20
179.74368873142029
 30
0.0
 40
39.999999999999972
 50
249.99480991183901
 51
290.00519008816099
  0
ARC
  5
FD25
  8
0
 10
151.15063230612259
 20
144.0365465887061
 30
0.0
 40
1.999999999999958
 50
290.00519008816099
 51
0.0
  0
LINE
  5
FD32
  8
0
 10
123.1506323061226
 20
144.0365465887061
 30
0.0
 11
123.1506323061226
 21
214.43109668683039
 31
0.0
  0
LINE
  5
FD34
  8
0
 10
153.15063230612259
 20
144.0365465887061
 30
0.0
 11
153.15063230612259
 21
214.43109668683039
 31
0.0
  0
LINE
  5
12441
  8
0
 10
318.90231598404807
 20
186.9701896007773
 30
0.0
 11
325.16064931738129
 21
183.35693916609881
 31
0.0
  0
LINE
  5
12442
  8
0
 10
325.16064931738129
 20
183.35693916609881
 30
0.0
 11
325.16064931738129
 21
176.13043829674211
 31
0.0
  0
LINE
  5
12443
  8
0
 10
325.16064931738129
 20
176.13043829674211
 30
0.0
 11
318.90231598404807
 21
172.51718786206371
 31
0.0
  0
LINE
  5
12444
  8
0
 10
318.90231598404807
 20
186.9701896007773
 30
0.0
 11
312.6439826507148
 21
183.35693916609881
 31
0.0
  0
LINE
  5
12445
  8
0
 10
312.6439826507148
 20
183.35693916609881
 30
0.0
 11
312.6439826507148
 21
176.13043829674211
 31
0.0
  0
LINE
  5
12446
  8
0
 10
312.6439826507148
 20
176.13043829674211
 30
0.0
 11
318.90231598404807
 21
172.51718786206371
 31
0.0
  0
CIRCLE
  5
12447
  8
0
 10
318.90231598404762
 20
179.74368873142049
 30
0.0
 40
6.2583333333330611
  0
LINE
  5
12448
  8
1
 10
357.90231598404807
 20
254.73710445286071
 30
0.0
 11
357.90231598404807
 21
211.36077252471171
 31
0.0
  0
LINE
  5
12449
  8
1
 10
270.9089002626074
 20
179.74368873142049
 30
0.0
 11
366.89573170548789
 21
179.74368873142049
 31
0.0
  0
LINE
  5
1244A
  8
1
 10
318.90231598404762
 20
131.7502730099803
 30
0.0
 11
318.90231598404762
 21
221.50293686627819
 31
0.0
  0
LINE
  5
1244B
  8
1
 10
469.36393483403469
 20
179.74368873142049
 30
0.0
 11
553.08262651564655
 21
179.74368873142049
 31
0.0
  0
LINE
  5
1244C
  8
1
 10
511.22328067484068
 20
131.7502730099803
 30
0.0
 11
511.22328067484091
 21
254.73710445286071
 31
0.0
  0
LINE
  5
125AA
  8
1
 10
230.42556076100249
 20
384.07567298692902
 30
0.0
 11
415.89573170548778
 21
384.07567298692783
 31
0.0
  0
LINE
  5
125AB
  8
1
 10
357.90231598404762
 20
333.5822572654875
 30
0.0
 11
357.90231598404762
 21
434.5690887083677
 31
0.0
  0
LINE
  5
125AC
  8
1
 10
318.90231598404762
 20
432.07913342892488
 30
0.0
 11
318.90231598404762
 21
336.07221254493072
 31
0.0
  0
LINE
  5
125AD
  8
1
 10
311.16624800654739
 20
354.0756729869276
 30
0.0
 11
324.63838396154728
 21
354.0756729869276
 31
0.0
  0
LINE
  5
125AE
  8
1
 10
317.90231598404739
 20
360.81174096442737
 30
0.0
 11
317.90231598404739
 21
347.33960500942783
 31
0.0
  0
LINE
  5
125AF
  8
1
 10
313.66624800654751
 20
361.5756729869276
 30
0.0
 11
327.13838396154728
 21
361.5756729869276
 31
0.0
  0
LINE
  5
125B0
  8
1
 10
320.40231598404739
 20
368.31174096442737
 30
0.0
 11
320.40231598404739
 21
354.83960500942783
 31
0.0
  0
LINE
  5
125B1
  8
1
 10
311.16624800654739
 20
414.07567298692749
 30
0.0
 11
324.63838396154728
 21
414.07567298692749
 31
0.0
  0
LINE
  5
125B2
  8
1
 10
317.90231598404739
 20
420.81174096442732
 30
0.0
 11
317.90231598404739
 21
407.33960500942783
 31
0.0
  0
LINE
  5
125B3
  8
1
 10
313.66624800654751
 20
406.5756729869276
 30
0.0
 11
327.13838396154728
 21
406.5756729869276
 31
0.0
  0
LINE
  5
125B4
  8
1
 10
320.40231598404739
 20
413.31174096442732
 30
0.0
 11
320.40231598404739
 21
399.83960500942783
 31
0.0
  0
LINE
  5
125B5
  8
1
 10
388.66624800654751
 20
361.5756729869276
 30
0.0
 11
402.13838396154728
 21
361.5756729869276
 31
0.0
  0
LINE
  5
125B6
  8
1
 10
395.40231598404722
 20
368.31174096442737
 30
0.0
 11
395.40231598404722
 21
354.83960500942783
 31
0.0
  0
LINE
  5
125B7
  8
1
 10
391.16624800654751
 20
354.0756729869276
 30
0.0
 11
404.63838396154728
 21
354.0756729869276
 31
0.0
  0
LINE
  5
125B8
  8
1
 10
397.90231598404722
 20
360.81174096442737
 30
0.0
 11
397.90231598404722
 21
347.33960500942783
 31
0.0
  0
LINE
  5
125B9
  8
1
 10
388.66624800654751
 20
406.5756729869276
 30
0.0
 11
402.13838396154728
 21
406.5756729869276
 31
0.0
  0
LINE
  5
125BA
  8
1
 10
395.40231598404722
 20
413.31174096442732
 30
0.0
 11
395.40231598404722
 21
399.83960500942783
 31
0.0
  0
LINE
  5
125BB
  8
1
 10
391.16624800654751
 20
414.07567298692749
 30
0.0
 11
404.63838396154728
 21
414.07567298692749
 31
0.0
  0
LINE
  5
125BC
  8
1
 10
397.90231598404762
 20
420.81174096442732
 30
0.0
 11
397.90231598404762
 21
407.33960500942783
 31
0.0
  0
CIRCLE
  5
1263B
  8
0
 10
357.90231598404762
 20
384.07567298692709
 30
0.0
 40
8.9249999999999972
  0
CIRCLE
  5
1263C
  8
0
 10
357.90231598404762
 20
384.07567298692709
 30
0.0
 40
13.579006893609151
  0
CIRCLE
  5
1263D
  8
0
 10
357.90231598404762
 20
384.07567298692709
 30
0.0
 40
20.175000000000001
  0
CIRCLE
  5
1263E
  8
0
 10
357.90231598404762
 20
384.07567298692709
 30
0.0
 40
25.668546822706869
  0
CIRCLE
  5
1263F
  8
0
 10
357.90231598404762
 20
384.07567298692709
 30
0.0
 40
27.174999999999962
  0
CIRCLE
  5
12640
  8
0
 10
357.90231598404762
 20
384.07567298692709
 30
0.0
 40
31.175000000000001
  0
LINE
  5
12681
  8
1
 10
96.291286465316489
 20
179.74368873142049
 30
0.0
 11
180.0099781469282
 21
179.74368873142049
 31
0.0
  0
LINE
  5
12682
  8
1
 10
138.1506323061223
 20
131.7502730099803
 30
0.0
 11
138.15063230612259
 21
254.73710445286071
 31
0.0
  0
LINE
  5
126C1
  8
0
 10
258.41897648244299
 20
364.67567298692762
 30
0.0
 11
258.41897648244299
 21
403.47567298692769
 31
0.0
  0
LINE
  5
126C2
  8
0
 10
238.4189764824427
 20
368.05415230361223
 30
0.0
 11
238.4189764824427
 21
400.09719367024582
 31
0.0
  0
LINE
  5
126C3
  8
0
 10
242.96313674647061
 20
365.0756729869276
 30
0.0
 11
242.96313674647061
 21
403.0756729869276
 31
0.0
  0
LINE
  5
126C4
  8
0
 10
255.41897648244299
 20
368.07567298692771
 30
0.0
 11
255.41897648244321
 21
400.07567298692783
 31
0.0
  0
LINE
  5
126C5
  8
0
 10
258.41897648244299
 20
365.0756729869276
 30
0.0
 11
240.0130861810587
 21
365.0756729869276
 31
0.0
  0
LINE
  5
126C6
  8
0
 10
255.41897648244299
 20
368.07567298692771
 30
0.0
 11
258.41897648244299
 21
368.07567298692771
 31
0.0
  0
LINE
  5
126C7
  8
0
 10
258.41897648244299
 20
403.0756729869276
 30
0.0
 11
240.0130861810585
 21
403.0756729869276
 31
0.0
  0
LINE
  5
126C8
  8
0
 10
255.41897648244409
 20
400.07567298692783
 30
0.0
 11
258.4189764824439
 21
400.0756729869276
 31
0.0
  0
ARC
  5
126C9
  8
0
 10
242.7554158760845
 20
368.4592240133727
 30
0.0
 40
4.3553174057440378
 50
185.33657785304999
 51
230.9756258438492
  0
ARC
  5
126CA
  8
0
 10
242.7554158760843
 20
399.69212196048261
 30
0.0
 40
4.3553174057440378
 50
129.0243741561508
 51
174.6634221469499
  0
LINE
  5
126CD
  8
0
 10
238.4189764824435
 20
220.86604156742919
 30
0.0
 11
241.63291453087621
 21
217.03581935183431
 31
0.0
  0
LINE
  5
126CE
  8
0
 10
240.3340875902409
 20
222.47301059164579
 30
0.0
 11
238.4189764824435
 21
220.86604156742919
 31
0.0
  0
LINE
  5
126CF
  8
0
 10
242.96313674647101
 20
219.33983181460169
 30
0.0
 11
240.3340875902409
 21
222.47301059164579
 31
0.0
  0
LINE
  5
126D0
  8
0
 10
259.12854318207468
 20
217.0955497570375
 30
0.0
 11
242.96313674647101
 21
219.33983181460169
 31
0.0
  0
LINE
  5
126D1
  8
0
 10
258.4451107954992
 20
219.64615414727521
 30
0.0
 11
258.13956915287332
 21
219.82552289940961
 31
0.0
  0
LINE
  5
126D2
  8
0
 10
241.63291453087621
 20
217.03581935183431
 30
0.0
 11
259.8424812305073
 21
214.43109668683039
 31
0.0
  0
LINE
  5
126D3
  8
0
 10
255.87335676289439
 20
223.60214967266211
 30
0.0
 11
258.4173904564102
 21
223.2518263272209
 31
0.0
  0
LINE
  5
126D4
  8
0
 10
255.42243847079479
 20
220.49170897855021
 30
0.0
 11
255.87335676289439
 21
223.60214967266211
 31
0.0
  0
LINE
  5
126D5
  8
0
 10
258.07381807057408
 20
220.2045781691763
 30
0.0
 11
258.4173904564102
 21
223.2518263272211
 31
0.0
  0
LINE
  5
126D6
  8
0
 10
255.42243847079479
 20
220.49170897855021
 30
0.0
 11
256.16038546334789
 21
217.5076261956161
 31
0.0
  0
LINE
  5
126D7
  8
0
 10
258.07381807057408
 20
220.2045781691763
 30
0.0
 11
258.13956915287332
 21
219.82552289940961
 31
0.0
  0
LINE
  5
126DB
  8
0
 10
491.72328067484068
 20
214.43109668683039
 30
0.0
 11
496.22328067484062
 21
214.43109668683039
 31
0.0
  0
LINE
  5
126DC
  8
0
 10
526.22328067484057
 20
214.43109668683039
 30
0.0
 11
530.72328067484057
 21
214.43109668683039
 31
0.0
  0
LINE
  5
126DF
  8
0
 10
157.15063230612259
 20
214.43109668683039
 30
0.0
 11
119.1506323061226
 21
214.43109668683039
 31
0.0
  0
LINE
  5
126E0
  8
0
 10
157.15063230612259
 20
214.43109668683039
 30
0.0
 11
157.15063230612259
 21
222.47301059164579
 31
0.0
  0
LINE
  5
126E1
  8
0
 10
154.15063230612279
 20
222.47301059164579
 30
0.0
 11
154.15063230612279
 21
223.60214967266211
 31
0.0
  0
LINE
  5
126E2
  8
0
 10
157.15063230612259
 20
222.47301059164579
 30
0.0
 11
119.1506323061226
 21
222.47301059164579
 31
0.0
  0
LINE
  5
126E3
  8
0
 10
119.1506323061226
 20
214.43109668683039
 30
0.0
 11
119.1506323061226
 21
222.47301059164579
 31
0.0
  0
LINE
  5
126E4
  8
0
 10
154.15063230612279
 20
223.60214967266211
 30
0.0
 11
122.1506323061223
 21
223.60214967266211
 31
0.0
  0
LINE
  5
126E5
  8
0
 10
122.1506323061223
 20
222.47301059164579
 30
0.0
 11
122.1506323061223
 21
223.60214967266211
 31
0.0
  0
LINE
  5
126E6
  8
0
 10
119.1506323061226
 20
217.03581935183411
 30
0.0
 11
157.15063230612259
 21
217.03581935183411
 31
0.0
  0
LINE
  5
126E8
  8
3
 10
173.65063230612259
 20
182.97668873142041
 30
0.0
 11
170.65063230612259
 21
182.97668873142041
 31
0.0
  0
LINE
  5
126E9
  8
3
 10
173.65063230612259
 20
176.51068873142029
 30
0.0
 11
170.65063230612259
 21
176.51068873142029
 31
0.0
  0
LINE
  5
126EA
  8
3
 10
475.72328067484062
 20
182.97668873142041
 30
0.0
 11
478.72328067484068
 21
182.97668873142041
 31
0.0
  0
LINE
  5
126EB
  8
3
 10
475.72328067484062
 20
176.51068873142049
 30
0.0
 11
478.72328067484068
 21
176.51068873142049
 31
0.0
  0
TEXT
  5
13F87
  8
0
 62
     3
 10
0.0
 20
0.0
 30
0.0
 40
10.0
  1
CAFF-080SBF
  7
STANDARD1
  0
ENDSEC
  0
EOF
