  0
SECTION
  2
HEADER
  9
$ACADVER
  1
AC1009
  9
$INSBASE
 10
0.0
 20
0.0
 30
0.0
  9
$EXTMIN
 10
0.0
 20
-2.960436562073669
 30
0.0
  9
$EXTMAX
 10
539.24305856288993
 20
423.80756298556838
 30
0.0
  9
$LIMMIN
 10
0.0
 20
0.0
  9
$LIMMAX
 10
375.0
 20
270.0
  9
$ORTHOMODE
 70
     1
  9
$REGENMODE
 70
     1
  9
$FILLMODE
 70
     1
  9
$QTEXTMODE
 70
     0
  9
$MIRRTEXT
 70
     1
  9
$DRAGMODE
 70
     2
  9
$LTSCALE
 40
10.0
  9
$OSMODE
 70
    37
  9
$ATTMODE
 70
     1
  9
$TEXTSIZE
 40
5.0
  9
$TRACEWID
 40
0.05
  9
$TEXTSTYLE
  7
STANDARD
  9
$CLAYER
  8
0
  9
$CELTYPE
  6
BYLAYER
  9
$CECOLOR
 62
     6
  9
$DIMSCALE
 40
2.0
  9
$DIMASZ
 40
3.0
  9
$DIMEXO
 40
2.0
  9
$DIMDLI
 40
0.38
  9
$DIMRND
 40
0.0
  9
$DIMDLE
 40
0.0
  9
$DIMEXE
 40
2.0
  9
$DIMTP
 40
0.0
  9
$DIMTM
 40
0.0
  9
$DIMTXT
 40
3.2000000000000002
  9
$DIMCEN
 40
0.0
  9
$DIMTSZ
 40
0.0
  9
$DIMTOL
 70
     0
  9
$DIMLIM
 70
     0
  9
$DIMTIH
 70
     0
  9
$DIMTOH
 70
     0
  9
$DIMSE1
 70
     0
  9
$DIMSE2
 70
     0
  9
$DIMTAD
 70
     1
  9
$DIMZIN
 70
     8
  9
$DIMBLK
  1

  9
$DIMASO
 70
     0
  9
$DIMSHO
 70
     0
  9
$DIMPOST
  1

  9
$DIMAPOST
  1

  9
$DIMALT
 70
     0
  9
$DIMALTD
 70
     2
  9
$DIMALTF
 40
25.399999999999999
  9
$DIMLFAC
 40
1.0
  9
$DIMTOFL
 70
     0
  9
$DIMTVP
 40
1.6000000000000001
  9
$DIMTIX
 70
     1
  9
$DIMSOXD
 70
     0
  9
$DIMSAH
 70
     0
  9
$DIMBLK1
  1

  9
$DIMBLK2
  1

  9
$DIMSTYLE
  2
STANDARD
  9
$DIMCLRD
 70
     0
  9
$DIMCLRE
 70
     0
  9
$DIMCLRT
 70
     0
  9
$DIMTFAC
 40
1.0
  9
$DIMGAP
 40
1.1999999999999991
  9
$LUNITS
 70
     2
  9
$LUPREC
 70
     4
  9
$SKETCHINC
 40
0.1
  9
$FILLETRAD
 40
0.0
  9
$AUNITS
 70
     0
  9
$AUPREC
 70
     4
  9
$MENU
  1
ACAD
  9
$ELEVATION
 40
0.0
  9
$PELEVATION
 40
0.0
  9
$THICKNESS
 40
0.0
  9
$LIMCHECK
 70
     0
  9
$BLIPMODE
 70
     0
  9
$CHAMFERA
 40
0.0
  9
$CHAMFERB
 40
0.0
  9
$SKPOLY
 70
     0
  9
$TDCREATE
 40
2448055.7149187499
  9
$TDUPDATE
 40
2459565.4848664468
  9
$TDINDWG
 40
3.5621789005000002
  9
$TDUSRTIMER
 40
3.5621789005000002
  9
$USRTIMER
 70
     1
  9
$ANGBASE
 50
0.0
  9
$ANGDIR
 70
     0
  9
$PDMODE
 70
     0
  9
$PDSIZE
 40
0.0
  9
$PLINEWID
 40
0.0
  9
$COORDS
 70
     1
  9
$SPLFRAME
 70
     0
  9
$SPLINETYPE
 70
     6
  9
$SPLINESEGS
 70
     8
  9
$ATTDIA
 70
     0
  9
$ATTREQ
 70
     1
  9
$HANDLING
 70
     1
  9
$HANDSEED
  5
388FC
  9
$SURFTAB1
 70
     6
  9
$SURFTAB2
 70
     6
  9
$SURFTYPE
 70
     6
  9
$SURFU
 70
     6
  9
$SURFV
 70
     6
  9
$UCSNAME
  2

  9
$UCSORG
 10
0.0
 20
0.0
 30
0.0
  9
$UCSXDIR
 10
1.0
 20
0.0
 30
0.0
  9
$UCSYDIR
 10
0.0
 20
1.0
 30
0.0
  9
$PUCSNAME
  2

  9
$PUCSORG
 10
0.0
 20
0.0
 30
0.0
  9
$PUCSXDIR
 10
1.0
 20
0.0
 30
0.0
  9
$PUCSYDIR
 10
0.0
 20
1.0
 30
0.0
  9
$USERI1
 70
     0
  9
$USERI2
 70
     0
  9
$USERI3
 70
     0
  9
$USERI4
 70
     0
  9
$USERI5
 70
     0
  9
$USERR1
 40
0.0
  9
$USERR2
 40
0.0
  9
$USERR3
 40
0.0
  9
$USERR4
 40
0.0
  9
$USERR5
 40
0.0
  9
$WORLDVIEW
 70
     1
  9
$SHADEDGE
 70
     3
  9
$SHADEDIF
 70
    70
  9
$TILEMODE
 70
     1
  9
$MAXACTVP
 70
    16
  9
$PLIMCHECK
 70
     0
  9
$PEXTMIN
 10
1.0000000000000000E+020
 20
1.0000000000000000E+020
 30
1.0000000000000000E+020
  9
$PEXTMAX
 10
-1.0000000000000000E+020
 20
-1.0000000000000000E+020
 30
-1.0000000000000000E+020
  9
$PLIMMIN
 10
0.0
 20
0.0
  9
$PLIMMAX
 10
12.0
 20
9.0
  9
$UNITMODE
 70
     0
  9
$VISRETAIN
 70
     0
  9
$PLINEGEN
 70
     1
  9
$PSLTSCALE
 70
     0
  0
ENDSEC
  0
SECTION
  2
TABLES
  0
TABLE
  2
VPORT
 70
     1
  0
VPORT
  2
*ACTIVE
 70
     0
 10
0.0
 20
0.0
 11
1.0
 21
1.0
 12
468.39093942559271
 22
210.4327049019976
 13
0.0
 23
0.0
 14
5.0
 24
5.0
 15
10.0
 25
10.0
 16
0.0
 26
0.0
 36
1.0
 17
0.0
 27
0.0
 37
0.0
 40
430.6106038242105
 41
2.3805970149253728
 42
50.0
 43
0.0
 44
0.0
 50
0.0
 51
0.0
 71
     0
 72
   500
 73
     1
 74
     1
 75
     0
 76
     0
 77
     0
 78
     2
  0
ENDTAB
  0
TABLE
  2
LTYPE
 70
     4
  0
LTYPE
  2
CONTINUOUS
 70
     0
  3
実線
 72
    65
 73
     0
 40
0.0
  0
LTYPE
  2
CENTER
 70
     0
  3
____ _ ____ _ ____ _ ____ _ ____ _ ____ _ ____
 72
    65
 73
     4
 40
2.0
 49
1.25
 49
-0.25
 49
0.25
 49
-0.25
  0
LTYPE
  2
HIDDEN
 70
     0
  3
_ _ _ _ _ _ _ _ _ _ _ _ _ _ _ _ _ _ _ _ _ _ _
 72
    65
 73
     2
 40
0.375
 49
0.25
 49
-0.125
  0
LTYPE
  2
PHANTOM2
 70
     0
  3
___ _ _ ___ _ _ ___ _ _ ___ _ _
 72
    65
 73
     6
 40
1.25
 49
0.625
 49
-0.125
 49
0.125
 49
-0.125
 49
0.125
 49
-0.125
  0
ENDTAB
  0
TABLE
  2
LAYER
 70
     5
  0
LAYER
  2
0
 70
     0
 62
     7
  6
CONTINUOUS
  0
LAYER
  2
1
 70
     0
 62
     1
  6
CENTER
  0
LAYER
  2
2
 70
     0
 62
     2
  6
HIDDEN
  0
LAYER
  2
DEFPOINTS
 70
     0
 62
     7
  6
CONTINUOUS
  0
LAYER
  2
3
 70
     0
 62
     3
  6
CONTINUOUS
  0
ENDTAB
  0
TABLE
  2
STYLE
 70
     3
  0
STYLE
  2
STANDARD
 70
     0
 40
0.0
 41
1.0
 50
0.0
 71
     0
 42
5.0
  3
simplex.shx
  4
bigfont.shx
  0
STYLE
  2
07500
 70
     0
 40
0.0
 41
0.75
 50
0.0
 71
     0
 42
0.2
  3
simplex.shx
  4
bigfont.shx
  0
STYLE
  2
STANDARD1
 70
     0
 40
0.0
 41
1.0
 50
0.0
 71
     0
 42
3.0
  3
txt
  4

  0
ENDTAB
  0
TABLE
  2
VIEW
 70
     2
  0
VIEW
  2
ALL
 70
     0
 40
270.0
 10
220.99159663865549
 20
135.0
 41
0.0
 11
0.0
 21
0.0
 31
1.0
 12
0.0
 22
0.0
 32
0.0
 42
0.0
 43
0.0
 44
0.0
 50
0.0
 71
     0
  0
VIEW
  2
OLE1
 70
     0
 40
168.2487151179721
 10
2892.3009567448912
 20
702.51600084347126
 41
162.5749581879237
 11
0.0
 21
0.0
 31
1.0
 12
0.0
 22
0.0
 32
0.0
 42
50.0
 43
0.0
 44
0.0
 50
0.0
 71
     0
  0
ENDTAB
  0
TABLE
  2
UCS
 70
     0
  0
ENDTAB
  0
TABLE
  2
APPID
 70
    48
  0
APPID
  2
ACAD
 70
     0
  0
APPID
  2
DCO15
 70
     0
  0
APPID
  2
GENIUS_GENOREF_13
 70
     0
  0
APPID
  2
GENIUS_GENOENT_13
 70
     0
  0
APPID
  2
GENIUS_GENBH_13
 70
     0
  0
APPID
  2
GENIUS_GENOBJ_13
 70
     0
  0
APPID
  2
GENIUS_GENODEF_13
 70
     0
  0
APPID
  2
GENIUS_GENOLIS_13
 70
     0
  0
APPID
  2
GENIUS_GENOBJ-NBEHI-BHF_13
 70
     0
  0
APPID
  2
GENIUS_GENOBJ-NBEHI-BHB_13
 70
     0
  0
APPID
  2
GENIUS_GENOBJ-F-PART_13
 70
     0
  0
APPID
  2
GENIUS_GEFSTDP_13
 70
     0
  0
APPID
  2
GENIUS_GENOBJ-N-RSSYM_13
 70
     0
  0
APPID
  2
GENIUS_GENSYMENT_13
 70
     0
  0
APPID
  2
GENIUS_GENOBJ-N-TIT_13
 70
     0
  0
APPID
  2
GENIUS_GENTITLE_13
 70
     0
  0
APPID
  2
GENIUS_GENZVEED_13
 70
     0
  0
APPID
  2
GENIUS_GENOBJ-N-LEADER_13
 70
     0
  0
APPID
  2
GENIUS_GENOBJ-N-FIL_13
 70
     0
  0
APPID
  2
GENIUS_GENOBJ-N-SEC_13
 70
     0
  0
APPID
  2
GENIUS_GENOBJ-N-CRS_13
 70
     0
  0
APPID
  2
GENIUS_GENOBJ-N-ZOO_13
 70
     0
  0
APPID
  2
GENIUS_GENZOO_13
 70
     0
  0
APPID
  2
GENIUS_GENOBJ-F-TOL_13
 70
     0
  0
APPID
  2
GENIUS_GENFIL_13
 70
     0
  0
APPID
  2
GENIUS_GENOBJ-N-CHA_13
 70
     0
  0
APPID
  2
_CALL_MAC$
 70
     0
  0
APPID
  2
ASM_BASE
 70
     0
  0
APPID
  2
ASM_EXPLO_VER_2_00
 70
     0
  0
APPID
  2
ASM_CADM_VER_12_00
 70
     0
  0
APPID
  2
ASM_BASEFORO
 70
     0
  0
APPID
  2
ASM_BASETRAVI
 70
     0
  0
APPID
  2
ASM_BASETRAVI1
 70
     0
  0
APPID
  2
ASM_GRUPPI
 70
     0
  0
APPID
  2
ASM_CADM_ALBERO
 70
     0
  0
APPID
  2
ASM_GOLE
 70
     0
  0
APPID
  2
ACAD_MLEADERVER
 70
     0
  0
APPID
  2
ACAD_DSTYLE_DIMJAG
 70
     0
  0
APPID
  2
ACAD_DSTYLE_DIMTALN
 70
     0
  0
APPID
  2
ACAD_EXEMPT_FROM_CAD_STANDARDS
 70
     0
  0
APPID
  2
ACAD_DSTYLE_DIMRADIAL_EXTENSION
 70
     0
  0
APPID
  2
ACAD_PSEXT
 70
     0
  0
APPID
  2
ACAD_DSTYLE_DIMBREAK
 70
     0
  0
APPID
  2
ACAECLAYERSTANDARD
 70
     0
  0
APPID
  2
ACCMTRANSPARENCY
 70
     0
  0
APPID
  2
GRADIENTCOLOR1ACI
 70
     0
  0
APPID
  2
GRADIENTCOLOR2ACI
 70
     0
  0
APPID
  2
ACAD_NAV_VCDISPLAY
 70
     0
  0
ENDTAB
  0
TABLE
  2
DIMSTYLE
 70
     1
  0
DIMSTYLE
  2
STANDARD
 70
     0
  3

  4

  5

  6

  7

 40
1.0
 41
0.18
 42
0.0625
 43
0.38
 44
0.18
 45
0.0
 46
0.0
 47
0.0
 48
0.0
140
0.18
141
0.09
142
0.0
143
25.399999999999999
144
1.0
145
0.0
146
1.0
147
0.09
 71
     0
 72
     0
 73
     1
 74
     1
 75
     0
 76
     0
 77
     0
 78
     0
170
     0
171
     2
172
     0
173
     0
174
     0
175
     0
176
     0
177
     0
178
     0
  0
ENDTAB
  0
ENDSEC
  0
SECTION
  2
BLOCKS
  0
BLOCK
  8
0
  2
$MODEL_SPACE
 70
     0
 10
0.0
 20
0.0
 30
0.0
  3
$MODEL_SPACE
  1

  0
ENDBLK
  5
36
  8
0
  0
BLOCK
 67
     1
  8
0
  2
$PAPER_SPACE
 70
     0
 10
0.0
 20
0.0
 30
0.0
  3
$PAPER_SPACE
  1

  0
ENDBLK
  5
34
 67
     1
  8
0
  0
ENDSEC
  0
SECTION
  2
ENTITIES
  0
LINE
  5
37BA8
  8
2
 10
372.92507066524098
 20
252.67963626432899
 30
0.0
 11
372.92507066524098
 21
253.74368873142251
 31
0.0
  0
LINE
  5
37BAA
  8
2
 10
348.42507066524109
 20
253.74368873142251
 30
0.0
 11
348.42507066524109
 21
267.74368873142248
 31
0.0
  0
LINE
  5
37BAB
  8
2
 10
336.42507066524098
 20
267.74368873142248
 30
0.0
 11
336.42507066524098
 21
253.74368873142251
 31
0.0
  0
LINE
  5
37BAC
  8
2
 10
311.92507066524098
 20
253.74368873142251
 30
0.0
 11
372.92507066524098
 21
253.74368873142251
 31
0.0
  0
LINE
  5
37BB3
  8
0
 10
309.42507066524098
 20
255.94368873142321
 30
0.0
 11
309.42507066524098
 21
253.94368873142321
 31
0.0
  0
LINE
  5
37BB4
  8
0
 10
353.42507066524098
 20
264.44368873142321
 30
0.0
 11
353.42507066524098
 21
267.74368873142248
 31
0.0
  0
LINE
  5
37BB5
  8
0
 10
331.42507066524098
 20
267.74368873142248
 30
0.0
 11
331.42507066524098
 21
264.44368873142321
 31
0.0
  0
ARC
  5
37BB6
  8
0
 10
314.400070665241
 20
261.44368873142321
 30
0.0
 40
2.9999999999999849
 50
90.0
 51
180.0
  0
ARC
  5
37BB7
  8
0
 10
370.45007066524113
 20
261.44368873142321
 30
0.0
 40
2.999999999999992
 50
0.0
 51
90.0
  0
LINE
  5
37BB8
  8
0
 10
373.45007066524113
 20
260.94368873142321
 30
0.0
 11
373.45007066524113
 21
261.44368873142321
 31
0.0
  0
LINE
  5
37BB9
  8
0
 10
311.40007066524089
 20
261.44368873142321
 30
0.0
 11
311.40007066524089
 21
260.94368873142321
 31
0.0
  0
ARC
  5
37BBA
  8
0
 10
309.92507066524098
 20
256.94368873142321
 30
0.0
 40
4.0000000000000142
 50
90.0
 51
180.0
  0
ARC
  5
37BBB
  8
0
 10
374.92507066524098
 20
256.94368873142321
 30
0.0
 40
4.0000000000000284
 50
0.0
 51
90.0
  0
LINE
  5
37BBC
  8
0
 10
378.92507066524098
 20
255.94368873142321
 30
0.0
 11
378.92507066524098
 21
256.94368873142321
 31
0.0
  0
LINE
  5
37BBD
  8
0
 10
305.92507066524098
 20
256.94368873142321
 30
0.0
 11
305.92507066524098
 21
255.94368873142321
 31
0.0
  0
LINE
  5
37BBE
  8
0
 10
320.88441143670298
 20
253.94368873142321
 30
0.0
 11
302.92507066524109
 21
253.94368873142321
 31
0.0
  0
LINE
  5
37BBF
  8
0
 10
302.92507066524109
 20
253.94368873142321
 30
0.0
 11
302.92507066524109
 21
250.24368873142251
 31
0.0
  0
LINE
  5
37BC0
  8
0
 10
320.06399923462283
 20
183.6631120177999
 30
0.0
 11
375.42507066524098
 21
255.94368873142321
 31
0.0
  0
ARC
  5
37BC1
  8
0
 10
312.1250706652408
 20
189.74368873142251
 30
0.0
 40
9.9999999999999911
 50
270.0
 51
322.55080792177091
  0
LINE
  5
37BC2
  8
0
 10
302.72507066524122
 20
179.74368873142251
 30
0.0
 11
312.1250706652408
 21
179.74368873142251
 31
0.0
  0
ARC
  5
37BC3
  8
0
 10
302.72507066524122
 20
189.74368873142251
 30
0.0
 40
9.9999999999999982
 50
170.29660726674291
 51
270.0
  0
LINE
  5
37BC4
  8
0
 10
302.92507066524109
 20
250.24368873142251
 30
0.0
 11
292.86813576155151
 21
191.42916620217869
 31
0.0
  0
LINE
  5
37BC5
  8
0
 10
320.88441143670298
 20
253.94368873142321
 30
0.0
 11
320.88441143670298
 21
184.7342594066931
 31
0.0
  0
LINE
  5
37BC6
  8
0
 10
331.42507066524098
 20
267.74368873142248
 30
0.0
 11
353.42507066524098
 21
267.74368873142248
 31
0.0
  0
LINE
  5
37BC7
  8
0
 10
314.400070665241
 20
264.44368873142321
 30
0.0
 11
370.45007066524113
 21
264.44368873142321
 31
0.0
  0
LINE
  5
37BC9
  8
0
 10
309.92507066524098
 20
260.94368873142321
 30
0.0
 11
374.92507066524098
 21
260.94368873142321
 31
0.0
  0
LINE
  5
37BCB
  8
0
 10
305.92507066524098
 20
255.94368873142321
 30
0.0
 11
378.92507066524098
 21
255.94368873142321
 31
0.0
  0
LINE
  5
37BD1
  8
0
 10
303.81182023056272
 20
196.0020220647566
 30
0.0
 11
300.1985697958844
 21
189.74368873142251
 31
0.0
  0
LINE
  5
37BD2
  8
0
 10
300.1985697958844
 20
189.74368873142251
 30
0.0
 11
303.81182023056272
 21
183.4853553980893
 31
0.0
  0
LINE
  5
37BD3
  8
0
 10
303.81182023056272
 20
183.4853553980893
 30
0.0
 11
311.03832109991941
 21
183.4853553980893
 31
0.0
  0
LINE
  5
37BD4
  8
0
 10
314.65157153459768
 20
189.74368873142251
 30
0.0
 11
311.03832109991941
 21
196.0020220647566
 31
0.0
  0
LINE
  5
37BD5
  8
0
 10
311.03832109991941
 20
183.4853553980893
 30
0.0
 11
314.65157153459768
 21
189.74368873142251
 31
0.0
  0
LINE
  5
37BD6
  8
0
 10
311.03832109991941
 20
196.0020220647566
 30
0.0
 11
303.81182023056272
 21
196.0020220647566
 31
0.0
  0
CIRCLE
  5
37BD8
  8
0
 10
307.42507066524098
 20
189.74368873142251
 30
0.0
 40
6.2583333333333391
  0
LINE
  5
37BFE
  8
2
 10
525.64508738264146
 20
212.85819616578641
 30
0.0
 11
525.64508738264146
 21
253.74368873142251
 31
0.0
  0
LINE
  5
37BFF
  8
2
 10
464.64508738264158
 20
253.74368873142251
 30
0.0
 11
464.64508738264158
 21
212.85819616578641
 31
0.0
  0
LINE
  5
37C05
  8
2
 10
501.14508738264152
 20
253.74368873142251
 30
0.0
 11
501.14508738264152
 21
267.74368873142248
 31
0.0
  0
LINE
  5
37C06
  8
2
 10
489.14508738264152
 20
267.74368873142248
 30
0.0
 11
489.14508738264152
 21
253.74368873142251
 31
0.0
  0
LINE
  5
37C07
  8
2
 10
464.64508738264158
 20
253.74368873142251
 30
0.0
 11
525.64508738264146
 21
253.74368873142251
 31
0.0
  0
LINE
  5
37C12
  8
0
 10
528.14508738264158
 20
212.85819616578641
 30
0.0
 11
528.14508738264158
 21
255.94368873142321
 31
0.0
  0
LINE
  5
37C13
  8
0
 10
462.14508738264152
 20
255.94368873142321
 30
0.0
 11
462.14508738264152
 21
212.85819616578641
 31
0.0
  0
ARC
  5
37C16
  8
0
 10
467.12008738264137
 20
261.44368873142321
 30
0.0
 40
2.9999999999999849
 50
90.0
 51
180.0
  0
ARC
  5
37C17
  8
0
 10
523.17008738264155
 20
261.44368873142321
 30
0.0
 40
2.9999999999999849
 50
0.0
 51
90.0
  0
LINE
  5
37C18
  8
0
 10
526.17008738264155
 20
260.94368873142321
 30
0.0
 11
526.17008738264155
 21
261.44368873142321
 31
0.0
  0
LINE
  5
37C19
  8
0
 10
464.12008738264149
 20
261.44368873142321
 30
0.0
 11
464.12008738264149
 21
260.94368873142321
 31
0.0
  0
ARC
  5
37C1A
  8
0
 10
462.64508738264152
 20
256.94368873142321
 30
0.0
 40
4.0000000000000142
 50
90.0
 51
180.0
  0
ARC
  5
37C1B
  8
0
 10
527.64508738264158
 20
256.94368873142321
 30
0.0
 40
4.0000000000000142
 50
0.0
 51
90.0
  0
LINE
  5
37C1C
  8
0
 10
531.64508738264158
 20
255.94368873142321
 30
0.0
 11
531.64508738264158
 21
256.94368873142321
 31
0.0
  0
LINE
  5
37C1D
  8
0
 10
458.64508738264152
 20
256.94368873142321
 30
0.0
 11
458.64508738264152
 21
255.94368873142321
 31
0.0
  0
LINE
  5
37C1E
  8
0
 10
470.14508738264158
 20
179.74368873142251
 30
0.0
 11
470.14508738264158
 21
184.7342594066931
 31
0.0
  0
LINE
  5
37C1F
  8
0
 10
520.14508738264158
 20
184.7342594066931
 30
0.0
 11
520.14508738264158
 21
179.74368873142251
 31
0.0
  0
LINE
  5
37C22
  8
0
 10
470.14508738264158
 20
179.74368873142251
 30
0.0
 11
472.64508738264152
 21
179.74368873142251
 31
0.0
  0
LINE
  5
37C23
  8
0
 10
517.64508738264146
 20
179.74368873142251
 30
0.0
 11
520.14508738264158
 21
179.74368873142251
 31
0.0
  0
POLYLINE
  5
37C24
  8
0
 66
     1
 10
0.0
 20
0.0
 30
0.0
  0
VERTEX
  5
385EE
  8
0
 10
472.64508738264152
 20
185.97381459620919
 30
0.0
  0
VERTEX
  5
385EF
  8
0
 10
472.2259730131513
 20
186.58424208485849
 30
0.0
  0
VERTEX
  5
385F0
  8
0
 10
471.41705778957061
 20
187.83823908315571
 30
0.0
  0
VERTEX
  5
385F1
  8
0
 10
470.64836295075293
 20
189.1346463581539
 30
0.0
  0
VERTEX
  5
385F2
  8
0
 10
470.2795080819123
 20
189.7980698422916
 30
0.0
  0
VERTEX
  5
385F3
  8
0
 10
469.92119147898029
 20
190.47126642441791
 30
0.0
  0
VERTEX
  5
385F4
  8
0
 10
469.23677597202408
 20
191.8458336335043
 30
0.0
  0
VERTEX
  5
385F5
  8
0
 10
468.59627655381792
 20
193.25601801436181
 30
0.0
  0
VERTEX
  5
385F6
  8
0
 10
468.00077890798087
 20
194.69942922276999
 30
0.0
  0
VERTEX
  5
385F7
  8
0
 10
467.45129243752081
 20
196.1736205931129
 30
0.0
  0
VERTEX
  5
385F8
  8
0
 10
466.9487485538375
 20
197.676093285615
 30
0.0
  0
VERTEX
  5
385F9
  8
0
 10
466.71534943098231
 20
198.43714101455041
 30
0.0
  0
VERTEX
  5
385FA
  8
0
 10
466.49399909792692
 20
199.20430052202209
 30
0.0
  0
VERTEX
  5
385FB
  8
0
 10
466.08781489646111
 20
200.7556519025365
 30
0.0
  0
VERTEX
  5
385FC
  8
0
 10
465.73088445519312
 20
202.32751779669709
 30
0.0
  0
VERTEX
  5
385FD
  8
0
 10
465.42381279189789
 20
203.917233800752
 30
0.0
  0
VERTEX
  5
385FE
  8
0
 10
465.16712041083377
 20
205.52210525397919
 30
0.0
  0
VERTEX
  5
385FF
  8
0
 10
464.96124242045738
 20
207.1394118062926
 30
0.0
  0
VERTEX
  5
38600
  8
0
 10
464.87747125826297
 20
207.95187224477829
 30
0.0
  0
VERTEX
  5
38601
  8
0
 10
464.80652779588939
 20
208.76641202939479
 30
0.0
  0
VERTEX
  5
38602
  8
0
 10
464.70323878738088
 20
210.4003480636502
 30
0.0
  0
VERTEX
  5
38603
  8
0
 10
464.65155047578543
 20
212.03845029282641
 30
0.0
  0
VERTEX
  5
38604
  8
0
 10
464.64508738264158
 20
212.85819616578641
 30
0.0
  0
SEQEND
  5
38605
  8
0
  0
POLYLINE
  5
37C25
  8
0
 66
     1
 10
0.0
 20
0.0
 30
0.0
  0
VERTEX
  5
38606
  8
0
 10
464.64508738264158
 20
212.85819616578641
 30
0.0
  0
VERTEX
  5
38607
  8
0
 10
464.64831330886449
 20
213.43735511491829
 30
0.0
  0
VERTEX
  5
38608
  8
0
 10
464.67411662439463
 20
214.5951829868909
 30
0.0
  0
VERTEX
  5
38609
  8
0
 10
464.72570142327407
 20
215.75154119459879
 30
0.0
  0
VERTEX
  5
3860A
  8
0
 10
464.76114909084339
 20
216.3288633548564
 30
0.0
  0
VERTEX
  5
3860B
  8
0
 10
464.8030240596126
 20
216.90545134355401
 30
0.0
  0
VERTEX
  5
3860C
  8
0
 10
464.90601911074009
 20
218.05593711056829
 30
0.0
  0
VERTEX
  5
3860D
  8
0
 10
465.03459943256172
 20
219.2020250698242
 30
0.0
  0
VERTEX
  5
3860E
  8
0
 10
465.18865623328742
 20
220.3427455164865
 30
0.0
  0
VERTEX
  5
3860F
  8
0
 10
465.36805916548337
 20
221.47713328717421
 30
0.0
  0
VERTEX
  5
38610
  8
0
 10
465.57265643635901
 20
222.60422857658071
 30
0.0
  0
VERTEX
  5
38611
  8
0
 10
465.68434968082499
 20
223.16474326669871
 30
0.0
  0
VERTEX
  5
38612
  8
0
 10
465.80227493619623
 20
223.72307774956701
 30
0.0
  0
VERTEX
  5
38613
  8
0
 10
466.05672038482038
 20
224.8327341480308
 30
0.0
  0
VERTEX
  5
38614
  8
0
 10
466.33577749597953
 20
225.93225889187579
 30
0.0
  0
VERTEX
  5
38615
  8
0
 10
466.6392101594974
 20
227.0207216733989
 30
0.0
  0
VERTEX
  5
38616
  8
0
 10
466.96676164104753
 20
228.09720154441769
 30
0.0
  0
VERTEX
  5
38617
  8
0
 10
467.3181547993745
 20
229.16078769549131
 30
0.0
  0
VERTEX
  5
38618
  8
0
 10
467.50269987802358
 20
229.6874639602438
 30
0.0
  0
VERTEX
  5
38619
  8
0
 10
467.69309232078552
 20
230.2105802265514
 30
0.0
  0
VERTEX
  5
3861A
  8
0
 10
468.09125697070562
 20
231.24569090831031
 30
0.0
  0
VERTEX
  5
3861B
  8
0
 10
468.51231186208952
 20
232.26524393379071
 30
0.0
  0
VERTEX
  5
3861C
  8
0
 10
468.73131256721621
 20
232.7689162150582
 30
0.0
  0
VERTEX
  5
3861D
  8
0
 10
468.95590074046282
 20
233.26837665934539
 30
0.0
  0
VERTEX
  5
3861E
  8
0
 10
469.42164828534851
 20
234.2542403345405
 30
0.0
  0
VERTEX
  5
3861F
  8
0
 10
469.90916042782561
 20
235.22200082028121
 30
0.0
  0
VERTEX
  5
38620
  8
0
 10
470.16095003182721
 20
235.69883586787549
 30
0.0
  0
VERTEX
  5
38621
  8
0
 10
470.41802468395002
 20
236.17083929458019
 30
0.0
  0
VERTEX
  5
38622
  8
0
 10
470.94781050375877
 20
237.0999529453602
 30
0.0
  0
VERTEX
  5
38623
  8
0
 10
471.49806963555687
 20
238.00855564971519
 30
0.0
  0
VERTEX
  5
38624
  8
0
 10
472.0683365051832
 20
238.8958786390458
 30
0.0
  0
VERTEX
  5
38625
  8
0
 10
472.65812860993259
 20
239.7611711495156
 30
0.0
  0
VERTEX
  5
38626
  8
0
 10
473.26694692680297
 20
240.60370105727449
 30
0.0
  0
VERTEX
  5
38627
  8
0
 10
473.57833055645187
 20
241.01620649608051
 30
0.0
  0
VERTEX
  5
38628
  8
0
 10
473.89427633471672
 20
241.42275549790699
 30
0.0
  0
VERTEX
  5
38629
  8
0
 10
474.53958605036411
 20
242.21764146958409
 30
0.0
  0
VERTEX
  5
3862A
  8
0
 10
475.2023300773007
 20
242.9876864194166
 30
0.0
  0
VERTEX
  5
3862B
  8
0
 10
475.88194766791543
 20
243.73223881249851
 30
0.0
  0
VERTEX
  5
3862C
  8
0
 10
476.57786379787558
 20
244.45066868317281
 30
0.0
  0
VERTEX
  5
3862D
  8
0
 10
477.28948965265812
 20
245.14236816804441
 30
0.0
  0
VERTEX
  5
3862E
  8
0
 10
477.65100607393458
 20
245.47801022903971
 30
0.0
  0
VERTEX
  5
3862F
  8
0
 10
478.016223125745
 20
245.80675202029209
 30
0.0
  0
VERTEX
  5
38630
  8
0
 10
478.75744932806361
 20
246.4432581048477
 30
0.0
  0
VERTEX
  5
38631
  8
0
 10
479.51254110824578
 20
247.0513478740186
 30
0.0
  0
VERTEX
  5
38632
  8
0
 10
480.28085958326068
 20
247.6305068231504
 30
0.0
  0
VERTEX
  5
38633
  8
0
 10
481.0617546789731
 20
248.1802449259512
 30
0.0
  0
VERTEX
  5
38634
  8
0
 10
481.85456568017071
 20
248.7000970491035
 30
0.0
  0
VERTEX
  5
38635
  8
0
 10
482.25523039955033
 20
248.94867741810961
 30
0.0
  0
VERTEX
  5
38636
  8
0
 10
482.6586217895956
 20
249.18962334581099
 30
0.0
  0
VERTEX
  5
38637
  8
0
 10
483.47324269550609
 20
249.64840962795461
 30
0.0
  0
VERTEX
  5
38638
  8
0
 10
484.2977391472877
 20
250.07606771653539
 30
0.0
  0
VERTEX
  5
38639
  8
0
 10
485.13141353862778
 20
250.4722357701167
 30
0.0
  0
VERTEX
  5
3863A
  8
0
 10
485.9735604977613
 20
250.8365785909719
 30
0.0
  0
VERTEX
  5
3863B
  8
0
 10
486.8234674842837
 20
251.1687879087012
 30
0.0
  0
VERTEX
  5
3863C
  8
0
 10
487.25110650701481
 20
251.32275359699179
 30
0.0
  0
VERTEX
  5
3863D
  8
0
 10
487.68041539203472
 20
251.46858264105501
 30
0.0
  0
VERTEX
  5
3863E
  8
0
 10
488.54367915752931
 20
251.73570913175899
 30
0.0
  0
VERTEX
  5
3863F
  8
0
 10
489.41252837343779
 20
251.9699413651351
 30
0.0
  0
VERTEX
  5
38640
  8
0
 10
490.28622790658198
 20
252.17108115732751
 30
0.0
  0
VERTEX
  5
38641
  8
0
 10
491.16403851992982
 20
252.33895832399139
 30
0.0
  0
VERTEX
  5
38642
  8
0
 10
492.04521749806599
 20
252.47343082428409
 30
0.0
  0
VERTEX
  5
38643
  8
0
 10
492.48683722883783
 20
252.5281036623328
 30
0.0
  0
VERTEX
  5
38644
  8
0
 10
492.929019275602
 20
252.57438488104529
 30
0.0
  0
VERTEX
  5
38645
  8
0
 10
493.81469606799868
 20
252.64173507706431
 30
0.0
  0
VERTEX
  5
38646
  8
0
 10
494.70149850426827
 20
252.67542442735069
 30
0.0
  0
VERTEX
  5
38647
  8
0
 10
495.14508738264158
 20
252.67963626432899
 30
0.0
  0
VERTEX
  5
38648
  8
0
 10
495.58867626101471
 20
252.67542442735069
 30
0.0
  0
VERTEX
  5
38649
  8
0
 10
496.47547869728442
 20
252.64173507706431
 30
0.0
  0
VERTEX
  5
3864A
  8
0
 10
497.3611554896811
 20
252.57438488104529
 30
0.0
  0
VERTEX
  5
3864B
  8
0
 10
497.80333753644533
 20
252.5281036623328
 30
0.0
  0
VERTEX
  5
3864C
  8
0
 10
498.2449572672171
 20
252.47343082428409
 30
0.0
  0
VERTEX
  5
3864D
  8
0
 10
499.12613624535328
 20
252.33895832399139
 30
0.0
  0
VERTEX
  5
3864E
  8
0
 10
500.00394685870111
 20
252.17108115732751
 30
0.0
  0
VERTEX
  5
3864F
  8
0
 10
500.87764639184468
 20
251.9699413651351
 30
0.0
  0
VERTEX
  5
38650
  8
0
 10
501.74649560775379
 20
251.73570913175899
 30
0.0
  0
VERTEX
  5
38651
  8
0
 10
502.60975937324832
 20
251.46858264105501
 30
0.0
  0
VERTEX
  5
38652
  8
0
 10
503.03906825826829
 20
251.32275359699179
 30
0.0
  0
VERTEX
  5
38653
  8
0
 10
503.46670728099878
 20
251.1687879087012
 30
0.0
  0
VERTEX
  5
38654
  8
0
 10
504.31661426752169
 20
250.8365785909719
 30
0.0
  0
VERTEX
  5
38655
  8
0
 10
505.15876122665532
 20
250.4722357701167
 30
0.0
  0
VERTEX
  5
38656
  8
0
 10
505.9924356179954
 20
250.07606771653539
 30
0.0
  0
VERTEX
  5
38657
  8
0
 10
506.81693206977661
 20
249.64840962795461
 30
0.0
  0
VERTEX
  5
38658
  8
0
 10
507.6315529756875
 20
249.18962334581099
 30
0.0
  0
VERTEX
  5
38659
  8
0
 10
508.03494436573283
 20
248.94867741810961
 30
0.0
  0
VERTEX
  5
3865A
  8
0
 10
508.43560908511239
 20
248.7000970491035
 30
0.0
  0
VERTEX
  5
3865B
  8
0
 10
509.22842008631
 20
248.1802449259512
 30
0.0
  0
VERTEX
  5
3865C
  8
0
 10
510.00931518202242
 20
247.6305068231504
 30
0.0
  0
VERTEX
  5
3865D
  8
0
 10
510.77763365703731
 20
247.0513478740186
 30
0.0
  0
VERTEX
  5
3865E
  8
0
 10
511.53272543721948
 20
246.4432581048477
 30
0.0
  0
VERTEX
  5
3865F
  8
0
 10
512.27395163953815
 20
245.80675202029209
 30
0.0
  0
VERTEX
  5
38660
  8
0
 10
512.63916869134846
 20
245.47801022903971
 30
0.0
  0
VERTEX
  5
38661
  8
0
 10
513.00068511262452
 20
245.14236816804441
 30
0.0
  0
VERTEX
  5
38662
  8
0
 10
513.71231096740746
 20
244.45066868317281
 30
0.0
  0
VERTEX
  5
38663
  8
0
 10
514.40822709736756
 20
243.73223881249851
 30
0.0
  0
VERTEX
  5
38664
  8
0
 10
515.08784468798194
 20
242.9876864194166
 30
0.0
  0
VERTEX
  5
38665
  8
0
 10
515.7505887149191
 20
242.21764146958409
 30
0.0
  0
VERTEX
  5
38666
  8
0
 10
516.39589843056626
 20
241.42275549790699
 30
0.0
  0
VERTEX
  5
38667
  8
0
 10
516.71184420883117
 20
241.01620649608051
 30
0.0
  0
VERTEX
  5
38668
  8
0
 10
517.02322783847956
 20
240.60370105727449
 30
0.0
  0
VERTEX
  5
38669
  8
0
 10
517.63204615535051
 20
239.7611711495156
 30
0.0
  0
VERTEX
  5
3866A
  8
0
 10
518.22183826009984
 20
238.8958786390458
 30
0.0
  0
VERTEX
  5
3866B
  8
0
 10
518.79210512972622
 20
238.00855564971519
 30
0.0
  0
VERTEX
  5
3866C
  8
0
 10
519.34236426152427
 20
237.0999529453602
 30
0.0
  0
VERTEX
  5
3866D
  8
0
 10
519.87215008133307
 20
236.17083929458019
 30
0.0
  0
VERTEX
  5
3866E
  8
0
 10
520.12922473345577
 20
235.69883586787549
 30
0.0
  0
VERTEX
  5
3866F
  8
0
 10
520.3810143374576
 20
235.22200082028121
 30
0.0
  0
VERTEX
  5
38670
  8
0
 10
520.86852647993464
 20
234.2542403345405
 30
0.0
  0
VERTEX
  5
38671
  8
0
 10
521.33427402482027
 20
233.26837665934539
 30
0.0
  0
VERTEX
  5
38672
  8
0
 10
521.55886219806689
 20
232.7689162150582
 30
0.0
  0
VERTEX
  5
38673
  8
0
 10
521.77786290319364
 20
232.26524393379071
 30
0.0
  0
VERTEX
  5
38674
  8
0
 10
522.19891779457748
 20
231.24569090831031
 30
0.0
  0
VERTEX
  5
38675
  8
0
 10
522.59708244449712
 20
230.2105802265514
 30
0.0
  0
VERTEX
  5
38676
  8
0
 10
522.78747488725912
 20
229.6874639602438
 30
0.0
  0
VERTEX
  5
38677
  8
0
 10
522.97201996590854
 20
229.16078769549131
 30
0.0
  0
VERTEX
  5
38678
  8
0
 10
523.32341312423557
 20
228.09720154441769
 30
0.0
  0
VERTEX
  5
38679
  8
0
 10
523.65096460578559
 20
227.0207216733989
 30
0.0
  0
VERTEX
  5
3867A
  8
0
 10
523.95439726930363
 20
225.93225889187579
 30
0.0
  0
VERTEX
  5
3867B
  8
0
 10
524.23345438046226
 20
224.8327341480308
 30
0.0
  0
VERTEX
  5
3867C
  8
0
 10
524.48789982908693
 20
223.72307774956701
 30
0.0
  0
VERTEX
  5
3867D
  8
0
 10
524.60582508445805
 20
223.16474326669871
 30
0.0
  0
VERTEX
  5
3867E
  8
0
 10
524.71751832892414
 20
222.60422857658071
 30
0.0
  0
VERTEX
  5
3867F
  8
0
 10
524.92211559979933
 20
221.47713328717421
 30
0.0
  0
VERTEX
  5
38680
  8
0
 10
525.10151853199557
 20
220.3427455164865
 30
0.0
  0
VERTEX
  5
38681
  8
0
 10
525.25557533272138
 20
219.2020250698242
 30
0.0
  0
VERTEX
  5
38682
  8
0
 10
525.38415565454261
 20
218.05593711056829
 30
0.0
  0
VERTEX
  5
38683
  8
0
 10
525.48715070567039
 20
216.90545134355401
 30
0.0
  0
VERTEX
  5
38684
  8
0
 10
525.52902567443959
 20
216.3288633548564
 30
0.0
  0
VERTEX
  5
38685
  8
0
 10
525.56447334200902
 20
215.75154119459879
 30
0.0
  0
VERTEX
  5
38686
  8
0
 10
525.61605814088796
 20
214.5951829868909
 30
0.0
  0
VERTEX
  5
38687
  8
0
 10
525.64186145641816
 20
213.43735511491829
 30
0.0
  0
VERTEX
  5
38688
  8
0
 10
525.64508738264146
 20
212.85819616578641
 30
0.0
  0
SEQEND
  5
38689
  8
0
  0
POLYLINE
  5
37C26
  8
0
 66
     1
 10
0.0
 20
0.0
 30
0.0
  0
VERTEX
  5
3868A
  8
0
 10
525.64508738264146
 20
212.85819616578641
 30
0.0
  0
VERTEX
  5
3868B
  8
0
 10
525.63862428949767
 20
212.03845029282641
 30
0.0
  0
VERTEX
  5
3868C
  8
0
 10
525.58693597790204
 20
210.4003480636502
 30
0.0
  0
VERTEX
  5
3868D
  8
0
 10
525.4836469693937
 20
208.76641202939479
 30
0.0
  0
VERTEX
  5
3868E
  8
0
 10
525.41270350701961
 20
207.95187224477829
 30
0.0
  0
VERTEX
  5
3868F
  8
0
 10
525.32893234482572
 20
207.1394118062926
 30
0.0
  0
VERTEX
  5
38690
  8
0
 10
525.12305435444932
 20
205.52210525397919
 30
0.0
  0
VERTEX
  5
38691
  8
0
 10
524.86636197338521
 20
203.917233800752
 30
0.0
  0
VERTEX
  5
38692
  8
0
 10
524.55929031008964
 20
202.32751779669709
 30
0.0
  0
VERTEX
  5
38693
  8
0
 10
524.20235986882153
 20
200.7556519025365
 30
0.0
  0
VERTEX
  5
38694
  8
0
 10
523.79617566735624
 20
199.20430052202209
 30
0.0
  0
VERTEX
  5
38695
  8
0
 10
523.57482533430027
 20
198.43714101455041
 30
0.0
  0
VERTEX
  5
38696
  8
0
 10
523.34142621144565
 20
197.676093285615
 30
0.0
  0
VERTEX
  5
38697
  8
0
 10
522.83888232776235
 20
196.1736205931129
 30
0.0
  0
VERTEX
  5
38698
  8
0
 10
522.28939585730222
 20
194.69942922276999
 30
0.0
  0
VERTEX
  5
38699
  8
0
 10
521.69389821146478
 20
193.25601801436181
 30
0.0
  0
VERTEX
  5
3869A
  8
0
 10
521.05339879325902
 20
191.8458336335043
 30
0.0
  0
VERTEX
  5
3869B
  8
0
 10
520.36898328630275
 20
190.47126642441791
 30
0.0
  0
VERTEX
  5
3869C
  8
0
 10
520.0106666833708
 20
189.7980698422916
 30
0.0
  0
VERTEX
  5
3869D
  8
0
 10
519.64181181453012
 20
189.1346463581539
 30
0.0
  0
VERTEX
  5
3869E
  8
0
 10
518.87311697571204
 20
187.83823908315571
 30
0.0
  0
VERTEX
  5
3869F
  8
0
 10
518.06420175213179
 20
186.58424208485849
 30
0.0
  0
VERTEX
  5
386A0
  8
0
 10
517.64508738264146
 20
185.97381459620919
 30
0.0
  0
SEQEND
  5
386A1
  8
0
  0
LINE
  5
37C27
  8
0
 10
472.64508738264152
 20
179.74368873142251
 30
0.0
 11
472.64508738264152
 21
239.7424920819322
 31
0.0
  0
LINE
  5
37C28
  8
0
 10
517.64508738264146
 20
239.7424920819312
 30
0.0
 11
517.64508738264146
 21
179.74368873142251
 31
0.0
  0
LINE
  5
37C29
  8
0
 10
484.63616603943768
 20
250.24368873142251
 30
0.0
 11
505.6540087258453
 21
250.24368873142251
 31
0.0
  0
POLYLINE
  5
37C2A
  8
0
 66
     1
 10
0.0
 20
0.0
 30
0.0
  0
VERTEX
  5
386A2
  8
0
 10
495.14508738264158
 20
255.94368873142321
 30
0.0
  0
VERTEX
  5
386A3
  8
0
 10
495.38506803954942
 20
255.9425494489806
 30
0.0
  0
VERTEX
  5
386A4
  8
0
 10
495.86497858878192
 20
255.93343555094361
 30
0.0
  0
VERTEX
  5
386A5
  8
0
 10
496.3447368550037
 20
255.9152096827884
 30
0.0
  0
VERTEX
  5
386A6
  8
0
 10
496.58452716569758
 20
255.90268088946411
 30
0.0
  0
VERTEX
  5
386A7
  8
0
 10
496.82424135199921
 20
255.88787569994381
 30
0.0
  0
VERTEX
  5
386A8
  8
0
 10
497.30339064723643
 20
255.85143938453709
 30
0.0
  0
VERTEX
  5
386A9
  8
0
 10
497.78208338331928
 20
255.80590844416469
 30
0.0
  0
VERTEX
  5
386AA
  8
0
 10
498.26021829943141
 20
255.7512925102674
 30
0.0
  0
VERTEX
  5
386AB
  8
0
 10
498.73769425275623
 20
255.687603136088
 30
0.0
  0
VERTEX
  5
386AC
  8
0
 10
499.21441023987057
 20
255.61485379423181
 30
0.0
  0
VERTEX
  5
386AD
  8
0
 10
499.4524517259033
 20
255.5750863697458
 30
0.0
  0
VERTEX
  5
386AE
  8
0
 10
499.69026541811121
 20
255.53305987381461
 30
0.0
  0
VERTEX
  5
386AF
  8
0
 10
500.16515912690869
 20
255.44223867720669
 30
0.0
  0
VERTEX
  5
386B0
  8
0
 10
500.63899090907762
 20
255.34240941637381
 30
0.0
  0
VERTEX
  5
386B1
  8
0
 10
501.11166053206938
 20
255.23359320881261
 30
0.0
  0
VERTEX
  5
386B2
  8
0
 10
501.58306800917393
 20
255.11581307308549
 30
0.0
  0
VERTEX
  5
386B3
  8
0
 10
502.05311362066948
 20
254.98909392394759
 30
0.0
  0
VERTEX
  5
386B4
  8
0
 10
502.28759464259878
 20
254.9223905224126
 30
0.0
  0
VERTEX
  5
386B5
  8
0
 10
502.5216979349197
 20
254.85346256707911
 30
0.0
  0
VERTEX
  5
386B6
  8
0
 10
502.98872182940522
 20
254.70894769341609
 30
0.0
  0
VERTEX
  5
386B7
  8
0
 10
503.45408651169049
 20
254.5555798730756
 30
0.0
  0
VERTEX
  5
386B8
  8
0
 10
503.68611587102481
 20
254.47558617332021
 30
0.0
  0
VERTEX
  5
386B9
  8
0
 10
503.91769354032471
 20
254.39339154889689
 30
0.0
  0
VERTEX
  5
386BA
  8
0
 10
504.37944484566418
 20
254.2224170295722
 30
0.0
  0
VERTEX
  5
386BB
  8
0
 10
504.83924275061679
 20
254.04269248239231
 30
0.0
  0
VERTEX
  5
386BC
  8
0
 10
505.06837876628242
 20
253.9495607569707
 30
0.0
  0
VERTEX
  5
386BD
  8
0
 10
505.29698999130642
 20
253.85425592559571
 30
0.0
  0
VERTEX
  5
386BE
  8
0
 10
505.75258973764579
 20
253.65714722032499
 30
0.0
  0
VERTEX
  5
386BF
  8
0
 10
506.2059456138204
 20
253.45140806219661
 30
0.0
  0
VERTEX
  5
386C0
  8
0
 10
506.65696171867597
 20
253.23708197247831
 30
0.0
  0
VERTEX
  5
386C1
  8
0
 10
507.10554264600393
 20
253.01421428888531
 30
0.0
  0
VERTEX
  5
386C2
  8
0
 10
507.55159350472331
 20
252.78285215598859
 30
0.0
  0
VERTEX
  5
386C3
  8
0
 10
507.77364065068969
 20
252.6640008953454
 30
0.0
  0
VERTEX
  5
386C4
  8
0
 10
507.9950199389545
 20
252.54304451524149
 30
0.0
  0
VERTEX
  5
386C5
  8
0
 10
508.43572814797972
 20
252.29484209462959
 30
0.0
  0
VERTEX
  5
386C6
  8
0
 10
508.87362490608263
 20
252.038297397934
 30
0.0
  0
VERTEX
  5
386C7
  8
0
 10
509.3086175822699
 20
251.77346469363329
 30
0.0
  0
VERTEX
  5
386C8
  8
0
 10
509.74061415986853
 20
251.50040000341511
 30
0.0
  0
VERTEX
  5
386C9
  8
0
 10
510.1695232559868
 20
251.21916109033279
 30
0.0
  0
VERTEX
  5
386CA
  8
0
 10
510.38279161939772
 20
251.07549482432569
 30
0.0
  0
VERTEX
  5
386CB
  8
0
 10
510.59525414084783
 20
250.92980744658229
 30
0.0
  0
VERTEX
  5
386CC
  8
0
 10
511.01771675698137
 20
250.63240028091701
 30
0.0
  0
VERTEX
  5
386CD
  8
0
 10
511.43682173827341
 20
250.3270025057036
 30
0.0
  0
VERTEX
  5
386CE
  8
0
 10
511.85248042887179
 20
250.01367872360879
 30
0.0
  0
VERTEX
  5
386CF
  8
0
 10
512.26460490193858
 20
249.69249521393979
 30
0.0
  0
VERTEX
  5
386D0
  8
0
 10
512.67310797825212
 20
249.36351991861741
 30
0.0
  0
VERTEX
  5
386D1
  8
0
 10
512.87597445808649
 20
249.19613203427889
 30
0.0
  0
VERTEX
  5
386D2
  8
0
 10
513.07790324464531
 20
249.0268224278079
 30
0.0
  0
VERTEX
  5
386D3
  8
0
 10
513.4789050722884
 20
248.68247396520019
 30
0.0
  0
VERTEX
  5
386D4
  8
0
 10
513.8760286347997
 20
248.33054737294151
 30
0.0
  0
VERTEX
  5
386D5
  8
0
 10
514.26918992619164
 20
247.97111709622641
 30
0.0
  0
VERTEX
  5
386D6
  8
0
 10
514.65830577863971
 20
247.60425916755051
 30
0.0
  0
VERTEX
  5
386D7
  8
0
 10
515.04329388007682
 20
247.230051190626
 30
0.0
  0
VERTEX
  5
386D8
  8
0
 10
515.23421453992933
 20
247.0402156108276
 30
0.0
  0
VERTEX
  5
386D9
  8
0
 10
515.42407279160307
 20
246.84857232396641
 30
0.0
  0
VERTEX
  5
386DA
  8
0
 10
515.80056196471548
 20
246.45990326414
 30
0.0
  0
VERTEX
  5
386DB
  8
0
 10
516.17268175834568
 20
246.06412622870269
 30
0.0
  0
VERTEX
  5
386DC
  8
0
 10
516.54035345570628
 20
245.6613249388019
 30
0.0
  0
VERTEX
  5
386DD
  8
0
 10
516.90349928094383
 20
245.25158460147119
 30
0.0
  0
VERTEX
  5
386DE
  8
0
 10
517.2620424155898
 20
244.8349918916019
 30
0.0
  0
VERTEX
  5
386DF
  8
0
 10
517.43956423395821
 20
244.6241533797311
 30
0.0
  0
VERTEX
  5
386E0
  8
0
 10
517.61590701481191
 20
244.41163493361091
 30
0.0
  0
VERTEX
  5
386E1
  8
0
 10
517.96501822345635
 20
243.9816032827957
 30
0.0
  0
VERTEX
  5
386E2
  8
0
 10
518.30930219188349
 20
243.54498790639539
 30
0.0
  0
VERTEX
  5
386E3
  8
0
 10
518.47961116179738
 20
243.32424012971029
 30
0.0
  0
VERTEX
  5
386E4
  8
0
 10
518.64868609159021
 20
243.10188116434441
 30
0.0
  0
VERTEX
  5
386E5
  8
0
 10
518.9830981306136
 20
242.65237678973429
 30
0.0
  0
VERTEX
  5
386E6
  8
0
 10
519.31246756871985
 20
242.19656986898741
 30
0.0
  0
VERTEX
  5
386E7
  8
0
 10
519.4752394973757
 20
241.9663330334279
 30
0.0
  0
VERTEX
  5
386E8
  8
0
 10
519.63672473236818
 20
241.73455682174421
 30
0.0
  0
VERTEX
  5
386E9
  8
0
 10
519.95580102944757
 20
241.26643538046389
 30
0.0
  0
VERTEX
  5
386EA
  8
0
 10
520.26962896378791
 20
240.79230456975171
 30
0.0
  0
VERTEX
  5
386EB
  8
0
 10
520.57814214943789
 20
240.31226468541081
 30
0.0
  0
VERTEX
  5
386EC
  8
0
 10
520.88127532470662
 20
239.82641727323059
 30
0.0
  0
VERTEX
  5
386ED
  8
0
 10
521.17896436597084
 20
239.33486510749751
 30
0.0
  0
VERTEX
  5
386EE
  8
0
 10
521.32574761225214
 20
239.08698218958759
 30
0.0
  0
VERTEX
  5
386EF
  8
0
 10
521.47114630123815
 20
238.8377121692638
 30
0.0
  0
VERTEX
  5
386F0
  8
0
 10
521.75775932346824
 20
238.33506362434491
 30
0.0
  0
VERTEX
  5
386F1
  8
0
 10
522.03874280364687
 20
237.8270258010771
 30
0.0
  0
VERTEX
  5
386F2
  8
0
 10
522.97700509446656
 20
236.00801444673289
 30
0.0
  0
VERTEX
  5
386F3
  8
0
 10
524.41644487752274
 20
232.75286260851769
 30
0.0
  0
VERTEX
  5
386F4
  8
0
 10
525.63311195551375
 20
229.3463003459446
 30
0.0
  0
VERTEX
  5
386F5
  8
0
 10
526.61774675733295
 20
225.8142536547721
 30
0.0
  0
VERTEX
  5
386F6
  8
0
 10
527.02063965018078
 20
224.00954220939639
 30
0.0
  0
VERTEX
  5
386F7
  8
0
 10
527.36285561759951
 20
222.18360354302609
 30
0.0
  0
VERTEX
  5
386F8
  8
0
 10
527.86276780797743
 20
218.4819814503044
 30
0.0
  0
VERTEX
  5
386F9
  8
0
 10
528.11367869484275
 20
214.73755895583329
 30
0.0
  0
VERTEX
  5
386FA
  8
0
 10
528.14508738264158
 20
212.85819616578641
 30
0.0
  0
SEQEND
  5
386FB
  8
0
  0
POLYLINE
  5
37C2B
  8
0
 66
     1
 10
0.0
 20
0.0
 30
0.0
  0
VERTEX
  5
386FC
  8
0
 10
528.14508738264158
 20
212.85819616578641
 30
0.0
  0
VERTEX
  5
386FD
  8
0
 10
528.13864784594034
 20
212.00706750773409
 30
0.0
  0
VERTEX
  5
386FE
  8
0
 10
528.08714663048829
 20
210.30613875877231
 30
0.0
  0
VERTEX
  5
386FF
  8
0
 10
527.98422459027825
 20
208.60919363741871
 30
0.0
  0
VERTEX
  5
38700
  8
0
 10
527.91352783649961
 20
207.76304305634591
 30
0.0
  0
VERTEX
  5
38701
  8
0
 10
527.83004238120918
 20
206.91888098590519
 30
0.0
  0
VERTEX
  5
38702
  8
0
 10
527.62484067361527
 20
205.2378392935243
 30
0.0
  0
VERTEX
  5
38703
  8
0
 10
527.3689397765861
 20
203.568692578091
 30
0.0
  0
VERTEX
  5
38704
  8
0
 10
527.06273913798566
 20
201.91404628998231
 30
0.0
  0
VERTEX
  5
38705
  8
0
 10
526.70671672093249
 20
200.2764832451731
 30
0.0
  0
VERTEX
  5
38706
  8
0
 10
526.30142825772555
 20
198.65855959358939
 30
0.0
  0
VERTEX
  5
38707
  8
0
 10
526.08050397915747
 20
197.85775306274169
 30
0.0
  0
VERTEX
  5
38708
  8
0
 10
525.84750638237483
 20
197.06280082909871
 30
0.0
  0
VERTEX
  5
38709
  8
0
 10
525.34565964309365
 20
195.4916978473411
 30
0.0
  0
VERTEX
  5
3870A
  8
0
 10
524.79667139629055
 20
193.94770305757629
 30
0.0
  0
VERTEX
  5
3870B
  8
0
 10
524.20139858379252
 20
192.43322655459721
 30
0.0
  0
VERTEX
  5
3870C
  8
0
 10
523.56077039520324
 20
190.95063235670381
 30
0.0
  0
VERTEX
  5
3870D
  8
0
 10
522.87578681748664
 20
189.50223471558999
 30
0.0
  0
VERTEX
  5
3870E
  8
0
 10
522.51699323037883
 20
188.7915683087449
 30
0.0
  0
VERTEX
  5
3870F
  8
0
 10
522.14751707404093
 20
188.09029450392151
 30
0.0
  0
VERTEX
  5
38710
  8
0
 10
521.37709795569469
 20
186.7170156862293
 30
0.0
  0
VERTEX
  5
38711
  8
0
 10
520.56573204623874
 20
185.38454187864039
 30
0.0
  0
VERTEX
  5
38712
  8
0
 10
520.14508738264158
 20
184.7342594066931
 30
0.0
  0
SEQEND
  5
38713
  8
0
  0
POLYLINE
  5
37C2C
  8
0
 66
     1
 10
0.0
 20
0.0
 30
0.0
  0
VERTEX
  5
38714
  8
0
 10
470.14508738264158
 20
184.7342594066931
 30
0.0
  0
VERTEX
  5
38715
  8
0
 10
469.72444271904442
 20
185.38454187864039
 30
0.0
  0
VERTEX
  5
38716
  8
0
 10
468.91307680958829
 20
186.7170156862293
 30
0.0
  0
VERTEX
  5
38717
  8
0
 10
468.14265769124211
 20
188.09029450392151
 30
0.0
  0
VERTEX
  5
38718
  8
0
 10
467.77318153490432
 20
188.7915683087449
 30
0.0
  0
VERTEX
  5
38719
  8
0
 10
467.414387947796
 20
189.50223471558999
 30
0.0
  0
VERTEX
  5
3871A
  8
0
 10
466.72940437007992
 20
190.95063235670381
 30
0.0
  0
VERTEX
  5
3871B
  8
0
 10
466.08877618149057
 20
192.43322655459721
 30
0.0
  0
VERTEX
  5
3871C
  8
0
 10
465.49350336899261
 20
193.94770305757629
 30
0.0
  0
VERTEX
  5
3871D
  8
0
 10
464.94451512218927
 20
195.4916978473411
 30
0.0
  0
VERTEX
  5
3871E
  8
0
 10
464.44266838290781
 20
197.06280082909871
 30
0.0
  0
VERTEX
  5
3871F
  8
0
 10
464.20967078612551
 20
197.85775306274169
 30
0.0
  0
VERTEX
  5
38720
  8
0
 10
463.98874650755761
 20
198.65855959358939
 30
0.0
  0
VERTEX
  5
38721
  8
0
 10
463.58345804435061
 20
200.2764832451731
 30
0.0
  0
VERTEX
  5
38722
  8
0
 10
463.22743562729733
 20
201.91404628998231
 30
0.0
  0
VERTEX
  5
38723
  8
0
 10
462.92123498869699
 20
203.568692578091
 30
0.0
  0
VERTEX
  5
38724
  8
0
 10
462.66533409166777
 20
205.2378392935243
 30
0.0
  0
VERTEX
  5
38725
  8
0
 10
462.46013238407329
 20
206.91888098590519
 30
0.0
  0
VERTEX
  5
38726
  8
0
 10
462.37664692878337
 20
207.76304305634591
 30
0.0
  0
VERTEX
  5
38727
  8
0
 10
462.30595017500491
 20
208.60919363741871
 30
0.0
  0
VERTEX
  5
38728
  8
0
 10
462.20302813479469
 20
210.30613875877231
 30
0.0
  0
VERTEX
  5
38729
  8
0
 10
462.15152691934281
 20
212.00706750773409
 30
0.0
  0
VERTEX
  5
3872A
  8
0
 10
462.14508738264152
 20
212.85819616578641
 30
0.0
  0
SEQEND
  5
3872B
  8
0
  0
POLYLINE
  5
37C2D
  8
0
 66
     1
 10
0.0
 20
0.0
 30
0.0
  0
VERTEX
  5
3872C
  8
0
 10
462.14508738264152
 20
212.85819616578641
 30
0.0
  0
VERTEX
  5
3872D
  8
0
 10
462.17649607044029
 20
214.73755895583329
 30
0.0
  0
VERTEX
  5
3872E
  8
0
 10
462.42740695730572
 20
218.4819814503044
 30
0.0
  0
VERTEX
  5
3872F
  8
0
 10
462.92731914768359
 20
222.18360354302609
 30
0.0
  0
VERTEX
  5
38730
  8
0
 10
463.26953511510231
 20
224.00954220939639
 30
0.0
  0
VERTEX
  5
38731
  8
0
 10
463.67242800795009
 20
225.8142536547721
 30
0.0
  0
VERTEX
  5
38732
  8
0
 10
464.65706280976877
 20
229.3463003459446
 30
0.0
  0
VERTEX
  5
38733
  8
0
 10
465.87372988776031
 20
232.75286260851769
 30
0.0
  0
VERTEX
  5
38734
  8
0
 10
467.31316967081642
 20
236.00801444673289
 30
0.0
  0
VERTEX
  5
38735
  8
0
 10
468.9644271530305
 20
239.08698218958759
 30
0.0
  0
VERTEX
  5
38736
  8
0
 10
470.02054580149479
 20
240.79230456975171
 30
0.0
  0
VERTEX
  5
38737
  8
0
 10
470.33437373583553
 20
241.26643538046389
 30
0.0
  0
VERTEX
  5
38738
  8
0
 10
470.6534500329148
 20
241.73455682174421
 30
0.0
  0
VERTEX
  5
38739
  8
0
 10
470.8149352679074
 20
241.9663330334279
 30
0.0
  0
VERTEX
  5
3873A
  8
0
 10
470.97770719656307
 20
242.19656986898741
 30
0.0
  0
VERTEX
  5
3873B
  8
0
 10
471.3070766346695
 20
242.65237678973429
 30
0.0
  0
VERTEX
  5
3873C
  8
0
 10
471.64148867369289
 20
243.10188116434441
 30
0.0
  0
VERTEX
  5
3873D
  8
0
 10
471.81056360348509
 20
243.32424012971029
 30
0.0
  0
VERTEX
  5
3873E
  8
0
 10
471.98087257339921
 20
243.54498790639539
 30
0.0
  0
VERTEX
  5
3873F
  8
0
 10
472.3251565418268
 20
243.9816032827957
 30
0.0
  0
VERTEX
  5
38740
  8
0
 10
472.67426775047079
 20
244.41163493361091
 30
0.0
  0
VERTEX
  5
38741
  8
0
 10
472.85061053132438
 20
244.6241533797311
 30
0.0
  0
VERTEX
  5
38742
  8
0
 10
473.0281323496929
 20
244.8349918916019
 30
0.0
  0
VERTEX
  5
38743
  8
0
 10
473.38667548433932
 20
245.25158460147119
 30
0.0
  0
VERTEX
  5
38744
  8
0
 10
473.74982130957687
 20
245.6613249388019
 30
0.0
  0
VERTEX
  5
38745
  8
0
 10
474.11749300693731
 20
246.06412622870269
 30
0.0
  0
VERTEX
  5
38746
  8
0
 10
474.48961280056761
 20
246.45990326414
 30
0.0
  0
VERTEX
  5
38747
  8
0
 10
474.86610197367997
 20
246.84857232396641
 30
0.0
  0
VERTEX
  5
38748
  8
0
 10
475.05596022535377
 20
247.0402156108276
 30
0.0
  0
VERTEX
  5
38749
  8
0
 10
475.24688088520628
 20
247.230051190626
 30
0.0
  0
VERTEX
  5
3874A
  8
0
 10
475.63186898664338
 20
247.60425916755051
 30
0.0
  0
VERTEX
  5
3874B
  8
0
 10
476.02098483909128
 20
247.97111709622641
 30
0.0
  0
VERTEX
  5
3874C
  8
0
 10
476.4141461304834
 20
248.33054737294151
 30
0.0
  0
VERTEX
  5
3874D
  8
0
 10
476.8112696929947
 20
248.68247396520019
 30
0.0
  0
VERTEX
  5
3874E
  8
0
 10
477.21227152063727
 20
249.0268224278079
 30
0.0
  0
VERTEX
  5
3874F
  8
0
 10
477.4142003071965
 20
249.19613203427889
 30
0.0
  0
VERTEX
  5
38750
  8
0
 10
477.61706678703098
 20
249.36351991861741
 30
0.0
  0
VERTEX
  5
38751
  8
0
 10
478.02556986334412
 20
249.69249521393979
 30
0.0
  0
VERTEX
  5
38752
  8
0
 10
478.43769433641131
 20
250.01367872360879
 30
0.0
  0
VERTEX
  5
38753
  8
0
 10
478.85335302700969
 20
250.3270025057036
 30
0.0
  0
VERTEX
  5
38754
  8
0
 10
479.27245800830173
 20
250.63240028091701
 30
0.0
  0
VERTEX
  5
38755
  8
0
 10
479.69492062443481
 20
250.92980744658229
 30
0.0
  0
VERTEX
  5
38756
  8
0
 10
479.90738314588538
 20
251.07549482432569
 30
0.0
  0
VERTEX
  5
38757
  8
0
 10
480.12065150929629
 20
251.21916109033279
 30
0.0
  0
VERTEX
  5
38758
  8
0
 10
480.54956060541463
 20
251.50040000341511
 30
0.0
  0
VERTEX
  5
38759
  8
0
 10
480.98155718301308
 20
251.77346469363329
 30
0.0
  0
VERTEX
  5
3875A
  8
0
 10
481.41654985920047
 20
252.038297397934
 30
0.0
  0
VERTEX
  5
3875B
  8
0
 10
481.85444661730338
 20
252.29484209462959
 30
0.0
  0
VERTEX
  5
3875C
  8
0
 10
482.29515482632809
 20
252.54304451524149
 30
0.0
  0
VERTEX
  5
3875D
  8
0
 10
482.51653411459341
 20
252.6640008953454
 30
0.0
  0
VERTEX
  5
3875E
  8
0
 10
482.73858126055978
 20
252.78285215598859
 30
0.0
  0
VERTEX
  5
3875F
  8
0
 10
483.18463211927917
 20
253.01421428888531
 30
0.0
  0
VERTEX
  5
38760
  8
0
 10
483.63321304660712
 20
253.23708197247831
 30
0.0
  0
VERTEX
  5
38761
  8
0
 10
484.0842291514623
 20
253.45140806219661
 30
0.0
  0
VERTEX
  5
38762
  8
0
 10
484.53758502763731
 20
253.65714722032499
 30
0.0
  0
VERTEX
  5
38763
  8
0
 10
484.99318477397622
 20
253.85425592559571
 30
0.0
  0
VERTEX
  5
38764
  8
0
 10
485.22179599900022
 20
253.9495607569707
 30
0.0
  0
VERTEX
  5
38765
  8
0
 10
485.45093201466619
 20
254.04269248239231
 30
0.0
  0
VERTEX
  5
38766
  8
0
 10
485.91072991961892
 20
254.2224170295722
 30
0.0
  0
VERTEX
  5
38767
  8
0
 10
486.37248122495788
 20
254.39339154889689
 30
0.0
  0
VERTEX
  5
38768
  8
0
 10
486.60405889425817
 20
254.47558617332021
 30
0.0
  0
VERTEX
  5
38769
  8
0
 10
486.83608825359261
 20
254.5555798730756
 30
0.0
  0
VERTEX
  5
3876A
  8
0
 10
487.30145293587788
 20
254.70894769341609
 30
0.0
  0
VERTEX
  5
3876B
  8
0
 10
487.76847683036289
 20
254.85346256707911
 30
0.0
  0
VERTEX
  5
3876C
  8
0
 10
488.00258012268421
 20
254.9223905224126
 30
0.0
  0
VERTEX
  5
3876D
  8
0
 10
488.23706114461351
 20
254.98909392394759
 30
0.0
  0
VERTEX
  5
3876E
  8
0
 10
488.70710675610911
 20
255.11581307308549
 30
0.0
  0
VERTEX
  5
3876F
  8
0
 10
489.17851423321372
 20
255.23359320881261
 30
0.0
  0
VERTEX
  5
38770
  8
0
 10
489.65118385620508
 20
255.34240941637381
 30
0.0
  0
VERTEX
  5
38771
  8
0
 10
490.12501563837441
 20
255.44223867720669
 30
0.0
  0
VERTEX
  5
38772
  8
0
 10
490.59990934717177
 20
255.53305987381461
 30
0.0
  0
VERTEX
  5
38773
  8
0
 10
490.8377230393798
 20
255.5750863697458
 30
0.0
  0
VERTEX
  5
38774
  8
0
 10
491.07576452541252
 20
255.61485379423181
 30
0.0
  0
VERTEX
  5
38775
  8
0
 10
491.55248051252693
 20
255.687603136088
 30
0.0
  0
VERTEX
  5
38776
  8
0
 10
492.02995646585123
 20
255.7512925102674
 30
0.0
  0
VERTEX
  5
38777
  8
0
 10
492.50809138196382
 20
255.80590844416469
 30
0.0
  0
VERTEX
  5
38778
  8
0
 10
492.98678411804661
 20
255.85143938453709
 30
0.0
  0
VERTEX
  5
38779
  8
0
 10
493.46593341328378
 20
255.88787569994381
 30
0.0
  0
VERTEX
  5
3877A
  8
0
 10
493.70564759958552
 20
255.90268088946411
 30
0.0
  0
VERTEX
  5
3877B
  8
0
 10
493.9454379102794
 20
255.9152096827884
 30
0.0
  0
VERTEX
  5
3877C
  8
0
 10
494.42519617650117
 20
255.93343555094361
 30
0.0
  0
VERTEX
  5
3877D
  8
0
 10
494.90510672573367
 20
255.9425494489806
 30
0.0
  0
VERTEX
  5
3877E
  8
0
 10
495.14508738264158
 20
255.94368873142321
 30
0.0
  0
SEQEND
  5
3877F
  8
0
  0
LINE
  5
37C2F
  8
0
 10
467.12008738264137
 20
264.44368873142321
 30
0.0
 11
523.17008738264155
 21
264.44368873142321
 31
0.0
  0
LINE
  5
37C31
  8
0
 10
462.64508738264152
 20
260.94368873142321
 30
0.0
 11
527.64508738264158
 21
260.94368873142321
 31
0.0
  0
LINE
  5
37C33
  8
0
 10
458.64508738264152
 20
255.94368873142321
 30
0.0
 11
531.64508738264158
 21
255.94368873142321
 31
0.0
  0
LINE
  5
37C52
  8
0
 10
469.54508738264161
 20
183.9286887314228
 30
0.0
 11
470.14508738264158
 21
183.9286887314228
 31
0.0
  0
LINE
  5
37C53
  8
0
 10
529.37808738264175
 20
193.74368873142251
 30
0.0
 11
528.14508738264158
 21
193.74368873142251
 31
0.0
  0
LINE
  5
37C54
  8
0
 10
528.14508738264158
 20
185.74368873142251
 30
0.0
 11
529.37808738264175
 21
185.74368873142251
 31
0.0
  0
LINE
  5
37C55
  8
0
 10
530.14508738264146
 20
192.9766887314226
 30
0.0
 11
529.37808738264175
 21
193.74368873142251
 31
0.0
  0
LINE
  5
37C56
  8
0
 10
529.37808738264175
 20
185.74368873142251
 30
0.0
 11
530.14508738264146
 21
186.51068873142319
 31
0.0
  0
LINE
  5
37C57
  8
0
 10
517.64508738264146
 20
193.74368873142251
 30
0.0
 11
515.14508738264158
 21
193.74368873142251
 31
0.0
  0
LINE
  5
37C58
  8
0
 10
515.14508738264158
 20
185.74368873142251
 30
0.0
 11
517.64508738264146
 21
185.74368873142251
 31
0.0
  0
LINE
  5
37C59
  8
0
 10
528.14508738264158
 20
195.55868873142299
 30
0.0
 11
525.64508738264146
 21
195.55868873142299
 31
0.0
  0
LINE
  5
37C5A
  8
0
 10
525.64508738264146
 20
183.9286887314228
 30
0.0
 11
528.14508738264158
 21
183.9286887314228
 31
0.0
  0
LINE
  5
37C5B
  8
0
 10
475.14508738264152
 20
193.74368873142251
 30
0.0
 11
472.64508738264152
 21
193.74368873142251
 31
0.0
  0
LINE
  5
37C5C
  8
0
 10
472.64508738264152
 20
185.74368873142251
 30
0.0
 11
475.14508738264152
 21
185.74368873142251
 31
0.0
  0
LINE
  5
37C5D
  8
0
 10
515.14508738264158
 20
195.74368873142251
 30
0.0
 11
510.14508738264152
 21
195.74368873142251
 31
0.0
  0
LINE
  5
37C5E
  8
0
 10
480.14508738264152
 20
195.74368873142251
 30
0.0
 11
475.14508738264152
 21
195.74368873142251
 31
0.0
  0
LINE
  5
37C5F
  8
0
 10
475.14508738264152
 20
183.74368873142251
 30
0.0
 11
480.14508738264152
 21
183.74368873142251
 31
0.0
  0
LINE
  5
37C60
  8
0
 10
510.14508738264152
 20
183.74368873142251
 30
0.0
 11
515.14508738264158
 21
183.74368873142251
 31
0.0
  0
LINE
  5
37C61
  8
0
 10
529.37808738264175
 20
185.74368873142251
 30
0.0
 11
529.37808738264175
 21
193.74368873142251
 31
0.0
  0
LINE
  5
37C62
  8
0
 10
530.14508738264146
 20
186.51068873142319
 30
0.0
 11
530.14508738264146
 21
192.9766887314226
 31
0.0
  0
LINE
  5
37C63
  8
0
 10
464.8450873826414
 20
183.4853553980893
 30
0.0
 11
464.8450873826414
 21
195.79511602130509
 31
0.0
  0
LINE
  5
37C64
  8
0
 10
469.54508738264161
 20
183.4853553980893
 30
0.0
 11
469.54508738264161
 21
185.66938950181341
 31
0.0
  0
LINE
  5
37C65
  8
0
 10
464.8450873826414
 20
183.4853553980893
 30
0.0
 11
469.54508738264161
 21
183.4853553980893
 31
0.0
  0
POLYLINE
  5
37C66
  8
0
 66
     1
 10
0.0
 20
0.0
 30
0.0
  0
VERTEX
  5
38780
  8
0
 10
465.10450709205719
 20
189.74368873142251
 30
0.0
  0
VERTEX
  5
38781
  8
0
 10
465.02366243879891
 20
190.30586720953761
 30
0.0
  0
VERTEX
  5
38782
  8
0
 10
464.90905210004581
 20
191.36165710226209
 30
0.0
  0
VERTEX
  5
38783
  8
0
 10
464.85227751626138
 20
192.37041764617419
 30
0.0
  0
VERTEX
  5
38784
  8
0
 10
464.8450873826414
 20
192.87285539809
 30
0.0
  0
SEQEND
  5
38785
  8
0
  0
POLYLINE
  5
37C67
  8
0
 66
     1
 10
0.0
 20
0.0
 30
0.0
  0
VERTEX
  5
38786
  8
0
 10
464.8450873826414
 20
192.87285539809
 30
0.0
  0
VERTEX
  5
38787
  8
0
 10
464.8496050729309
 20
193.27096191022059
 30
0.0
  0
VERTEX
  5
38788
  8
0
 10
464.88526340978751
 20
194.0663433099262
 30
0.0
  0
VERTEX
  5
38789
  8
0
 10
464.95652149598249
 20
194.8812797388218
 30
0.0
  0
VERTEX
  5
3878A
  8
0
 10
465.00605933703901
 20
195.30396065331109
 30
0.0
  0
SEQEND
  5
3878B
  8
0
  0
POLYLINE
  5
37C68
  8
0
 66
     1
 10
0.0
 20
0.0
 30
0.0
  0
VERTEX
  5
3878C
  8
0
 10
469.52135554870711
 20
185.69947057914479
 30
0.0
  0
VERTEX
  5
3878D
  8
0
 10
469.49992816509621
 20
185.34825204901509
 30
0.0
  0
VERTEX
  5
3878E
  8
0
 10
469.4363246308439
 20
184.63108225353699
 30
0.0
  0
VERTEX
  5
3878F
  8
0
 10
469.34370349915253
 20
183.87973544806749
 30
0.0
  0
VERTEX
  5
38790
  8
0
 10
469.28566767322582
 20
183.4853553980893
 30
0.0
  0
SEQEND
  5
38791
  8
0
  0
POLYLINE
  5
37C69
  8
0
 66
     1
 10
0.0
 20
0.0
 30
0.0
  0
VERTEX
  5
38792
  8
0
 10
465.10450709205719
 20
183.4853553980893
 30
0.0
  0
VERTEX
  5
38793
  8
0
 10
465.02366243879891
 20
184.0475338762044
 30
0.0
  0
VERTEX
  5
38794
  8
0
 10
464.90905210004581
 20
185.10332376892799
 30
0.0
  0
VERTEX
  5
38795
  8
0
 10
464.85227751626138
 20
186.11208431284101
 30
0.0
  0
VERTEX
  5
38796
  8
0
 10
464.8450873826414
 20
186.6145220647559
 30
0.0
  0
SEQEND
  5
38797
  8
0
  0
POLYLINE
  5
37C6A
  8
0
 66
     1
 10
0.0
 20
0.0
 30
0.0
  0
VERTEX
  5
38798
  8
0
 10
464.8450873826414
 20
186.6145220647559
 30
0.0
  0
VERTEX
  5
38799
  8
0
 10
464.85227751626138
 20
187.1169598166716
 30
0.0
  0
VERTEX
  5
3879A
  8
0
 10
464.90905210004581
 20
188.1257203605837
 30
0.0
  0
VERTEX
  5
3879B
  8
0
 10
465.02366243879891
 20
189.1815102533082
 30
0.0
  0
VERTEX
  5
3879C
  8
0
 10
465.10450709205719
 20
189.74368873142251
 30
0.0
  0
SEQEND
  5
3879D
  8
0
  0
LINE
  5
37C6B
  8
0
 10
465.10450709205719
 20
189.74368873142251
 30
0.0
 11
467.30068687238418
 21
189.74368873142251
 31
0.0
  0
LINE
  5
37C6C
  8
0
 10
528.14508738264158
 20
183.9286887314228
 30
0.0
 11
528.14508738264158
 21
195.55868873142299
 31
0.0
  0
LINE
  5
37C6D
  8
0
 10
525.64508738264146
 20
183.4853553980893
 30
0.0
 11
525.64508738264146
 21
196.0020220647566
 31
0.0
  0
LINE
  5
37C6E
  8
0
 10
520.14508738264158
 20
183.4853553980893
 30
0.0
 11
525.64508738264146
 21
183.4853553980893
 31
0.0
  0
POLYLINE
  5
37C6F
  8
0
 66
     1
 10
0.0
 20
0.0
 30
0.0
  0
VERTEX
  5
3879E
  8
0
 10
525.64508738264146
 20
192.87285539809
 30
0.0
  0
VERTEX
  5
3879F
  8
0
 10
525.63789724902153
 20
192.37041764617419
 30
0.0
  0
VERTEX
  5
387A0
  8
0
 10
525.5811226652371
 20
191.36165710226209
 30
0.0
  0
VERTEX
  5
387A1
  8
0
 10
525.46651232648401
 20
190.30586720953761
 30
0.0
  0
VERTEX
  5
387A2
  8
0
 10
525.38566767322618
 20
189.74368873142251
 30
0.0
  0
SEQEND
  5
387A3
  8
0
  0
POLYLINE
  5
37C70
  8
0
 66
     1
 10
0.0
 20
0.0
 30
0.0
  0
VERTEX
  5
387A4
  8
0
 10
525.42710397823157
 20
195.72475557546841
 30
0.0
  0
VERTEX
  5
387A5
  8
0
 10
525.49466768654474
 20
195.21939614394699
 30
0.0
  0
VERTEX
  5
387A6
  8
0
 10
525.59105220447498
 20
194.25979555196221
 30
0.0
  0
VERTEX
  5
387A7
  8
0
 10
525.63901153838185
 20
193.3346460065095
 30
0.0
  0
VERTEX
  5
387A8
  8
0
 10
525.64508738264146
 20
192.87285539809
 30
0.0
  0
SEQEND
  5
387A9
  8
0
  0
POLYLINE
  5
37C71
  8
0
 66
     1
 10
0.0
 20
0.0
 30
0.0
  0
VERTEX
  5
387AA
  8
0
 10
525.64508738264146
 20
186.6145220647559
 30
0.0
  0
VERTEX
  5
387AB
  8
0
 10
525.63789724902153
 20
186.11208431284101
 30
0.0
  0
VERTEX
  5
387AC
  8
0
 10
525.5811226652371
 20
185.10332376892799
 30
0.0
  0
VERTEX
  5
387AD
  8
0
 10
525.46651232648401
 20
184.0475338762044
 30
0.0
  0
VERTEX
  5
387AE
  8
0
 10
525.38566767322618
 20
183.4853553980893
 30
0.0
  0
SEQEND
  5
387AF
  8
0
  0
POLYLINE
  5
37C72
  8
0
 66
     1
 10
0.0
 20
0.0
 30
0.0
  0
VERTEX
  5
387B0
  8
0
 10
520.40450709205686
 20
183.4853553980893
 30
0.0
  0
VERTEX
  5
387B1
  8
0
 10
520.36819607194536
 20
183.72722005087141
 30
0.0
  0
VERTEX
  5
387B2
  8
0
 10
520.30451708998987
 20
184.19562172252239
 30
0.0
  0
VERTEX
  5
387B3
  8
0
 10
520.25212699653048
 20
184.64734654805119
 30
0.0
  0
VERTEX
  5
387B4
  8
0
 10
520.22997762373552
 20
184.86827563565839
 30
0.0
  0
SEQEND
  5
387B5
  8
0
  0
LINE
  5
37C73
  8
0
 10
522.98948789289886
 20
189.74368873142251
 30
0.0
 11
525.38566767322618
 21
189.74368873142251
 31
0.0
  0
POLYLINE
  5
37C74
  8
0
 66
     1
 10
0.0
 20
0.0
 30
0.0
  0
VERTEX
  5
387B6
  8
0
 10
525.38566767322618
 20
189.74368873142251
 30
0.0
  0
VERTEX
  5
387B7
  8
0
 10
525.46651232648401
 20
189.1815102533082
 30
0.0
  0
VERTEX
  5
387B8
  8
0
 10
525.5811226652371
 20
188.1257203605837
 30
0.0
  0
VERTEX
  5
387B9
  8
0
 10
525.63789724902153
 20
187.1169598166716
 30
0.0
  0
VERTEX
  5
387BA
  8
0
 10
525.64508738264146
 20
186.6145220647559
 30
0.0
  0
SEQEND
  5
387BB
  8
0
  0
LINE
  5
37C75
  8
0
 10
525.64508738264146
 20
196.0020220647566
 30
0.0
 11
525.5171610043958
 21
196.0020220647566
 31
0.0
  0
LINE
  5
37C76
  8
0
 10
475.14508738264152
 20
183.74368873142251
 30
0.0
 11
475.14508738264152
 21
195.74368873142251
 31
0.0
  0
LINE
  5
37C77
  8
0
 10
515.14508738264158
 20
183.74368873142251
 30
0.0
 11
515.14508738264158
 21
195.74368873142251
 31
0.0
  0
LINE
  5
37CA4
  8
0
 10
497.64508738264152
 20
239.74368873142251
 30
0.0
 11
492.64508738264152
 21
239.74368873142251
 31
0.0
  0
LINE
  5
37CA5
  8
0
 10
492.64508738264152
 20
139.74368873142251
 30
0.0
 11
497.64508738264152
 21
139.74368873142251
 31
0.0
  0
ARC
  5
37CA6
  8
0
 10
497.64508738264152
 20
139.99368873142251
 30
0.0
 40
0.2499999999999929
 50
270.0
 51
0.0
  0
ARC
  5
37CA7
  8
0
 10
497.64508738264152
 20
239.49368873142251
 30
0.0
 40
0.2499999999999956
 50
0.0
 51
90.0
  0
LINE
  5
37CA8
  8
0
 10
499.89508738264152
 20
239.49368873142251
 30
0.0
 11
497.89508738264152
 21
239.49368873142251
 31
0.0
  0
LINE
  5
37CA9
  8
0
 10
497.89508738264152
 20
139.99368873142251
 30
0.0
 11
499.89508738264152
 21
139.99368873142251
 31
0.0
  0
ARC
  5
37CAA
  8
0
 10
500.14508738264152
 20
139.99368873142251
 30
0.0
 40
0.2499999999999973
 50
180.0
 51
270.0
  0
ARC
  5
37CAB
  8
0
 10
500.14508738264152
 20
239.49368873142251
 30
0.0
 40
0.2499999999999929
 50
90.0
 51
180.0
  0
LINE
  5
37CAC
  8
0
 10
502.66412422693378
 20
239.74368873142251
 30
0.0
 11
500.14508738264152
 21
239.74368873142251
 31
0.0
  0
LINE
  5
37CAD
  8
0
 10
500.14508738264152
 20
139.74368873142251
 30
0.0
 11
502.66412422693378
 21
139.74368873142251
 31
0.0
  0
ARC
  5
37CAE
  8
0
 10
502.66412422693378
 20
140.57702206475639
 30
0.0
 40
0.8333333333333499
 50
270.0
 51
341.00000000001239
  0
ARC
  5
37CAF
  8
0
 10
502.66412422693378
 20
238.91035539808939
 30
0.0
 40
0.8333333333333479
 50
18.999999999987629
 51
90.0
  0
LINE
  5
37CB0
  8
0
 10
504.565607688743
 20
235.9476743502137
 30
0.0
 11
503.45205637326671
 21
239.1816621934704
 31
0.0
  0
LINE
  5
37CB1
  8
0
 10
503.45205637326671
 20
140.30571526937541
 30
0.0
 11
504.565607688743
 21
143.5397031126322
 31
0.0
  0
ARC
  5
37CB2
  8
0
 10
502.20181124974482
 20
144.35362349877499
 30
0.0
 40
2.499999999999889
 50
341.00000000001239
 51
0.0
  0
ARC
  5
37CB3
  8
0
 10
502.20181124974482
 20
235.13375396407079
 30
0.0
 40
2.4999999999998819
 50
0.0
 51
18.999999999987629
  0
ARC
  5
37CB4
  8
0
 10
505.20181124974488
 20
145.3873724149089
 30
0.0
 40
0.5
 50
180.0
 51
0.0
  0
ARC
  5
37CB5
  8
0
 10
505.20181124974488
 20
234.100005047937
 30
0.0
 40
0.5
 50
0.0
 51
180.0
  0
ARC
  5
37CB6
  8
0
 10
506.20181124974482
 20
148.29158329258459
 30
0.0
 40
0.5
 50
180.0
 51
0.0
  0
ARC
  5
37CB7
  8
0
 10
506.20181124974482
 20
231.19579417026119
 30
0.0
 40
0.5
 50
0.0
 51
180.0
  0
LINE
  5
37CB8
  8
0
 10
510.00888382163981
 20
220.1392525948622
 30
0.0
 11
506.70181124974482
 21
229.74368873142251
 31
0.0
  0
LINE
  5
37CB9
  8
0
 10
506.70181124974482
 20
149.74368873142251
 30
0.0
 11
510.00888382163981
 21
159.34812486798361
 31
0.0
  0
ARC
  5
37CBA
  8
0
 10
507.64508738264158
 20
160.1620452541265
 30
0.0
 40
2.5000000000000342
 50
341.00000000001239
 51
0.0
  0
ARC
  5
37CBB
  8
0
 10
507.64508738264158
 20
219.3253322087194
 30
0.0
 40
2.5000000000000329
 50
0.0
 51
18.999999999987629
  0
ARC
  5
37CBC
  8
0
 10
482.64508738264158
 20
160.1620452541265
 30
0.0
 40
2.5000000000000919
 50
180.0
 51
198.99999999998761
  0
ARC
  5
37CBD
  8
0
 10
482.64508738264158
 20
219.3253322087194
 30
0.0
 40
2.500000000000095
 50
161.00000000001231
 51
180.0
  0
LINE
  5
37CBE
  8
0
 10
483.58836351553822
 20
229.74368873142251
 30
0.0
 11
480.2812909436434
 21
220.1392525948622
 31
0.0
  0
LINE
  5
37CBF
  8
0
 10
480.2812909436434
 20
159.34812486798361
 30
0.0
 11
483.58836351553822
 21
149.74368873142251
 31
0.0
  0
ARC
  5
37CC0
  8
0
 10
484.08836351553828
 20
148.29158329258459
 30
0.0
 40
0.5
 50
180.0
 51
0.0
  0
ARC
  5
37CC1
  8
0
 10
484.08836351553828
 20
231.19579417026119
 30
0.0
 40
0.5
 50
0.0
 51
180.0
  0
ARC
  5
37CC2
  8
0
 10
485.08836351553828
 20
145.3873724149089
 30
0.0
 40
0.5
 50
180.0
 51
0.0
  0
ARC
  5
37CC3
  8
0
 10
485.08836351553828
 20
234.100005047937
 30
0.0
 40
0.5
 50
0.0
 51
180.0
  0
ARC
  5
37CC4
  8
0
 10
488.08836351553771
 20
144.35362349877499
 30
0.0
 40
2.4999999999998819
 50
180.0
 51
198.99999999998761
  0
ARC
  5
37CC5
  8
0
 10
488.08836351553771
 20
235.13375396407079
 30
0.0
 40
2.499999999999889
 50
161.00000000001231
 51
180.0
  0
LINE
  5
37CC6
  8
0
 10
486.83811839201638
 20
239.1816621934704
 30
0.0
 11
485.72456707653959
 21
235.9476743502137
 31
0.0
  0
LINE
  5
37CC7
  8
0
 10
485.72456707653959
 20
143.5397031126322
 30
0.0
 11
486.83811839201638
 21
140.30571526937541
 31
0.0
  0
ARC
  5
37CC8
  8
0
 10
487.62605053834892
 20
140.57702206475639
 30
0.0
 40
0.8333333333333454
 50
198.99999999998761
 51
270.0
  0
ARC
  5
37CC9
  8
0
 10
487.62605053834892
 20
238.91035539808939
 30
0.0
 40
0.8333333333333428
 50
90.0
 51
161.00000000001231
  0
LINE
  5
37CCA
  8
0
 10
490.14508738264158
 20
239.74368873142251
 30
0.0
 11
487.62605053834892
 21
239.74368873142251
 31
0.0
  0
LINE
  5
37CCB
  8
0
 10
487.62605053834892
 20
139.74368873142251
 30
0.0
 11
490.14508738264158
 21
139.74368873142251
 31
0.0
  0
ARC
  5
37CCC
  8
0
 10
490.14508738264158
 20
139.99368873142251
 30
0.0
 40
0.2499999999999929
 50
270.0
 51
0.0
  0
ARC
  5
37CCD
  8
0
 10
490.14508738264158
 20
239.49368873142251
 30
0.0
 40
0.2499999999999947
 50
0.0
 51
90.0
  0
LINE
  5
37CCE
  8
0
 10
492.39508738264158
 20
239.49368873142251
 30
0.0
 11
490.39508738264152
 21
239.49368873142251
 31
0.0
  0
LINE
  5
37CCF
  8
0
 10
490.39508738264152
 20
139.99368873142251
 30
0.0
 11
492.39508738264158
 21
139.99368873142251
 31
0.0
  0
ARC
  5
37CD0
  8
0
 10
492.64508738264152
 20
139.99368873142251
 30
0.0
 40
0.2499999999999982
 50
180.0
 51
270.0
  0
ARC
  5
37CD1
  8
0
 10
492.64508738264152
 20
239.49368873142251
 30
0.0
 40
0.2499999999999929
 50
90.0
 51
180.0
  0
LINE
  5
37CD3
  8
0
 10
497.89508738264152
 20
139.99368873142251
 30
0.0
 11
497.89508738264152
 21
239.49368873142251
 31
0.0
  0
LINE
  5
37CD4
  8
0
 10
499.89508738264152
 20
139.99368873142251
 30
0.0
 11
499.89508738264152
 21
239.49368873142251
 31
0.0
  0
LINE
  5
37CD9
  8
0
 10
504.70181124974488
 20
144.35362349877499
 30
0.0
 11
504.70181124974488
 21
235.13375396407079
 31
0.0
  0
LINE
  5
37CDA
  8
0
 10
505.70181124974482
 20
145.3873724149089
 30
0.0
 11
505.70181124974482
 21
234.100005047937
 31
0.0
  0
LINE
  5
37CDB
  8
0
 10
506.70181124974482
 20
148.29158329258459
 30
0.0
 11
506.70181124974482
 21
231.19579417026119
 31
0.0
  0
LINE
  5
37CDD
  8
0
 10
510.14508738264152
 20
160.1620452541265
 30
0.0
 11
510.14508738264152
 21
219.3253322087194
 31
0.0
  0
LINE
  5
37CDE
  8
0
 10
480.14508738264152
 20
160.1620452541265
 30
0.0
 11
480.14508738264152
 21
219.3253322087194
 31
0.0
  0
LINE
  5
37CE0
  8
0
 10
483.58836351553822
 20
148.29158329258459
 30
0.0
 11
483.58836351553822
 21
231.19579417026119
 31
0.0
  0
LINE
  5
37CE1
  8
0
 10
484.58836351553828
 20
145.3873724149089
 30
0.0
 11
484.58836351553828
 21
234.100005047937
 31
0.0
  0
LINE
  5
37CE2
  8
0
 10
485.58836351553822
 20
144.35362349877499
 30
0.0
 11
485.58836351553822
 21
235.13375396407079
 31
0.0
  0
LINE
  5
37CE7
  8
0
 10
490.39508738264152
 20
139.99368873142251
 30
0.0
 11
490.39508738264152
 21
239.49368873142251
 31
0.0
  0
LINE
  5
37CE9
  8
0
 10
492.39508738264158
 20
139.99368873142251
 30
0.0
 11
492.39508738264158
 21
239.49368873142251
 31
0.0
  0
LINE
  5
37CF8
  8
1
 10
248.2589933790068
 20
377.98045729116348
 30
0.0
 11
388.252176359646
 21
377.98045729116348
 31
0.0
  0
LINE
  5
37CF9
  8
1
 10
342.42507066524109
 20
332.15335159675851
 30
0.0
 11
342.42507066524109
 21
423.80756298556838
 31
0.0
  0
LINE
  5
37CFA
  8
0
 10
292.72507066524082
 20
355.48045729116348
 30
0.0
 11
292.72507066524082
 21
352.98045729116348
 31
0.0
  0
LINE
  5
37CFB
  8
0
 10
292.72507066524082
 20
402.98045729116342
 30
0.0
 11
292.72507066524082
 21
400.48045729116342
 31
0.0
  0
LINE
  5
37CFC
  8
0
 10
302.92507066524109
 20
402.98045729116342
 30
0.0
 11
302.92507066524109
 21
352.98045729116348
 31
0.0
  0
LINE
  5
37CFD
  8
0
 10
315.83089837129643
 20
352.98045729116348
 30
0.0
 11
292.72507066524082
 21
352.98045729116348
 31
0.0
  0
LINE
  5
37CFE
  8
0
 10
292.72507066524082
 20
402.98045729116342
 30
0.0
 11
315.83089837129643
 21
402.98045729116342
 31
0.0
  0
LINE
  5
37D01
  8
0
 10
302.92507066524109
 20
355.48045729116348
 30
0.0
 11
292.72507066524082
 21
355.48045729116348
 31
0.0
  0
LINE
  5
37D02
  8
0
 10
292.72507066524082
 20
400.48045729116342
 30
0.0
 11
302.92507066524109
 21
400.48045729116342
 31
0.0
  0
CIRCLE
  5
37D03
  8
0
 10
342.42507066524109
 20
377.98045729116348
 30
0.0
 40
11.0
  0
CIRCLE
  5
37D04
  8
0
 10
342.42507066524109
 20
377.98045729116348
 30
0.0
 40
28.025000000000009
  0
CIRCLE
  5
37D05
  8
0
 10
342.42507066524109
 20
377.98045729116348
 30
0.0
 40
31.025000000000009
  0
CIRCLE
  5
37D06
  8
0
 10
342.42507066524109
 20
377.98045729116348
 30
0.0
 40
32.5
  0
CIRCLE
  5
37D07
  8
0
 10
342.42507066524109
 20
377.98045729116348
 30
0.0
 40
36.5
  0
CIRCLE
  5
37D08
  8
0
 10
342.42507066524109
 20
377.98045729116348
 30
0.0
 40
6.0
  0
LINE
  5
37D1C
  8
1
 10
307.42507066524098
 20
339.71545729116309
 30
0.0
 11
307.42507066524098
 21
416.2454572911638
 31
0.0
  0
LINE
  5
37D1D
  8
0
 10
301.61007066524098
 20
352.98045729116348
 30
0.0
 11
301.61007066524098
 21
352.38045729116402
 31
0.0
  0
LINE
  5
37D1E
  8
0
 10
313.24007066524109
 20
352.38045729116402
 30
0.0
 11
313.24007066524109
 21
352.98045729116348
 31
0.0
  0
LINE
  5
37D1F
  8
0
 10
303.42507066524098
 20
412.21345729116359
 30
0.0
 11
303.42507066524098
 21
410.98045729116348
 31
0.0
  0
LINE
  5
37D20
  8
0
 10
311.42507066524098
 20
410.98045729116348
 30
0.0
 11
311.42507066524098
 21
412.21345729116359
 31
0.0
  0
LINE
  5
37D21
  8
0
 10
304.19207066524092
 20
412.98045729116342
 30
0.0
 11
303.42507066524098
 21
412.21345729116359
 31
0.0
  0
LINE
  5
37D22
  8
0
 10
311.42507066524098
 20
412.21345729116359
 30
0.0
 11
310.65807066524081
 21
412.98045729116342
 31
0.0
  0
LINE
  5
37D23
  8
0
 10
313.68340399857431
 20
347.6804572911642
 30
0.0
 11
314.65157153459768
 21
347.93987700057909
 31
0.0
  0
LINE
  5
37D24
  8
0
 10
300.19856979588388
 20
347.93987700057909
 30
0.0
 11
301.16673733190743
 21
347.6804572911642
 31
0.0
  0
LINE
  5
37D25
  8
0
 10
314.65157153459768
 20
352.12103758174823
 30
0.0
 11
313.68340399857431
 21
352.38045729116402
 31
0.0
  0
LINE
  5
37D26
  8
0
 10
301.16673733190743
 20
352.38045729116402
 30
0.0
 11
300.19856979588388
 21
352.12103758174823
 31
0.0
  0
LINE
  5
37D27
  8
0
 10
301.61007066524098
 20
410.98045729116348
 30
0.0
 11
301.61007066524098
 21
408.48045729116342
 31
0.0
  0
LINE
  5
37D28
  8
0
 10
313.24007066524109
 20
408.48045729116342
 30
0.0
 11
313.24007066524109
 21
410.98045729116348
 31
0.0
  0
LINE
  5
37D29
  8
0
 10
313.68340399857431
 20
402.98045729116342
 30
0.0
 11
314.65157153459768
 21
403.23987700057933
 31
0.0
  0
LINE
  5
37D2A
  8
0
 10
300.19856979588388
 20
403.23987700057933
 30
0.0
 11
301.16673733190743
 21
402.98045729116342
 31
0.0
  0
LINE
  5
37D2B
  8
0
 10
314.65157153459768
 20
408.22103758174848
 30
0.0
 11
313.68340399857431
 21
408.48045729116342
 31
0.0
  0
LINE
  5
37D2C
  8
0
 10
301.16673733190743
 20
408.48045729116342
 30
0.0
 11
300.19856979588388
 21
408.22103758174848
 31
0.0
  0
LINE
  5
37D2D
  8
0
 10
301.42507066524098
 20
397.98045729116348
 30
0.0
 11
301.42507066524098
 21
392.98045729116348
 31
0.0
  0
LINE
  5
37D2E
  8
0
 10
301.42507066524098
 20
362.98045729116348
 30
0.0
 11
301.42507066524098
 21
357.98045729116348
 31
0.0
  0
LINE
  5
37D2F
  8
0
 10
311.42507066524098
 20
412.21345729116359
 30
0.0
 11
303.42507066524098
 21
412.21345729116359
 31
0.0
  0
LINE
  5
37D30
  8
0
 10
310.65807066524081
 20
412.98045729116342
 30
0.0
 11
304.19207066524092
 21
412.98045729116342
 31
0.0
  0
LINE
  5
37D31
  8
0
 10
313.68340399857431
 20
347.6804572911642
 30
0.0
 11
301.16673733190743
 21
347.6804572911642
 31
0.0
  0
LINE
  5
37D32
  8
0
 10
313.68340399857431
 20
352.38045729116402
 30
0.0
 11
301.16673733190743
 21
352.38045729116402
 31
0.0
  0
POLYLINE
  5
37D33
  8
0
 66
     1
 10
0.0
 20
0.0
 30
0.0
  0
VERTEX
  5
387BC
  8
0
 10
303.81182023056272
 20
347.93987700057909
 30
0.0
  0
VERTEX
  5
387BD
  8
0
 10
303.48724633489019
 20
347.85903234732092
 30
0.0
  0
VERTEX
  5
387BE
  8
0
 10
302.8776857561183
 20
347.74442200856811
 30
0.0
  0
VERTEX
  5
387BF
  8
0
 10
302.29527758454287
 20
347.68764742478379
 30
0.0
  0
VERTEX
  5
387C0
  8
0
 10
302.00519501322327
 20
347.6804572911642
 30
0.0
  0
SEQEND
  5
387C1
  8
0
  0
POLYLINE
  5
37D34
  8
0
 66
     1
 10
0.0
 20
0.0
 30
0.0
  0
VERTEX
  5
387C2
  8
0
 10
302.00519501322327
 20
347.6804572911642
 30
0.0
  0
VERTEX
  5
387C3
  8
0
 10
301.71511244190378
 20
347.68764742478379
 30
0.0
  0
VERTEX
  5
387C4
  8
0
 10
301.1327042703283
 20
347.74442200856811
 30
0.0
  0
VERTEX
  5
387C5
  8
0
 10
300.52314369155653
 20
347.85903234732092
 30
0.0
  0
VERTEX
  5
387C6
  8
0
 10
300.19856979588388
 20
347.93987700057909
 30
0.0
  0
SEQEND
  5
387C7
  8
0
  0
POLYLINE
  5
37D35
  8
0
 66
     1
 10
0.0
 20
0.0
 30
0.0
  0
VERTEX
  5
387C8
  8
0
 10
300.19856979588388
 20
352.12103758174823
 30
0.0
  0
VERTEX
  5
387C9
  8
0
 10
300.52314369155653
 20
352.20188223500651
 30
0.0
  0
VERTEX
  5
387CA
  8
0
 10
301.1327042703283
 20
352.31649257375921
 30
0.0
  0
VERTEX
  5
387CB
  8
0
 10
301.71511244190378
 20
352.37326715754438
 30
0.0
  0
VERTEX
  5
387CC
  8
0
 10
302.00519501322327
 20
352.38045729116402
 30
0.0
  0
SEQEND
  5
387CD
  8
0
  0
POLYLINE
  5
37D36
  8
0
 66
     1
 10
0.0
 20
0.0
 30
0.0
  0
VERTEX
  5
387CE
  8
0
 10
302.00519501322327
 20
352.38045729116402
 30
0.0
  0
VERTEX
  5
387CF
  8
0
 10
302.29527758454287
 20
352.37326715754438
 30
0.0
  0
VERTEX
  5
387D0
  8
0
 10
302.8776857561183
 20
352.31649257375921
 30
0.0
  0
VERTEX
  5
387D1
  8
0
 10
303.48724633489019
 20
352.20188223500651
 30
0.0
  0
VERTEX
  5
387D2
  8
0
 10
303.81182023056272
 20
352.12103758174823
 30
0.0
  0
SEQEND
  5
387D3
  8
0
  0
LINE
  5
37D37
  8
0
 10
300.19856979588388
 20
347.93987700057909
 30
0.0
 11
300.19856979588388
 21
352.12103758174823
 31
0.0
  0
POLYLINE
  5
37D38
  8
0
 66
     1
 10
0.0
 20
0.0
 30
0.0
  0
VERTEX
  5
387D4
  8
0
 10
312.84494631725829
 20
352.38045729116402
 30
0.0
  0
VERTEX
  5
387D5
  8
0
 10
313.13502888857778
 20
352.37326715754438
 30
0.0
  0
VERTEX
  5
387D6
  8
0
 10
313.71743706015383
 20
352.31649257375921
 30
0.0
  0
VERTEX
  5
387D7
  8
0
 10
314.3269976389256
 20
352.20188223500651
 30
0.0
  0
VERTEX
  5
387D8
  8
0
 10
314.65157153459768
 20
352.12103758174823
 30
0.0
  0
SEQEND
  5
387D9
  8
0
  0
POLYLINE
  5
37D39
  8
0
 66
     1
 10
0.0
 20
0.0
 30
0.0
  0
VERTEX
  5
387DA
  8
0
 10
314.65157153459768
 20
347.93987700057909
 30
0.0
  0
VERTEX
  5
387DB
  8
0
 10
314.3269976389256
 20
347.85903234732092
 30
0.0
  0
VERTEX
  5
387DC
  8
0
 10
313.71743706015383
 20
347.74442200856811
 30
0.0
  0
VERTEX
  5
387DD
  8
0
 10
313.13502888857778
 20
347.68764742478379
 30
0.0
  0
VERTEX
  5
387DE
  8
0
 10
312.84494631725829
 20
347.6804572911642
 30
0.0
  0
SEQEND
  5
387DF
  8
0
  0
POLYLINE
  5
37D3A
  8
0
 66
     1
 10
0.0
 20
0.0
 30
0.0
  0
VERTEX
  5
387E0
  8
0
 10
312.84494631725829
 20
347.6804572911642
 30
0.0
  0
VERTEX
  5
387E1
  8
0
 10
312.5548637459392
 20
347.68764742478379
 30
0.0
  0
VERTEX
  5
387E2
  8
0
 10
311.97245557436332
 20
347.74442200856811
 30
0.0
  0
VERTEX
  5
387E3
  8
0
 10
311.36289499559138
 20
347.85903234732092
 30
0.0
  0
VERTEX
  5
387E4
  8
0
 10
311.03832109991941
 20
347.93987700057909
 30
0.0
  0
SEQEND
  5
387E5
  8
0
  0
POLYLINE
  5
37D3B
  8
0
 66
     1
 10
0.0
 20
0.0
 30
0.0
  0
VERTEX
  5
387E6
  8
0
 10
311.03832109991941
 20
352.12103758174823
 30
0.0
  0
VERTEX
  5
387E7
  8
0
 10
311.36289499559138
 20
352.20188223500651
 30
0.0
  0
VERTEX
  5
387E8
  8
0
 10
311.97245557436332
 20
352.31649257375921
 30
0.0
  0
VERTEX
  5
387E9
  8
0
 10
312.5548637459392
 20
352.37326715754438
 30
0.0
  0
VERTEX
  5
387EA
  8
0
 10
312.84494631725829
 20
352.38045729116402
 30
0.0
  0
SEQEND
  5
387EB
  8
0
  0
LINE
  5
37D3C
  8
0
 10
314.65157153459768
 20
347.93987700057909
 30
0.0
 11
314.65157153459768
 21
352.12103758174823
 31
0.0
  0
POLYLINE
  5
37D3D
  8
0
 66
     1
 10
0.0
 20
0.0
 30
0.0
  0
VERTEX
  5
387EC
  8
0
 10
307.42507066524098
 20
352.38045729116402
 30
0.0
  0
VERTEX
  5
387ED
  8
0
 10
308.00523580787973
 20
352.37326715754438
 30
0.0
  0
VERTEX
  5
387EE
  8
0
 10
309.17005215103109
 20
352.31649257375921
 30
0.0
  0
VERTEX
  5
387EF
  8
0
 10
310.38917330857481
 20
352.20188223500651
 30
0.0
  0
VERTEX
  5
387F0
  8
0
 10
311.03832109991941
 20
352.12103758174823
 30
0.0
  0
SEQEND
  5
387F1
  8
0
  0
LINE
  5
37D3E
  8
0
 10
311.03832109991941
 20
347.93987700057909
 30
0.0
 11
311.03832109991941
 21
352.12103758174823
 31
0.0
  0
POLYLINE
  5
37D3F
  8
0
 66
     1
 10
0.0
 20
0.0
 30
0.0
  0
VERTEX
  5
387F2
  8
0
 10
311.03832109991941
 20
347.93987700057909
 30
0.0
  0
VERTEX
  5
387F3
  8
0
 10
310.38917330857481
 20
347.85903234732092
 30
0.0
  0
VERTEX
  5
387F4
  8
0
 10
309.17005215103109
 20
347.74442200856811
 30
0.0
  0
VERTEX
  5
387F5
  8
0
 10
308.00523580787973
 20
347.68764742478379
 30
0.0
  0
VERTEX
  5
387F6
  8
0
 10
307.42507066524098
 20
347.6804572911642
 30
0.0
  0
SEQEND
  5
387F7
  8
0
  0
POLYLINE
  5
37D40
  8
0
 66
     1
 10
0.0
 20
0.0
 30
0.0
  0
VERTEX
  5
387F8
  8
0
 10
307.42507066524098
 20
347.6804572911642
 30
0.0
  0
VERTEX
  5
387F9
  8
0
 10
306.84490552260189
 20
347.68764742478379
 30
0.0
  0
VERTEX
  5
387FA
  8
0
 10
305.68008917945048
 20
347.74442200856811
 30
0.0
  0
VERTEX
  5
387FB
  8
0
 10
304.46096802190681
 20
347.85903234732092
 30
0.0
  0
VERTEX
  5
387FC
  8
0
 10
303.81182023056272
 20
347.93987700057909
 30
0.0
  0
SEQEND
  5
387FD
  8
0
  0
LINE
  5
37D41
  8
0
 10
303.81182023056272
 20
347.93987700057909
 30
0.0
 11
303.81182023056272
 21
352.12103758174823
 31
0.0
  0
POLYLINE
  5
37D42
  8
0
 66
     1
 10
0.0
 20
0.0
 30
0.0
  0
VERTEX
  5
387FE
  8
0
 10
303.81182023056272
 20
352.12103758174823
 30
0.0
  0
VERTEX
  5
387FF
  8
0
 10
304.46096802190681
 20
352.20188223500651
 30
0.0
  0
VERTEX
  5
38800
  8
0
 10
305.68008917945048
 20
352.31649257375921
 30
0.0
  0
VERTEX
  5
38801
  8
0
 10
306.84490552260189
 20
352.37326715754438
 30
0.0
  0
VERTEX
  5
38802
  8
0
 10
307.42507066524098
 20
352.38045729116402
 30
0.0
  0
SEQEND
  5
38803
  8
0
  0
LINE
  5
37D43
  8
0
 10
313.24007066524109
 20
410.98045729116348
 30
0.0
 11
301.61007066524098
 21
410.98045729116348
 31
0.0
  0
LINE
  5
37D44
  8
0
 10
313.68340399857431
 20
408.48045729116342
 30
0.0
 11
301.16673733190743
 21
408.48045729116342
 31
0.0
  0
POLYLINE
  5
37D45
  8
0
 66
     1
 10
0.0
 20
0.0
 30
0.0
  0
VERTEX
  5
38804
  8
0
 10
303.81182023056272
 20
403.23987700057933
 30
0.0
  0
VERTEX
  5
38805
  8
0
 10
303.48724633489019
 20
403.15903234732099
 30
0.0
  0
VERTEX
  5
38806
  8
0
 10
302.8776857561183
 20
403.04442200856829
 30
0.0
  0
VERTEX
  5
38807
  8
0
 10
302.29527758454287
 20
402.98764742478392
 30
0.0
  0
VERTEX
  5
38808
  8
0
 10
302.00519501322327
 20
402.98045729116342
 30
0.0
  0
SEQEND
  5
38809
  8
0
  0
POLYLINE
  5
37D46
  8
0
 66
     1
 10
0.0
 20
0.0
 30
0.0
  0
VERTEX
  5
3880A
  8
0
 10
302.00519501322327
 20
402.98045729116342
 30
0.0
  0
VERTEX
  5
3880B
  8
0
 10
301.71511244190378
 20
402.98764742478392
 30
0.0
  0
VERTEX
  5
3880C
  8
0
 10
301.1327042703283
 20
403.04442200856829
 30
0.0
  0
VERTEX
  5
3880D
  8
0
 10
300.52314369155653
 20
403.15903234732099
 30
0.0
  0
VERTEX
  5
3880E
  8
0
 10
300.19856979588388
 20
403.23987700057933
 30
0.0
  0
SEQEND
  5
3880F
  8
0
  0
POLYLINE
  5
37D47
  8
0
 66
     1
 10
0.0
 20
0.0
 30
0.0
  0
VERTEX
  5
38810
  8
0
 10
300.19856979588388
 20
408.22103758174848
 30
0.0
  0
VERTEX
  5
38811
  8
0
 10
300.52314369155653
 20
408.30188223500681
 30
0.0
  0
VERTEX
  5
38812
  8
0
 10
301.1327042703283
 20
408.41649257375951
 30
0.0
  0
VERTEX
  5
38813
  8
0
 10
301.71511244190378
 20
408.47326715754377
 30
0.0
  0
VERTEX
  5
38814
  8
0
 10
302.00519501322327
 20
408.48045729116342
 30
0.0
  0
SEQEND
  5
38815
  8
0
  0
POLYLINE
  5
37D48
  8
0
 66
     1
 10
0.0
 20
0.0
 30
0.0
  0
VERTEX
  5
38816
  8
0
 10
302.00519501322327
 20
408.48045729116342
 30
0.0
  0
VERTEX
  5
38817
  8
0
 10
302.29527758454287
 20
408.47326715754377
 30
0.0
  0
VERTEX
  5
38818
  8
0
 10
302.8776857561183
 20
408.41649257375951
 30
0.0
  0
VERTEX
  5
38819
  8
0
 10
303.48724633489019
 20
408.30188223500681
 30
0.0
  0
VERTEX
  5
3881A
  8
0
 10
303.81182023056272
 20
408.22103758174848
 30
0.0
  0
SEQEND
  5
3881B
  8
0
  0
LINE
  5
37D49
  8
0
 10
300.19856979588388
 20
403.23987700057933
 30
0.0
 11
300.19856979588388
 21
408.22103758174848
 31
0.0
  0
POLYLINE
  5
37D4A
  8
0
 66
     1
 10
0.0
 20
0.0
 30
0.0
  0
VERTEX
  5
3881C
  8
0
 10
312.84494631725829
 20
408.48045729116342
 30
0.0
  0
VERTEX
  5
3881D
  8
0
 10
313.13502888857778
 20
408.47326715754377
 30
0.0
  0
VERTEX
  5
3881E
  8
0
 10
313.71743706015383
 20
408.41649257375951
 30
0.0
  0
VERTEX
  5
3881F
  8
0
 10
314.3269976389256
 20
408.30188223500681
 30
0.0
  0
VERTEX
  5
38820
  8
0
 10
314.65157153459768
 20
408.22103758174848
 30
0.0
  0
SEQEND
  5
38821
  8
0
  0
POLYLINE
  5
37D4B
  8
0
 66
     1
 10
0.0
 20
0.0
 30
0.0
  0
VERTEX
  5
38822
  8
0
 10
314.65157153459768
 20
403.23987700057933
 30
0.0
  0
VERTEX
  5
38823
  8
0
 10
314.3269976389256
 20
403.15903234732099
 30
0.0
  0
VERTEX
  5
38824
  8
0
 10
313.71743706015383
 20
403.04442200856829
 30
0.0
  0
VERTEX
  5
38825
  8
0
 10
313.13502888857778
 20
402.98764742478392
 30
0.0
  0
VERTEX
  5
38826
  8
0
 10
312.84494631725829
 20
402.98045729116342
 30
0.0
  0
SEQEND
  5
38827
  8
0
  0
POLYLINE
  5
37D4C
  8
0
 66
     1
 10
0.0
 20
0.0
 30
0.0
  0
VERTEX
  5
38828
  8
0
 10
312.84494631725829
 20
402.98045729116342
 30
0.0
  0
VERTEX
  5
38829
  8
0
 10
312.5548637459392
 20
402.98764742478392
 30
0.0
  0
VERTEX
  5
3882A
  8
0
 10
311.97245557436332
 20
403.04442200856829
 30
0.0
  0
VERTEX
  5
3882B
  8
0
 10
311.36289499559138
 20
403.15903234732099
 30
0.0
  0
VERTEX
  5
3882C
  8
0
 10
311.03832109991941
 20
403.23987700057933
 30
0.0
  0
SEQEND
  5
3882D
  8
0
  0
POLYLINE
  5
37D4D
  8
0
 66
     1
 10
0.0
 20
0.0
 30
0.0
  0
VERTEX
  5
3882E
  8
0
 10
311.03832109991941
 20
408.22103758174848
 30
0.0
  0
VERTEX
  5
3882F
  8
0
 10
311.36289499559138
 20
408.30188223500681
 30
0.0
  0
VERTEX
  5
38830
  8
0
 10
311.97245557436332
 20
408.41649257375951
 30
0.0
  0
VERTEX
  5
38831
  8
0
 10
312.5548637459392
 20
408.47326715754377
 30
0.0
  0
VERTEX
  5
38832
  8
0
 10
312.84494631725829
 20
408.48045729116342
 30
0.0
  0
SEQEND
  5
38833
  8
0
  0
LINE
  5
37D4E
  8
0
 10
314.65157153459768
 20
403.23987700057933
 30
0.0
 11
314.65157153459768
 21
408.22103758174848
 31
0.0
  0
POLYLINE
  5
37D4F
  8
0
 66
     1
 10
0.0
 20
0.0
 30
0.0
  0
VERTEX
  5
38834
  8
0
 10
307.42507066524098
 20
408.48045729116342
 30
0.0
  0
VERTEX
  5
38835
  8
0
 10
308.00523580787973
 20
408.47326715754377
 30
0.0
  0
VERTEX
  5
38836
  8
0
 10
309.17005215103109
 20
408.41649257375951
 30
0.0
  0
VERTEX
  5
38837
  8
0
 10
310.38917330857481
 20
408.30188223500681
 30
0.0
  0
VERTEX
  5
38838
  8
0
 10
311.03832109991941
 20
408.22103758174848
 30
0.0
  0
SEQEND
  5
38839
  8
0
  0
LINE
  5
37D50
  8
0
 10
311.03832109991941
 20
403.23987700057933
 30
0.0
 11
311.03832109991941
 21
408.22103758174848
 31
0.0
  0
POLYLINE
  5
37D51
  8
0
 66
     1
 10
0.0
 20
0.0
 30
0.0
  0
VERTEX
  5
3883A
  8
0
 10
311.03832109991941
 20
403.23987700057933
 30
0.0
  0
VERTEX
  5
3883B
  8
0
 10
310.38917330857481
 20
403.15903234732099
 30
0.0
  0
VERTEX
  5
3883C
  8
0
 10
309.17005215103109
 20
403.04442200856829
 30
0.0
  0
VERTEX
  5
3883D
  8
0
 10
308.00523580787973
 20
402.98764742478392
 30
0.0
  0
VERTEX
  5
3883E
  8
0
 10
307.42507066524098
 20
402.98045729116342
 30
0.0
  0
SEQEND
  5
3883F
  8
0
  0
POLYLINE
  5
37D52
  8
0
 66
     1
 10
0.0
 20
0.0
 30
0.0
  0
VERTEX
  5
38840
  8
0
 10
307.42507066524098
 20
402.98045729116342
 30
0.0
  0
VERTEX
  5
38841
  8
0
 10
306.84490552260189
 20
402.98764742478392
 30
0.0
  0
VERTEX
  5
38842
  8
0
 10
305.68008917945048
 20
403.04442200856829
 30
0.0
  0
VERTEX
  5
38843
  8
0
 10
304.46096802190681
 20
403.15903234732099
 30
0.0
  0
VERTEX
  5
38844
  8
0
 10
303.81182023056272
 20
403.23987700057933
 30
0.0
  0
SEQEND
  5
38845
  8
0
  0
LINE
  5
37D53
  8
0
 10
303.81182023056272
 20
403.23987700057933
 30
0.0
 11
303.81182023056272
 21
408.22103758174848
 31
0.0
  0
POLYLINE
  5
37D54
  8
0
 66
     1
 10
0.0
 20
0.0
 30
0.0
  0
VERTEX
  5
38846
  8
0
 10
303.81182023056272
 20
408.22103758174848
 30
0.0
  0
VERTEX
  5
38847
  8
0
 10
304.46096802190681
 20
408.30188223500681
 30
0.0
  0
VERTEX
  5
38848
  8
0
 10
305.68008917945048
 20
408.41649257375951
 30
0.0
  0
VERTEX
  5
38849
  8
0
 10
306.84490552260189
 20
408.47326715754377
 30
0.0
  0
VERTEX
  5
3884A
  8
0
 10
307.42507066524098
 20
408.48045729116342
 30
0.0
  0
SEQEND
  5
3884B
  8
0
  0
LINE
  5
37D55
  8
0
 10
302.92018133942878
 20
357.98045729116348
 30
0.0
 11
301.42507066524098
 21
357.98045729116348
 31
0.0
  0
LINE
  5
37D56
  8
0
 10
302.92018133942878
 20
397.98045729116348
 30
0.0
 11
301.42507066524098
 21
397.98045729116348
 31
0.0
  0
LINE
  5
37DBC
  8
0
 10
257.42507066524098
 20
380.48045729116348
 30
0.0
 11
257.42507066524098
 21
375.48045729116348
 31
0.0
  0
ARC
  5
37DBD
  8
0
 10
257.67507066524098
 20
380.48045729116348
 30
0.0
 40
0.2499999999999956
 50
90.0
 51
180.0
  0
LINE
  5
37DBE
  8
0
 10
257.67507066524098
 20
382.73045729116348
 30
0.0
 11
257.67507066524098
 21
380.73045729116348
 31
0.0
  0
ARC
  5
37DBF
  8
0
 10
257.67507066524098
 20
382.98045729116348
 30
0.0
 40
0.2499999999999929
 50
180.0
 51
270.0
  0
LINE
  5
37DC0
  8
0
 10
257.42507066524098
 20
385.49949413545619
 30
0.0
 11
257.42507066524098
 21
382.98045729116348
 31
0.0
  0
ARC
  5
37DC1
  8
0
 10
258.25840399857412
 20
385.49949413545619
 30
0.0
 40
0.8333333333333447
 50
108.9999999999834
 51
180.0
  0
LINE
  5
37DC2
  8
0
 10
261.22108504644979
 20
387.40097759726541
 30
0.0
 11
257.98709720319312
 21
386.28742628178952
 31
0.0
  0
ARC
  5
37DC3
  8
0
 10
262.0350054325927
 20
385.03718115826729
 30
0.0
 40
2.4999999999998819
 50
90.0
 51
108.9999999999834
  0
ARC
  5
37DC4
  8
0
 10
263.068754348727
 20
388.03718115826717
 30
0.0
 40
0.5
 50
90.0
 51
270.0
  0
ARC
  5
37DC5
  8
0
 10
265.97296522640318
 20
389.03718115826717
 30
0.0
 40
0.5
 50
90.0
 51
270.0
  0
LINE
  5
37DC6
  8
0
 10
277.02950680180169
 20
392.84425373016262
 30
0.0
 11
267.42507066524109
 21
389.53718115826717
 31
0.0
  0
ARC
  5
37DC7
  8
0
 10
277.8434271879446
 20
390.48045729116348
 30
0.0
 40
2.5000000000000369
 50
90.0
 51
108.9999999999834
  0
ARC
  5
37DC8
  8
0
 10
277.8434271879446
 20
365.48045729116438
 30
0.0
 40
2.5000000000000981
 50
251.0000000000166
 51
270.0
  0
LINE
  5
37DC9
  8
0
 10
267.42507066524109
 20
366.42373342406057
 30
0.0
 11
277.02950680180169
 21
363.1166608521653
 31
0.0
  0
ARC
  5
37DCA
  8
0
 10
265.97296522640318
 20
366.92373342406057
 30
0.0
 40
0.5
 50
90.0
 51
270.0
  0
ARC
  5
37DCB
  8
0
 10
263.068754348727
 20
367.92373342406057
 30
0.0
 40
0.5
 50
90.0
 51
270.0
  0
ARC
  5
37DCC
  8
0
 10
262.0350054325927
 20
370.92373342406057
 30
0.0
 40
2.5000000000001288
 50
251.0000000000166
 51
270.0
  0
LINE
  5
37DCD
  8
0
 10
257.98709720319312
 20
369.67348830053839
 30
0.0
 11
261.22108504644979
 21
368.55993698506251
 31
0.0
  0
ARC
  5
37DCE
  8
0
 10
258.25840399857412
 20
370.46142044687173
 30
0.0
 40
0.8333333333333499
 50
180.0
 51
251.0000000000166
  0
LINE
  5
37DCF
  8
0
 10
257.42507066524098
 20
372.98045729116348
 30
0.0
 11
257.42507066524098
 21
370.46142044687173
 31
0.0
  0
ARC
  5
37DD0
  8
0
 10
257.67507066524098
 20
372.98045729116348
 30
0.0
 40
0.2499999999999956
 50
90.0
 51
180.0
  0
LINE
  5
37DD1
  8
0
 10
257.67507066524098
 20
375.23045729116348
 30
0.0
 11
257.67507066524098
 21
373.23045729116348
 31
0.0
  0
ARC
  5
37DD2
  8
0
 10
257.67507066524098
 20
375.48045729116348
 30
0.0
 40
0.2499999999999929
 50
180.0
 51
270.0
  0
LINE
  5
37DD5
  8
0
 10
347.75775291716639
 20
380.73045729116348
 30
0.0
 11
337.09238841331558
 21
380.73045729116348
 31
0.0
  0
LINE
  5
37DD6
  8
0
 10
302.92399714527249
 20
380.73045729116348
 30
0.0
 11
257.67507066524098
 21
380.73045729116348
 31
0.0
  0
LINE
  5
37DD7
  8
0
 10
346.09079023989477
 20
382.73045729116348
 30
0.0
 11
338.75935109058719
 21
382.73045729116342
 31
0.0
  0
LINE
  5
37DD8
  8
0
 10
302.92399714527249
 20
382.73045729116348
 30
0.0
 11
257.67507066524098
 21
382.73045729116348
 31
0.0
  0
LINE
  5
37DDF
  8
0
 10
302.92474319328488
 20
387.53718115826717
 30
0.0
 11
262.0350054325927
 21
387.53718115826717
 31
0.0
  0
LINE
  5
37DE0
  8
0
 10
302.9241104437906
 20
388.53718115826717
 30
0.0
 11
263.068754348727
 21
388.53718115826717
 31
0.0
  0
LINE
  5
37DE1
  8
0
 10
302.92247908886287
 20
389.53718115826717
 30
0.0
 11
265.97296522640318
 21
389.53718115826717
 31
0.0
  0
LINE
  5
37DE3
  8
0
 10
302.91984582831759
 20
392.98045729116348
 30
0.0
 11
277.8434271879446
 21
392.98045729116348
 31
0.0
  0
LINE
  5
37DE4
  8
0
 10
302.91984582831759
 20
362.98045729116348
 30
0.0
 11
277.8434271879446
 21
362.98045729116348
 31
0.0
  0
LINE
  5
37DE6
  8
0
 10
302.92247908886287
 20
366.42373342406057
 30
0.0
 11
265.97296522640318
 21
366.42373342406057
 31
0.0
  0
LINE
  5
37DE7
  8
0
 10
302.9241104437906
 20
367.42373342406057
 30
0.0
 11
263.068754348727
 21
367.42373342406057
 31
0.0
  0
LINE
  5
37DE8
  8
0
 10
302.92474319328488
 20
368.42373342406057
 30
0.0
 11
262.0350054325927
 21
368.42373342406057
 31
0.0
  0
LINE
  5
37DEF
  8
0
 10
346.09079023989477
 20
373.23045729116342
 30
0.0
 11
338.7593510905873
 21
373.23045729116342
 31
0.0
  0
LINE
  5
37DF0
  8
0
 10
302.92399714527249
 20
373.23045729116348
 30
0.0
 11
257.67507066524098
 21
373.23045729116348
 31
0.0
  0
LINE
  5
37DF3
  8
0
 10
347.75775291716639
 20
375.23045729116348
 30
0.0
 11
337.09238841331558
 21
375.23045729116348
 31
0.0
  0
LINE
  5
37DF4
  8
0
 10
302.92399714527249
 20
375.23045729116348
 30
0.0
 11
257.67507066524098
 21
375.23045729116348
 31
0.0
  0
LINE
  5
37DFA
  8
1
 10
247.5099269330949
 20
189.74368873142251
 30
0.0
 11
367.34021439738717
 21
189.74368873142251
 31
0.0
  0
LINE
  5
37DFB
  8
1
 10
307.42507066524098
 20
129.82854499927629
 30
0.0
 11
307.42507066524098
 21
249.65883246356859
 31
0.0
  0
LINE
  5
37DFC
  8
1
 10
451.04711620239311
 20
189.74368873142251
 30
0.0
 11
539.24305856288993
 21
189.74368873142251
 31
0.0
  0
LINE
  5
37DFD
  8
1
 10
495.14508738264158
 20
129.82854499927629
 30
0.0
 11
495.14508738264158
 21
280.1940242995388
 31
0.0
  0
LINE
  5
37DFE
  8
1
 10
342.42507066524109
 20
224.8881379552204
 30
0.0
 11
342.42507066524109
 21
280.1940242995388
 31
0.0
  0
ARC
  5
37DFF
  8
0
 10
307.42507066524098
 20
189.74368873142251
 30
0.0
 40
41.952105438837911
 50
100.71034588898711
 51
33.445291624880433
  0
ARC
  5
37E00
  8
0
 10
307.42507066524098
 20
189.74368873142251
 30
0.0
 40
44.856316316513698
 50
99.33574970262778
 51
34.725409276507072
  0
ARC
  5
37E01
  8
0
 10
307.42507066524098
 20
189.74368873142251
 30
0.0
 40
25.0
 50
116.12152695918959
 51
19.23510555275427
  0
ARC
  5
37E02
  8
0
 10
307.42507066524098
 20
189.3890559100837
 30
0.0
 40
29.63169158310231
 50
110.02166102518891
 51
25.413674636468791
  0
ARC
  5
37E03
  8
0
 10
307.42507066524098
 20
189.74368873142251
 30
0.0
 40
40.0
 50
101.7546004025285
 51
32.47382497950106
  0
ARC
  5
37E04
  8
0
 10
307.42507066524098
 20
189.74368873142251
 30
0.0
 40
49.999999999999957
 50
97.313592581307162
 51
36.611084727764698
  0
LINE
  5
37E44
  8
3
 10
304.19207066524092
 20
412.98045729116342
 30
0.0
 11
304.19207066524092
 21
410.98045729116348
 31
0.0
  0
LINE
  5
37E45
  8
3
 10
310.65807066524081
 20
412.98045729116342
 30
0.0
 11
310.65807066524081
 21
410.98045729116348
 31
0.0
  0
LINE
  5
37E48
  8
3
 10
530.14508738264146
 20
192.9766887314226
 30
0.0
 11
528.14508738264158
 21
192.9766887314226
 31
0.0
  0
LINE
  5
37E49
  8
3
 10
530.14508738264146
 20
186.51068873142319
 30
0.0
 11
528.14508738264158
 21
186.51068873142319
 31
0.0
  0
LINE
  5
37E4A
  8
0
 10
144.60505394784059
 20
227.74368873142251
 30
0.0
 11
142.2050539478405
 21
227.74368873142251
 31
0.0
  0
LINE
  5
37E4B
  8
0
 10
97.205053947840497
 20
227.74368873142251
 30
0.0
 11
94.805053947840875
 21
227.74368873142251
 31
0.0
  0
LINE
  5
37E4E
  8
0
 10
144.7050539478405
 20
253.94368873142321
 30
0.0
 11
144.7050539478405
 21
184.7342594066931
 31
0.0
  0
LINE
  5
37E4F
  8
0
 10
94.705053947840497
 20
253.94368873142321
 30
0.0
 11
144.7050539478405
 21
253.94368873142321
 31
0.0
  0
LINE
  5
37E50
  8
0
 10
94.705053947840497
 20
184.7342594066931
 30
0.0
 11
94.705053947840497
 21
253.94368873142321
 31
0.0
  0
LINE
  5
37E51
  8
0
 10
86.705053947840483
 20
212.85819616578641
 30
0.0
 11
86.705053947840483
 21
255.94368873142321
 31
0.0
  0
LINE
  5
37E52
  8
0
 10
152.7050539478405
 20
255.94368873142321
 30
0.0
 11
152.7050539478405
 21
212.85819616578641
 31
0.0
  0
ARC
  5
37E55
  8
0
 10
147.73005394784059
 20
261.44368873142321
 30
0.0
 40
2.9999999999999849
 50
0.0
 51
90.0
  0
ARC
  5
37E56
  8
0
 10
91.680053947840875
 20
261.44368873142321
 30
0.0
 40
2.9999999999999849
 50
90.0
 51
180.0
  0
LINE
  5
37E57
  8
0
 10
88.680053947840861
 20
260.94368873142321
 30
0.0
 11
88.680053947840861
 21
261.44368873142321
 31
0.0
  0
LINE
  5
37E58
  8
0
 10
150.7300539478405
 20
261.44368873142321
 30
0.0
 11
150.7300539478405
 21
260.94368873142321
 31
0.0
  0
ARC
  5
37E59
  8
0
 10
152.2050539478405
 20
256.94368873142321
 30
0.0
 40
4.0000000000000142
 50
0.0
 51
90.0
  0
ARC
  5
37E5A
  8
0
 10
87.205053947840497
 20
256.94368873142321
 30
0.0
 40
4.0000000000000142
 50
90.0
 51
180.0
  0
LINE
  5
37E5B
  8
0
 10
83.205053947840483
 20
255.94368873142321
 30
0.0
 11
83.205053947840483
 21
256.94368873142321
 31
0.0
  0
LINE
  5
37E5C
  8
0
 10
156.2050539478405
 20
256.94368873142321
 30
0.0
 11
156.2050539478405
 21
255.94368873142321
 31
0.0
  0
LINE
  5
37E5D
  8
0
 10
144.7050539478405
 20
179.74368873142251
 30
0.0
 11
144.7050539478405
 21
184.7342594066931
 31
0.0
  0
LINE
  5
37E5E
  8
0
 10
94.705053947840497
 20
184.7342594066931
 30
0.0
 11
94.705053947840497
 21
179.74368873142251
 31
0.0
  0
LINE
  5
37E5F
  8
0
 10
144.7050539478405
 20
179.74368873142251
 30
0.0
 11
142.2050539478405
 21
179.74368873142251
 31
0.0
  0
LINE
  5
37E60
  8
0
 10
97.205053947840497
 20
179.74368873142251
 30
0.0
 11
94.705053947840497
 21
179.74368873142251
 31
0.0
  0
LINE
  5
37E61
  8
0
 10
142.2050539478405
 20
179.74368873142251
 30
0.0
 11
142.2050539478409
 21
250.24368873142251
 31
0.0
  0
LINE
  5
37E62
  8
0
 10
97.205053947840966
 20
250.24368873142251
 30
0.0
 11
97.205053947840497
 21
179.74368873142251
 31
0.0
  0
POLYLINE
  5
37E63
  8
0
 66
     1
 10
0.0
 20
0.0
 30
0.0
  0
VERTEX
  5
3884C
  8
0
 10
86.705053947840483
 20
212.85819616578641
 30
0.0
  0
VERTEX
  5
3884D
  8
0
 10
86.711493484542189
 20
212.00706750773409
 30
0.0
  0
VERTEX
  5
3884E
  8
0
 10
86.762994699993669
 20
210.30613875877231
 30
0.0
  0
VERTEX
  5
3884F
  8
0
 10
86.865916740204284
 20
208.60919363741871
 30
0.0
  0
VERTEX
  5
38850
  8
0
 10
86.93661349398235
 20
207.76304305634491
 30
0.0
  0
VERTEX
  5
38851
  8
0
 10
87.020098949272764
 20
206.91888098590519
 30
0.0
  0
VERTEX
  5
38852
  8
0
 10
87.225300656867148
 20
205.2378392935243
 30
0.0
  0
VERTEX
  5
38853
  8
0
 10
87.481201553895986
 20
203.568692578091
 30
0.0
  0
VERTEX
  5
38854
  8
0
 10
87.787402192496756
 20
201.91404628998231
 30
0.0
  0
VERTEX
  5
38855
  8
0
 10
88.143424609549584
 20
200.2764832451731
 30
0.0
  0
VERTEX
  5
38856
  8
0
 10
88.548713072756996
 20
198.65855959358939
 30
0.0
  0
VERTEX
  5
38857
  8
0
 10
88.769637351324491
 20
197.85775306274169
 30
0.0
  0
VERTEX
  5
38858
  8
0
 10
89.002634948107243
 20
197.06280082909871
 30
0.0
  0
VERTEX
  5
38859
  8
0
 10
89.34147229369546
 20
196.00202206475569
 30
0.0
  0
SEQEND
  5
3885A
  8
0
  0
POLYLINE
  5
37E64
  8
0
 66
     1
 10
0.0
 20
0.0
 30
0.0
  0
VERTEX
  5
3885B
  8
0
 10
150.00505394784059
 20
195.80297060423251
 30
0.0
  0
VERTEX
  5
3885C
  8
0
 10
150.40747294757421
 20
197.06280082909871
 30
0.0
  0
VERTEX
  5
3885D
  8
0
 10
150.6404705443565
 20
197.85775306274169
 30
0.0
  0
VERTEX
  5
3885E
  8
0
 10
150.86139482292441
 20
198.65855959358939
 30
0.0
  0
VERTEX
  5
3885F
  8
0
 10
151.26668328613141
 20
200.2764832451731
 30
0.0
  0
VERTEX
  5
38860
  8
0
 10
151.62270570318469
 20
201.91404628998231
 30
0.0
  0
VERTEX
  5
38861
  8
0
 10
151.92890634178551
 20
203.568692578091
 30
0.0
  0
VERTEX
  5
38862
  8
0
 10
152.1848072388143
 20
205.2378392935243
 30
0.0
  0
VERTEX
  5
38863
  8
0
 10
152.3900089464087
 20
206.91888098590519
 30
0.0
  0
VERTEX
  5
38864
  8
0
 10
152.47349440169859
 20
207.76304305634491
 30
0.0
  0
VERTEX
  5
38865
  8
0
 10
152.54419115547711
 20
208.60919363741871
 30
0.0
  0
VERTEX
  5
38866
  8
0
 10
152.64711319568781
 20
210.30613875877231
 30
0.0
  0
VERTEX
  5
38867
  8
0
 10
152.6986144111392
 20
212.00706750773409
 30
0.0
  0
VERTEX
  5
38868
  8
0
 10
152.7050539478405
 20
212.85819616578641
 30
0.0
  0
SEQEND
  5
38869
  8
0
  0
LINE
  5
37E66
  8
0
 10
147.73005394784059
 20
264.44368873142321
 30
0.0
 11
91.680053947840875
 21
264.44368873142321
 31
0.0
  0
LINE
  5
37E67
  8
0
 10
152.2050539478405
 20
260.94368873142321
 30
0.0
 11
87.205053947840497
 21
260.94368873142321
 31
0.0
  0
LINE
  5
37E68
  8
0
 10
156.2050539478405
 20
255.94368873142321
 30
0.0
 11
83.205053947840483
 21
255.94368873142321
 31
0.0
  0
LINE
  5
37E69
  8
0
 10
144.7050539478405
 20
195.55868873142299
 30
0.0
 11
145.3050539478408
 21
195.55868873142299
 31
0.0
  0
POLYLINE
  5
37E6A
  8
0
 66
     1
 10
0.0
 20
0.0
 30
0.0
  0
VERTEX
  5
3886A
  8
0
 10
149.74563423842531
 20
196.00202206475569
 30
0.0
  0
VERTEX
  5
3886B
  8
0
 10
149.82647889168311
 20
195.4398435866415
 30
0.0
  0
VERTEX
  5
3886C
  8
0
 10
149.94108923043629
 20
194.38405369391691
 30
0.0
  0
VERTEX
  5
3886D
  8
0
 10
149.99786381422061
 20
193.37529315000481
 30
0.0
  0
VERTEX
  5
3886E
  8
0
 10
150.00505394784059
 20
192.87285539808909
 30
0.0
  0
SEQEND
  5
3886F
  8
0
  0
POLYLINE
  5
37E6B
  8
0
 66
     1
 10
0.0
 20
0.0
 30
0.0
  0
VERTEX
  5
38870
  8
0
 10
145.5644736572562
 20
189.74368873142251
 30
0.0
  0
VERTEX
  5
38871
  8
0
 10
145.483629003998
 20
190.30586720953761
 30
0.0
  0
VERTEX
  5
38872
  8
0
 10
145.36901866524471
 20
191.3616571022612
 30
0.0
  0
VERTEX
  5
38873
  8
0
 10
145.31224408146039
 20
192.37041764617419
 30
0.0
  0
VERTEX
  5
38874
  8
0
 10
145.3050539478408
 20
192.87285539808909
 30
0.0
  0
SEQEND
  5
38875
  8
0
  0
POLYLINE
  5
37E6C
  8
0
 66
     1
 10
0.0
 20
0.0
 30
0.0
  0
VERTEX
  5
38876
  8
0
 10
145.3050539478408
 20
192.87285539808909
 30
0.0
  0
VERTEX
  5
38877
  8
0
 10
145.31224408146039
 20
193.37529315000481
 30
0.0
  0
VERTEX
  5
38878
  8
0
 10
145.36901866524471
 20
194.38405369391691
 30
0.0
  0
VERTEX
  5
38879
  8
0
 10
145.483629003998
 20
195.4398435866415
 30
0.0
  0
VERTEX
  5
3887A
  8
0
 10
145.5644736572562
 20
196.00202206475569
 30
0.0
  0
SEQEND
  5
3887B
  8
0
  0
POLYLINE
  5
37E6D
  8
0
 66
     1
 10
0.0
 20
0.0
 30
0.0
  0
VERTEX
  5
3887C
  8
0
 10
145.5644736572562
 20
183.4853553980893
 30
0.0
  0
VERTEX
  5
3887D
  8
0
 10
145.483629003998
 20
184.0475338762044
 30
0.0
  0
VERTEX
  5
3887E
  8
0
 10
145.36901866524471
 20
185.10332376892799
 30
0.0
  0
VERTEX
  5
3887F
  8
0
 10
145.31224408146039
 20
186.1120843128401
 30
0.0
  0
VERTEX
  5
38880
  8
0
 10
145.3050539478408
 20
186.6145220647559
 30
0.0
  0
SEQEND
  5
38881
  8
0
  0
POLYLINE
  5
37E6E
  8
0
 66
     1
 10
0.0
 20
0.0
 30
0.0
  0
VERTEX
  5
38882
  8
0
 10
145.3050539478408
 20
186.6145220647559
 30
0.0
  0
VERTEX
  5
38883
  8
0
 10
145.31224408146039
 20
187.1169598166716
 30
0.0
  0
VERTEX
  5
38884
  8
0
 10
145.36901866524471
 20
188.1257203605837
 30
0.0
  0
VERTEX
  5
38885
  8
0
 10
145.483629003998
 20
189.1815102533082
 30
0.0
  0
VERTEX
  5
38886
  8
0
 10
145.5644736572562
 20
189.74368873142251
 30
0.0
  0
SEQEND
  5
38887
  8
0
  0
LINE
  5
37E6F
  8
0
 10
145.3050539478408
 20
196.00202206475569
 30
0.0
 11
150.00505394784059
 21
196.00202206475569
 31
0.0
  0
POLYLINE
  5
37E70
  8
0
 66
     1
 10
0.0
 20
0.0
 30
0.0
  0
VERTEX
  5
38888
  8
0
 10
94.4456342384251
 20
196.00202206475569
 30
0.0
  0
VERTEX
  5
38889
  8
0
 10
94.526478891683368
 20
195.4398435866415
 30
0.0
  0
VERTEX
  5
3888A
  8
0
 10
94.641089230436577
 20
194.38405369391691
 30
0.0
  0
VERTEX
  5
3888B
  8
0
 10
94.697863814220909
 20
193.37529315000481
 30
0.0
  0
VERTEX
  5
3888C
  8
0
 10
94.705053947840497
 20
192.87285539808909
 30
0.0
  0
SEQEND
  5
3888D
  8
0
  0
POLYLINE
  5
37E71
  8
0
 66
     1
 10
0.0
 20
0.0
 30
0.0
  0
VERTEX
  5
3888E
  8
0
 10
94.705053947840497
 20
192.87285539808909
 30
0.0
  0
VERTEX
  5
3888F
  8
0
 10
94.697863814220909
 20
192.37041764617419
 30
0.0
  0
VERTEX
  5
38890
  8
0
 10
94.641089230436577
 20
191.3616571022612
 30
0.0
  0
VERTEX
  5
38891
  8
0
 10
94.526478891683368
 20
190.30586720953761
 30
0.0
  0
VERTEX
  5
38892
  8
0
 10
94.4456342384251
 20
189.74368873142251
 30
0.0
  0
SEQEND
  5
38893
  8
0
  0
POLYLINE
  5
37E72
  8
0
 66
     1
 10
0.0
 20
0.0
 30
0.0
  0
VERTEX
  5
38894
  8
0
 10
89.205053947840483
 20
192.87285539808909
 30
0.0
  0
VERTEX
  5
38895
  8
0
 10
89.21224408146054
 20
193.37529315000481
 30
0.0
  0
VERTEX
  5
38896
  8
0
 10
89.269018665244857
 20
194.38405369391691
 30
0.0
  0
VERTEX
  5
38897
  8
0
 10
89.383629003998067
 20
195.4398435866415
 30
0.0
  0
VERTEX
  5
38898
  8
0
 10
89.464473657256349
 20
196.00202206475569
 30
0.0
  0
SEQEND
  5
38899
  8
0
  0
POLYLINE
  5
37E73
  8
0
 66
     1
 10
0.0
 20
0.0
 30
0.0
  0
VERTEX
  5
3889A
  8
0
 10
94.4456342384251
 20
189.74368873142251
 30
0.0
  0
VERTEX
  5
3889B
  8
0
 10
94.526478891683368
 20
189.1815102533082
 30
0.0
  0
VERTEX
  5
3889C
  8
0
 10
94.641089230436577
 20
188.1257203605837
 30
0.0
  0
VERTEX
  5
3889D
  8
0
 10
94.697863814220909
 20
187.1169598166716
 30
0.0
  0
VERTEX
  5
3889E
  8
0
 10
94.705053947840497
 20
186.6145220647559
 30
0.0
  0
SEQEND
  5
3889F
  8
0
  0
POLYLINE
  5
37E74
  8
0
 66
     1
 10
0.0
 20
0.0
 30
0.0
  0
VERTEX
  5
388A0
  8
0
 10
94.705053947840497
 20
186.6145220647559
 30
0.0
  0
VERTEX
  5
388A1
  8
0
 10
94.697863814220909
 20
186.1120843128401
 30
0.0
  0
VERTEX
  5
388A2
  8
0
 10
94.641089230436577
 20
185.10332376892799
 30
0.0
  0
VERTEX
  5
388A3
  8
0
 10
94.526478891683368
 20
184.0475338762044
 30
0.0
  0
VERTEX
  5
388A4
  8
0
 10
94.4456342384251
 20
183.4853553980893
 30
0.0
  0
SEQEND
  5
388A5
  8
0
  0
LINE
  5
37E75
  8
0
 10
89.205053947840483
 20
196.00202206475569
 30
0.0
 11
94.705053947840497
 21
196.00202206475569
 31
0.0
  0
LINE
  5
37E76
  8
0
 10
145.3050539478408
 20
183.9286887314228
 30
0.0
 11
144.7050539478405
 21
183.9286887314228
 31
0.0
  0
LINE
  5
37E77
  8
0
 10
85.472053947840763
 20
193.74368873142251
 30
0.0
 11
86.705053947840483
 21
193.74368873142251
 31
0.0
  0
LINE
  5
37E78
  8
0
 10
86.705053947840483
 20
185.74368873142251
 30
0.0
 11
85.472053947840763
 21
185.74368873142251
 31
0.0
  0
LINE
  5
37E79
  8
0
 10
84.705053947840497
 20
192.9766887314226
 30
0.0
 11
85.472053947840763
 21
193.74368873142251
 31
0.0
  0
LINE
  5
37E7A
  8
0
 10
85.472053947840763
 20
185.74368873142251
 30
0.0
 11
84.705053947840497
 21
186.51068873142231
 31
0.0
  0
LINE
  5
37E7B
  8
0
 10
97.205053947840497
 20
193.74368873142251
 30
0.0
 11
99.705053947840497
 21
193.74368873142251
 31
0.0
  0
LINE
  5
37E7C
  8
0
 10
99.705053947840497
 20
185.74368873142251
 30
0.0
 11
97.205053947840497
 21
185.74368873142251
 31
0.0
  0
LINE
  5
37E7D
  8
0
 10
86.705053947840483
 20
195.55868873142299
 30
0.0
 11
89.205053947840483
 21
195.55868873142299
 31
0.0
  0
LINE
  5
37E7E
  8
0
 10
89.205053947840483
 20
183.9286887314228
 30
0.0
 11
86.705053947840483
 21
183.9286887314228
 31
0.0
  0
LINE
  5
37E7F
  8
0
 10
139.7050539478405
 20
193.74368873142251
 30
0.0
 11
142.2050539478405
 21
193.74368873142251
 31
0.0
  0
LINE
  5
37E80
  8
0
 10
142.2050539478405
 20
185.74368873142251
 30
0.0
 11
139.7050539478405
 21
185.74368873142251
 31
0.0
  0
LINE
  5
37E81
  8
0
 10
99.705053947840497
 20
195.74368873142251
 30
0.0
 11
104.7050539478405
 21
195.74368873142251
 31
0.0
  0
LINE
  5
37E82
  8
0
 10
134.7050539478405
 20
195.74368873142251
 30
0.0
 11
139.7050539478405
 21
195.74368873142251
 31
0.0
  0
LINE
  5
37E83
  8
0
 10
139.7050539478405
 20
183.74368873142251
 30
0.0
 11
134.7050539478405
 21
183.74368873142251
 31
0.0
  0
LINE
  5
37E84
  8
0
 10
104.7050539478405
 20
183.74368873142251
 30
0.0
 11
99.705053947840497
 21
183.74368873142251
 31
0.0
  0
LINE
  5
37E85
  8
0
 10
85.472053947840763
 20
185.74368873142251
 30
0.0
 11
85.472053947840763
 21
193.74368873142251
 31
0.0
  0
LINE
  5
37E86
  8
0
 10
84.705053947840497
 20
186.51068873142231
 30
0.0
 11
84.705053947840497
 21
192.9766887314226
 31
0.0
  0
LINE
  5
37E87
  8
0
 10
150.00505394784059
 20
183.4853553980893
 30
0.0
 11
150.00505394784059
 21
196.00202206475569
 31
0.0
  0
LINE
  5
37E88
  8
0
 10
145.3050539478408
 20
183.4853553980893
 30
0.0
 11
145.3050539478408
 21
196.00202206475569
 31
0.0
  0
LINE
  5
37E89
  8
0
 10
150.00505394784059
 20
183.4853553980893
 30
0.0
 11
145.3050539478408
 21
183.4853553980893
 31
0.0
  0
POLYLINE
  5
37E8A
  8
0
 66
     1
 10
0.0
 20
0.0
 30
0.0
  0
VERTEX
  5
388A6
  8
0
 10
149.74563423842531
 20
189.74368873142251
 30
0.0
  0
VERTEX
  5
388A7
  8
0
 10
149.82647889168311
 20
190.30586720953761
 30
0.0
  0
VERTEX
  5
388A8
  8
0
 10
149.94108923043629
 20
191.3616571022612
 30
0.0
  0
VERTEX
  5
388A9
  8
0
 10
149.99786381422061
 20
192.37041764617419
 30
0.0
  0
VERTEX
  5
388AA
  8
0
 10
150.00505394784059
 20
192.87285539808909
 30
0.0
  0
SEQEND
  5
388AB
  8
0
  0
POLYLINE
  5
37E8B
  8
0
 66
     1
 10
0.0
 20
0.0
 30
0.0
  0
VERTEX
  5
388AC
  8
0
 10
149.74563423842531
 20
183.4853553980893
 30
0.0
  0
VERTEX
  5
388AD
  8
0
 10
149.82647889168311
 20
184.0475338762044
 30
0.0
  0
VERTEX
  5
388AE
  8
0
 10
149.94108923043629
 20
185.10332376892799
 30
0.0
  0
VERTEX
  5
388AF
  8
0
 10
149.99786381422061
 20
186.1120843128401
 30
0.0
  0
VERTEX
  5
388B0
  8
0
 10
150.00505394784059
 20
186.6145220647559
 30
0.0
  0
SEQEND
  5
388B1
  8
0
  0
POLYLINE
  5
37E8C
  8
0
 66
     1
 10
0.0
 20
0.0
 30
0.0
  0
VERTEX
  5
388B2
  8
0
 10
150.00505394784059
 20
186.6145220647559
 30
0.0
  0
VERTEX
  5
388B3
  8
0
 10
149.99786381422061
 20
187.1169598166716
 30
0.0
  0
VERTEX
  5
388B4
  8
0
 10
149.94108923043629
 20
188.1257203605837
 30
0.0
  0
VERTEX
  5
388B5
  8
0
 10
149.82647889168311
 20
189.1815102533082
 30
0.0
  0
VERTEX
  5
388B6
  8
0
 10
149.74563423842531
 20
189.74368873142251
 30
0.0
  0
SEQEND
  5
388B7
  8
0
  0
LINE
  5
37E8D
  8
0
 10
149.74563423842531
 20
189.74368873142251
 30
0.0
 11
145.5644736572562
 21
189.74368873142251
 31
0.0
  0
LINE
  5
37E8E
  8
0
 10
86.705053947840483
 20
183.9286887314228
 30
0.0
 11
86.705053947840483
 21
195.55868873142299
 31
0.0
  0
LINE
  5
37E8F
  8
0
 10
89.205053947840483
 20
183.4853553980893
 30
0.0
 11
89.205053947840483
 21
196.00202206475569
 31
0.0
  0
LINE
  5
37E90
  8
0
 10
94.705053947840497
 20
183.4853553980893
 30
0.0
 11
89.205053947840483
 21
183.4853553980893
 31
0.0
  0
POLYLINE
  5
37E91
  8
0
 66
     1
 10
0.0
 20
0.0
 30
0.0
  0
VERTEX
  5
388B8
  8
0
 10
89.205053947840483
 20
192.87285539808909
 30
0.0
  0
VERTEX
  5
388B9
  8
0
 10
89.21224408146054
 20
192.37041764617419
 30
0.0
  0
VERTEX
  5
388BA
  8
0
 10
89.269018665244857
 20
191.3616571022612
 30
0.0
  0
VERTEX
  5
388BB
  8
0
 10
89.383629003998067
 20
190.30586720953761
 30
0.0
  0
VERTEX
  5
388BC
  8
0
 10
89.464473657256349
 20
189.74368873142251
 30
0.0
  0
SEQEND
  5
388BD
  8
0
  0
POLYLINE
  5
37E92
  8
0
 66
     1
 10
0.0
 20
0.0
 30
0.0
  0
VERTEX
  5
388BE
  8
0
 10
89.205053947840483
 20
186.6145220647559
 30
0.0
  0
VERTEX
  5
388BF
  8
0
 10
89.21224408146054
 20
186.1120843128401
 30
0.0
  0
VERTEX
  5
388C0
  8
0
 10
89.269018665244857
 20
185.10332376892799
 30
0.0
  0
VERTEX
  5
388C1
  8
0
 10
89.383629003998067
 20
184.0475338762044
 30
0.0
  0
VERTEX
  5
388C2
  8
0
 10
89.464473657256349
 20
183.4853553980893
 30
0.0
  0
SEQEND
  5
388C3
  8
0
  0
LINE
  5
37E93
  8
0
 10
94.4456342384251
 20
189.74368873142251
 30
0.0
 11
89.464473657256349
 21
189.74368873142251
 31
0.0
  0
POLYLINE
  5
37E94
  8
0
 66
     1
 10
0.0
 20
0.0
 30
0.0
  0
VERTEX
  5
388C4
  8
0
 10
89.464473657256349
 20
189.74368873142251
 30
0.0
  0
VERTEX
  5
388C5
  8
0
 10
89.383629003998067
 20
189.1815102533082
 30
0.0
  0
VERTEX
  5
388C6
  8
0
 10
89.269018665244857
 20
188.1257203605837
 30
0.0
  0
VERTEX
  5
388C7
  8
0
 10
89.21224408146054
 20
187.1169598166716
 30
0.0
  0
VERTEX
  5
388C8
  8
0
 10
89.205053947840483
 20
186.6145220647559
 30
0.0
  0
SEQEND
  5
388C9
  8
0
  0
LINE
  5
37E95
  8
0
 10
139.7050539478405
 20
183.74368873142251
 30
0.0
 11
139.7050539478405
 21
195.74368873142251
 31
0.0
  0
LINE
  5
37E96
  8
0
 10
99.705053947840497
 20
183.74368873142251
 30
0.0
 11
99.705053947840497
 21
195.74368873142251
 31
0.0
  0
LINE
  5
37E97
  8
0
 10
122.7050539478405
 20
139.74368873142251
 30
0.0
 11
116.7050539478405
 21
139.74368873142251
 31
0.0
  0
ARC
  5
37E98
  8
0
 10
116.7050539478405
 20
140.04368873142261
 30
0.0
 40
0.3000000000000185
 50
180.0
 51
270.0
  0
LINE
  5
37E99
  8
0
 10
116.4050539478407
 20
140.04368873142261
 30
0.0
 11
114.00505394784069
 21
140.04368873142261
 31
0.0
  0
ARC
  5
37E9A
  8
0
 10
113.7050539478405
 20
140.04368873142261
 30
0.0
 40
0.2999999999999998
 50
270.0
 51
0.0
  0
LINE
  5
37E9B
  8
0
 10
113.7050539478405
 20
139.74368873142251
 30
0.0
 11
112.30489928153111
 21
139.74368873142251
 31
0.0
  0
ARC
  5
37E9C
  8
0
 10
112.30489928153111
 20
140.74368873142251
 30
0.0
 40
1.0000000000000211
 50
198.99999999998761
 51
270.0
  0
LINE
  5
37E9D
  8
0
 10
111.3593807059314
 20
140.41812057696549
 30
0.0
 11
110.3117743539392
 21
143.46059033994419
 31
0.0
  0
ARC
  5
37E9E
  8
0
 10
113.1483300807372
 20
144.4372948033151
 30
0.0
 40
3.0000000000000022
 50
180.0
 51
198.99999999998761
  0
ARC
  5
37EA0
  8
0
 10
109.6483300807372
 20
145.3873724149089
 30
0.0
 40
0.5
 50
180.0
 51
0.0
  0
ARC
  5
37EA2
  8
0
 10
108.6483300807372
 20
148.29158329258459
 30
0.0
 40
0.5
 50
180.0
 51
0.0
  0
ARC
  5
37EA3
  8
0
 10
108.6483300807372
 20
231.19579417026031
 30
0.0
 40
0.5
 50
0.0
 51
180.0
  0
LINE
  5
37EA4
  8
0
 10
104.8684982210425
 20
220.21836536755021
 30
0.0
 11
108.1483300807372
 21
229.74368873142251
 31
0.0
  0
LINE
  5
37EA5
  8
0
 10
108.1483300807372
 20
149.74368873142251
 30
0.0
 11
104.8684982210425
 21
159.26901209529569
 31
0.0
  0
ARC
  5
37EA6
  8
0
 10
107.7050539478405
 20
160.24571655866649
 30
0.0
 40
2.9999999999999121
 50
180.0
 51
198.99999999998761
  0
ARC
  5
37EA7
  8
0
 10
107.7050539478405
 20
219.24166090417839
 30
0.0
 40
2.9999999999999121
 50
161.00000000001231
 51
180.0
  0
ARC
  5
37EA8
  8
0
 10
131.7050539478405
 20
160.24571655866751
 30
0.0
 40
3.000000000000246
 50
341.00000000001239
 51
0.0
  0
ARC
  5
37EA9
  8
0
 10
131.7050539478405
 20
219.24166090417839
 30
0.0
 40
3.0000000000003491
 50
0.0000008537736463
 51
18.999999999987629
  0
LINE
  5
37EAA
  8
0
 10
131.2617778149442
 20
229.74368873142251
 30
0.0
 11
134.54160967463849
 21
220.21836536755021
 31
0.0
  0
LINE
  5
37EAB
  8
0
 10
134.54160967463849
 20
159.26901209529569
 30
0.0
 11
131.2617778149442
 21
149.74368873142251
 31
0.0
  0
ARC
  5
37EAC
  8
0
 10
130.7617778149442
 20
148.29158329258459
 30
0.0
 40
0.5
 50
180.0
 51
0.0
  0
ARC
  5
37EAD
  8
0
 10
130.7617778149442
 20
231.19579417026031
 30
0.0
 40
0.5
 50
0.0
 51
180.0
  0
ARC
  5
37EAE
  8
0
 10
129.7617778149442
 20
145.3873724149089
 30
0.0
 40
0.5
 50
180.0
 51
0.0
  0
ARC
  5
37EB0
  8
0
 10
126.2617778149442
 20
144.4372948033151
 30
0.0
 40
2.9999999999998561
 50
341.00000000001239
 51
0.0000008537736463
  0
LINE
  5
37EB2
  8
0
 10
129.09833354174179
 20
143.46059033994419
 30
0.0
 11
128.05072718974949
 21
140.41812057696549
 31
0.0
  0
ARC
  5
37EB3
  8
0
 10
127.1052086141503
 20
140.74368873142251
 30
0.0
 40
1.0000000000000191
 50
270.0
 51
341.00000000001239
  0
LINE
  5
37EB4
  8
0
 10
127.1052086141503
 20
139.74368873142251
 30
0.0
 11
125.7050539478405
 21
139.74368873142251
 31
0.0
  0
ARC
  5
37EB5
  8
0
 10
125.7050539478405
 20
140.04368873142261
 30
0.0
 40
0.3000000000000043
 50
180.0
 51
270.0
  0
LINE
  5
37EB6
  8
0
 10
125.4050539478408
 20
140.04368873142261
 30
0.0
 11
123.00505394784069
 21
140.04368873142261
 31
0.0
  0
ARC
  5
37EB7
  8
0
 10
122.7050539478405
 20
140.04368873142261
 30
0.0
 40
0.2999999999999989
 50
270.0
 51
0.0
  0
LINE
  5
37EB8
  8
0
 10
116.4050539478407
 20
140.04368873142261
 30
0.0
 11
116.40505394784169
 21
239.4436887314223
 31
0.0
  0
LINE
  5
37EB9
  8
0
 10
114.00505394784069
 20
140.04368873142261
 30
0.0
 11
114.0050539478397
 21
239.44368873142321
 31
0.0
  0
LINE
  5
37EBA
  8
0
 10
110.1483300807372
 20
144.4372948033151
 30
0.0
 11
110.1483300807372
 21
235.05008265952981
 31
0.0
  0
LINE
  5
37EBB
  8
0
 10
109.1483300807372
 20
145.3873724149089
 30
0.0
 11
109.1483300807372
 21
234.10000504793609
 31
0.0
  0
LINE
  5
37EBC
  8
0
 10
108.1483300807372
 20
148.29158329258459
 30
0.0
 11
108.1483300807372
 21
231.19579417026031
 31
0.0
  0
LINE
  5
37EBD
  8
0
 10
104.7050539478405
 20
160.24571655866649
 30
0.0
 11
104.7050539478405
 21
219.24166090417839
 31
0.0
  0
LINE
  5
37EBE
  8
0
 10
134.7050539478405
 20
160.24571655866649
 30
0.0
 11
134.7050539478405
 21
219.24166090417839
 31
0.0
  0
LINE
  5
37EBF
  8
0
 10
131.2617778149442
 20
148.29158329258459
 30
0.0
 11
131.2617778149442
 21
231.19579417026031
 31
0.0
  0
LINE
  5
37EC0
  8
0
 10
130.2617778149442
 20
145.3873724149089
 30
0.0
 11
130.2617778149442
 21
234.10000504793609
 31
0.0
  0
LINE
  5
37EC1
  8
0
 10
129.2617778149442
 20
144.4372948033151
 30
0.0
 11
129.2617778149442
 21
235.05008265952981
 31
0.0
  0
LINE
  5
37EC2
  8
0
 10
125.4050539478408
 20
140.04368873142261
 30
0.0
 11
125.4050539478408
 21
239.44368873142321
 31
0.0
  0
LINE
  5
37EC3
  8
0
 10
123.00505394784069
 20
140.04368873142261
 30
0.0
 11
123.0050539478416
 21
239.44368873142321
 31
0.0
  0
LINE
  5
37ECA
  8
3
 10
84.705053947840497
 20
186.51068873142231
 30
0.0
 11
86.705053947840483
 21
186.51068873142231
 31
0.0
  0
LINE
  5
37ECB
  8
3
 10
84.705053947840497
 20
192.9766887314226
 30
0.0
 11
86.705053947840483
 21
192.9766887314226
 31
0.0
  0
LINE
  5
37ECC
  8
1
 10
163.80302512808879
 20
189.74368873142251
 30
0.0
 11
75.607082767592146
 21
189.74368873142251
 31
0.0
  0
LINE
  5
37ECD
  8
1
 10
119.7050539478405
 20
129.82854499927629
 30
0.0
 11
119.7050539478405
 21
280.1940242995388
 31
0.0
  0
LINE
  5
37ED6
  8
0
 10
116.7050539478405
 20
239.74368873142251
 30
0.0
 11
122.7050539478405
 21
239.74368873142251
 31
0.0
  0
ARC
  5
37ED7
  8
0
 10
116.7050539478405
 20
239.4436887314223
 30
0.0
 40
0.3000000000000136
 50
90.0
 51
180.0
  0
LINE
  5
37ED8
  8
0
 10
114.00505394784069
 20
239.44368873142321
 30
0.0
 11
116.4050539478407
 21
239.44368873142321
 31
0.0
  0
ARC
  5
37ED9
  8
0
 10
113.7050539478405
 20
239.44368873142321
 30
0.0
 40
0.2999999999999971
 50
0.0
 51
90.0
  0
LINE
  5
37EDA
  8
0
 10
112.30489928153111
 20
239.74368873142251
 30
0.0
 11
113.7050539478405
 21
239.74368873142251
 31
0.0
  0
ARC
  5
37EDB
  8
0
 10
112.30489928153111
 20
238.74368873142251
 30
0.0
 40
1.0000000000000191
 50
90.0
 51
161.00000000001231
  0
LINE
  5
37EDC
  8
0
 10
110.3117743539392
 20
236.0267871229016
 30
0.0
 11
111.3593807059314
 21
239.06925688588041
 31
0.0
  0
ARC
  5
37EDD
  8
0
 10
113.14833008073759
 20
235.05008265952981
 30
0.0
 40
3.000000000000087
 50
161.00000000001231
 51
180.0
  0
ARC
  5
37EDE
  8
0
 10
109.6483300807372
 20
234.10000504793609
 30
0.0
 40
0.5
 50
0.0
 51
180.0
  0
ARC
  5
37EDF
  8
0
 10
108.6483300807372
 20
231.19579417026031
 30
0.0
 40
0.5
 50
0.0
 51
180.0
  0
ARC
  5
37EE0
  8
0
 10
130.7617778149442
 20
231.19579417026031
 30
0.0
 40
0.5
 50
0.0
 51
180.0
  0
ARC
  5
37EE1
  8
0
 10
129.7617778149442
 20
234.10000504793609
 30
0.0
 40
0.5
 50
0.0
 51
180.0
  0
ARC
  5
37EE2
  8
0
 10
126.2617778149442
 20
235.05008265952981
 30
0.0
 40
2.9999999999998561
 50
0.0
 51
18.999999999987629
  0
LINE
  5
37EE3
  8
0
 10
128.05072718974949
 20
239.06925688588041
 30
0.0
 11
129.09833354174179
 21
236.0267871229016
 31
0.0
  0
ARC
  5
37EE4
  8
0
 10
127.1052086141503
 20
238.74368873142251
 30
0.0
 40
1.0000000000000211
 50
18.999999999987629
 51
90.0
  0
LINE
  5
37EE5
  8
0
 10
125.7050539478405
 20
239.74368873142251
 30
0.0
 11
127.1052086141503
 21
239.74368873142251
 31
0.0
  0
ARC
  5
37EE6
  8
0
 10
125.7050539478405
 20
239.44368873142321
 30
0.0
 40
0.3000000000000016
 50
90.0
 51
180.0
  0
LINE
  5
37EE7
  8
0
 10
123.00505394784069
 20
239.44368873142321
 30
0.0
 11
125.4050539478408
 21
239.44368873142321
 31
0.0
  0
ARC
  5
37EE8
  8
0
 10
122.7050539478405
 20
239.44368873142321
 30
0.0
 40
0.2999999999999971
 50
0.0
 51
90.0
  0
LINE
  5
37EE9
  8
0
 10
142.2050539478409
 20
250.24368873142251
 30
0.0
 11
97.205053947840966
 21
250.24368873142251
 31
0.0
  0
POLYLINE
  5
37EEB
  8
0
 66
     1
 10
0.0
 20
0.0
 30
0.0
  0
VERTEX
  5
388CA
  8
0
 10
142.2050539478405
 20
239.74203817670789
 30
0.0
  0
VERTEX
  5
388CB
  8
0
 10
142.1920127205494
 20
239.7611711495156
 30
0.0
  0
VERTEX
  5
388CC
  8
0
 10
141.58319440367899
 20
240.60370105727449
 30
0.0
  0
VERTEX
  5
388CD
  8
0
 10
141.2718107740302
 20
241.0162064960796
 30
0.0
  0
VERTEX
  5
388CE
  8
0
 10
140.95586499576569
 20
241.42275549790699
 30
0.0
  0
VERTEX
  5
388CF
  8
0
 10
140.31055528011851
 20
242.21764146958409
 30
0.0
  0
VERTEX
  5
388D0
  8
0
 10
139.64781125318129
 20
242.9876864194166
 30
0.0
  0
VERTEX
  5
388D1
  8
0
 10
138.96819366256699
 20
243.73223881249851
 30
0.0
  0
VERTEX
  5
388D2
  8
0
 10
138.27227753260649
 20
244.45066868317281
 30
0.0
  0
VERTEX
  5
388D3
  8
0
 10
137.5606516778239
 20
245.1423681680435
 30
0.0
  0
VERTEX
  5
388D4
  8
0
 10
137.19913525654741
 20
245.47801022903971
 30
0.0
  0
VERTEX
  5
388D5
  8
0
 10
136.83391820473699
 20
245.80675202029121
 30
0.0
  0
VERTEX
  5
388D6
  8
0
 10
136.092692002419
 20
246.4432581048477
 30
0.0
  0
VERTEX
  5
388D7
  8
0
 10
135.33760022223669
 20
247.0513478740186
 30
0.0
  0
VERTEX
  5
388D8
  8
0
 10
134.56928174722179
 20
247.6305068231504
 30
0.0
  0
VERTEX
  5
388D9
  8
0
 10
133.7883866515094
 20
248.1802449259512
 30
0.0
  0
VERTEX
  5
388DA
  8
0
 10
132.99557565031131
 20
248.7000970491035
 30
0.0
  0
VERTEX
  5
388DB
  8
0
 10
132.5949109309322
 20
248.94867741810961
 30
0.0
  0
VERTEX
  5
388DC
  8
0
 10
132.1915195408865
 20
249.18962334581099
 30
0.0
  0
VERTEX
  5
388DD
  8
0
 10
131.37689863497599
 20
249.64840962795461
 30
0.0
  0
VERTEX
  5
388DE
  8
0
 10
130.55240218319429
 20
250.07606771653539
 30
0.0
  0
VERTEX
  5
388DF
  8
0
 10
130.1996696841988
 20
250.24368873142251
 30
0.0
  0
SEQEND
  5
388E0
  8
0
  0
POLYLINE
  5
37EEC
  8
0
 66
     1
 10
0.0
 20
0.0
 30
0.0
  0
VERTEX
  5
388E1
  8
0
 10
109.2104382114826
 20
250.24368873142251
 30
0.0
  0
VERTEX
  5
388E2
  8
0
 10
108.8577057124871
 20
250.07606771653539
 30
0.0
  0
VERTEX
  5
388E3
  8
0
 10
108.03320926070541
 20
249.64840962795461
 30
0.0
  0
VERTEX
  5
388E4
  8
0
 10
107.218588354795
 20
249.18962334581099
 30
0.0
  0
VERTEX
  5
388E5
  8
0
 10
106.81519696474921
 20
248.94867741810961
 30
0.0
  0
VERTEX
  5
388E6
  8
0
 10
106.4145322453696
 20
248.7000970491035
 30
0.0
  0
VERTEX
  5
388E7
  8
0
 10
105.62172124417199
 20
248.1802449259512
 30
0.0
  0
VERTEX
  5
388E8
  8
0
 10
104.8408261484596
 20
247.6305068231504
 30
0.0
  0
VERTEX
  5
388E9
  8
0
 10
104.0725076734447
 20
247.0513478740186
 30
0.0
  0
VERTEX
  5
388EA
  8
0
 10
103.31741589326251
 20
246.4432581048477
 30
0.0
  0
VERTEX
  5
388EB
  8
0
 10
102.5761896909443
 20
245.80675202029121
 30
0.0
  0
VERTEX
  5
388EC
  8
0
 10
102.2109726391336
 20
245.47801022903971
 30
0.0
  0
VERTEX
  5
388ED
  8
0
 10
101.84945621785749
 20
245.1423681680435
 30
0.0
  0
VERTEX
  5
388EE
  8
0
 10
101.1378303630745
 20
244.45066868317281
 30
0.0
  0
VERTEX
  5
388EF
  8
0
 10
100.4419142331144
 20
243.73223881249851
 30
0.0
  0
VERTEX
  5
388F0
  8
0
 10
99.762296642500132
 20
242.9876864194166
 30
0.0
  0
VERTEX
  5
388F1
  8
0
 10
99.099552615562985
 20
242.21764146958409
 30
0.0
  0
VERTEX
  5
388F2
  8
0
 10
98.454242899915684
 20
241.42275549790699
 30
0.0
  0
VERTEX
  5
388F3
  8
0
 10
98.138297121650794
 20
241.0162064960796
 30
0.0
  0
VERTEX
  5
388F4
  8
0
 10
97.826913492002404
 20
240.60370105727449
 30
0.0
  0
VERTEX
  5
388F5
  8
0
 10
97.218095175132021
 20
239.7611711495156
 30
0.0
  0
VERTEX
  5
388F6
  8
0
 10
97.205053947840966
 20
239.74203817670789
 30
0.0
  0
SEQEND
  5
388F7
  8
0
  0
LINE
  5
38435
  8
3
 10
517.64508738264146
 20
192.9766887314226
 30
0.0
 11
515.14508738264158
 21
192.9766887314226
 31
0.0
  0
LINE
  5
38436
  8
3
 10
517.64508738264146
 20
186.51068873142231
 30
0.0
 11
515.14508738264158
 21
186.51068873142231
 31
0.0
  0
LINE
  5
38437
  8
3
 10
475.14508738264152
 20
192.9766887314226
 30
0.0
 11
472.64508738264152
 21
192.9766887314226
 31
0.0
  0
LINE
  5
38438
  8
3
 10
475.14508738264152
 20
186.51068873142231
 30
0.0
 11
472.64508738264152
 21
186.51068873142231
 31
0.0
  0
LINE
  5
38439
  8
3
 10
142.2050539478405
 20
192.9766887314226
 30
0.0
 11
139.7050539478405
 21
192.9766887314226
 31
0.0
  0
LINE
  5
3843A
  8
3
 10
142.2050539478405
 20
186.51068873142231
 30
0.0
 11
139.7050539478405
 21
186.51068873142231
 31
0.0
  0
LINE
  5
3843B
  8
3
 10
99.705053947840497
 20
192.9766887314226
 30
0.0
 11
97.205053947840497
 21
192.9766887314226
 31
0.0
  0
LINE
  5
3843C
  8
3
 10
99.705053947840497
 20
186.51068873142231
 30
0.0
 11
97.205053947840497
 21
186.51068873142231
 31
0.0
  0
TEXT
  5
38498
  8
0
 62
     3
 10
0.0
 20
0.0
 30
0.0
 40
10.0
  1
CAE3-100FBL
  7
STANDARD1
  0
LINE
  5
384BA
  8
0
 10
506.14508738264152
 20
264.44368873142321
 30
0.0
 11
506.14508738264152
 21
267.74368873142248
 31
0.0
  0
LINE
  5
384BB
  8
0
 10
484.14508738264152
 20
267.74368873142248
 30
0.0
 11
484.14508738264152
 21
264.44368873142321
 31
0.0
  0
LINE
  5
384BC
  8
0
 10
484.14508738264152
 20
267.74368873142248
 30
0.0
 11
506.14508738264152
 21
267.74368873142248
 31
0.0
  0
LINE
  5
384BD
  8
0
 10
130.7050539478405
 20
264.44368873142321
 30
0.0
 11
130.7050539478405
 21
267.74368873142248
 31
0.0
  0
LINE
  5
384BE
  8
0
 10
108.7050539478405
 20
267.74368873142248
 30
0.0
 11
108.7050539478405
 21
264.44368873142321
 31
0.0
  0
LINE
  5
384BF
  8
0
 10
108.7050539478405
 20
267.74368873142248
 30
0.0
 11
130.7050539478405
 21
267.74368873142248
 31
0.0
  0
ENDSEC
  0
EOF
