  0
SECTION
  2
HEADER
  9
$ACADVER
  1
AC1009
  9
$INSBASE
 10
0.0
 20
0.0
 30
0.0
  9
$EXTMIN
 10
0.0
 20
-2.960436562073669
 30
0.0
  9
$EXTMAX
 10
578.22301902004119
 20
430.2412676668809
 30
0.0
  9
$LIMMIN
 10
0.0
 20
0.0
  9
$LIMMAX
 10
375.0
 20
270.0
  9
$ORTHOMODE
 70
     1
  9
$REGENMODE
 70
     1
  9
$FILLMODE
 70
     1
  9
$QTEXTMODE
 70
     0
  9
$MIRRTEXT
 70
     1
  9
$DRAGMODE
 70
     2
  9
$LTSCALE
 40
10.0
  9
$OSMODE
 70
    37
  9
$ATTMODE
 70
     1
  9
$TEXTSIZE
 40
5.0
  9
$TRACEWID
 40
0.05
  9
$TEXTSTYLE
  7
STANDARD
  9
$CLAYER
  8
0
  9
$CELTYPE
  6
BYLAYER
  9
$CECOLOR
 62
     6
  9
$DIMSCALE
 40
2.0
  9
$DIMASZ
 40
3.0
  9
$DIMEXO
 40
2.0
  9
$DIMDLI
 40
0.38
  9
$DIMRND
 40
0.0
  9
$DIMDLE
 40
0.0
  9
$DIMEXE
 40
2.0
  9
$DIMTP
 40
0.0
  9
$DIMTM
 40
0.0
  9
$DIMTXT
 40
3.2000000000000002
  9
$DIMCEN
 40
0.0
  9
$DIMTSZ
 40
0.0
  9
$DIMTOL
 70
     0
  9
$DIMLIM
 70
     0
  9
$DIMTIH
 70
     0
  9
$DIMTOH
 70
     0
  9
$DIMSE1
 70
     0
  9
$DIMSE2
 70
     0
  9
$DIMTAD
 70
     1
  9
$DIMZIN
 70
     8
  9
$DIMBLK
  1

  9
$DIMASO
 70
     0
  9
$DIMSHO
 70
     0
  9
$DIMPOST
  1

  9
$DIMAPOST
  1

  9
$DIMALT
 70
     0
  9
$DIMALTD
 70
     2
  9
$DIMALTF
 40
25.399999999999999
  9
$DIMLFAC
 40
1.0
  9
$DIMTOFL
 70
     0
  9
$DIMTVP
 40
1.6000000000000001
  9
$DIMTIX
 70
     1
  9
$DIMSOXD
 70
     0
  9
$DIMSAH
 70
     0
  9
$DIMBLK1
  1

  9
$DIMBLK2
  1

  9
$DIMSTYLE
  2
STANDARD
  9
$DIMCLRD
 70
     0
  9
$DIMCLRE
 70
     0
  9
$DIMCLRT
 70
     0
  9
$DIMTFAC
 40
1.0
  9
$DIMGAP
 40
1.1999999999999991
  9
$LUNITS
 70
     2
  9
$LUPREC
 70
     4
  9
$SKETCHINC
 40
0.1
  9
$FILLETRAD
 40
0.0
  9
$AUNITS
 70
     0
  9
$AUPREC
 70
     4
  9
$MENU
  1
ACAD
  9
$ELEVATION
 40
0.0
  9
$PELEVATION
 40
0.0
  9
$THICKNESS
 40
0.0
  9
$LIMCHECK
 70
     0
  9
$BLIPMODE
 70
     0
  9
$CHAMFERA
 40
0.0
  9
$CHAMFERB
 40
0.0
  9
$SKPOLY
 70
     0
  9
$TDCREATE
 40
2448055.7149187499
  9
$TDUPDATE
 40
2459565.4848512271
  9
$TDINDWG
 40
3.5589601736000001
  9
$TDUSRTIMER
 40
3.5589601736000001
  9
$USRTIMER
 70
     1
  9
$ANGBASE
 50
0.0
  9
$ANGDIR
 70
     0
  9
$PDMODE
 70
     0
  9
$PDSIZE
 40
0.0
  9
$PLINEWID
 40
0.0
  9
$COORDS
 70
     1
  9
$SPLFRAME
 70
     0
  9
$SPLINETYPE
 70
     6
  9
$SPLINESEGS
 70
     8
  9
$ATTDIA
 70
     0
  9
$ATTREQ
 70
     1
  9
$HANDLING
 70
     1
  9
$HANDSEED
  5
39160
  9
$SURFTAB1
 70
     6
  9
$SURFTAB2
 70
     6
  9
$SURFTYPE
 70
     6
  9
$SURFU
 70
     6
  9
$SURFV
 70
     6
  9
$UCSNAME
  2

  9
$UCSORG
 10
0.0
 20
0.0
 30
0.0
  9
$UCSXDIR
 10
1.0
 20
0.0
 30
0.0
  9
$UCSYDIR
 10
0.0
 20
1.0
 30
0.0
  9
$PUCSNAME
  2

  9
$PUCSORG
 10
0.0
 20
0.0
 30
0.0
  9
$PUCSXDIR
 10
1.0
 20
0.0
 30
0.0
  9
$PUCSYDIR
 10
0.0
 20
1.0
 30
0.0
  9
$USERI1
 70
     0
  9
$USERI2
 70
     0
  9
$USERI3
 70
     0
  9
$USERI4
 70
     0
  9
$USERI5
 70
     0
  9
$USERR1
 40
0.0
  9
$USERR2
 40
0.0
  9
$USERR3
 40
0.0
  9
$USERR4
 40
0.0
  9
$USERR5
 40
0.0
  9
$WORLDVIEW
 70
     1
  9
$SHADEDGE
 70
     3
  9
$SHADEDIF
 70
    70
  9
$TILEMODE
 70
     1
  9
$MAXACTVP
 70
    16
  9
$PLIMCHECK
 70
     0
  9
$PEXTMIN
 10
1.0000000000000000E+020
 20
1.0000000000000000E+020
 30
1.0000000000000000E+020
  9
$PEXTMAX
 10
-1.0000000000000000E+020
 20
-1.0000000000000000E+020
 30
-1.0000000000000000E+020
  9
$PLIMMIN
 10
0.0
 20
0.0
  9
$PLIMMAX
 10
12.0
 20
9.0
  9
$UNITMODE
 70
     0
  9
$VISRETAIN
 70
     0
  9
$PLINEGEN
 70
     1
  9
$PSLTSCALE
 70
     0
  0
ENDSEC
  0
SECTION
  2
TABLES
  0
TABLE
  2
VPORT
 70
     1
  0
VPORT
  2
*ACTIVE
 70
     0
 10
0.0
 20
0.0
 11
1.0
 21
1.0
 12
490.87345815701411
 22
213.6435226996127
 13
0.0
 23
0.0
 14
5.0
 24
5.0
 15
10.0
 25
10.0
 16
0.0
 26
0.0
 36
1.0
 17
0.0
 27
0.0
 37
0.0
 40
437.14137308164698
 41
2.3805970149253728
 42
50.0
 43
0.0
 44
0.0
 50
0.0
 51
0.0
 71
     0
 72
   500
 73
     1
 74
     1
 75
     0
 76
     0
 77
     0
 78
     2
  0
ENDTAB
  0
TABLE
  2
LTYPE
 70
     4
  0
LTYPE
  2
CONTINUOUS
 70
     0
  3
実線
 72
    65
 73
     0
 40
0.0
  0
LTYPE
  2
CENTER
 70
     0
  3
____ _ ____ _ ____ _ ____ _ ____ _ ____ _ ____
 72
    65
 73
     4
 40
2.0
 49
1.25
 49
-0.25
 49
0.25
 49
-0.25
  0
LTYPE
  2
HIDDEN
 70
     0
  3
_ _ _ _ _ _ _ _ _ _ _ _ _ _ _ _ _ _ _ _ _ _ _
 72
    65
 73
     2
 40
0.375
 49
0.25
 49
-0.125
  0
LTYPE
  2
PHANTOM2
 70
     0
  3
___ _ _ ___ _ _ ___ _ _ ___ _ _
 72
    65
 73
     6
 40
1.25
 49
0.625
 49
-0.125
 49
0.125
 49
-0.125
 49
0.125
 49
-0.125
  0
ENDTAB
  0
TABLE
  2
LAYER
 70
     5
  0
LAYER
  2
0
 70
     0
 62
     7
  6
CONTINUOUS
  0
LAYER
  2
1
 70
     0
 62
     1
  6
CENTER
  0
LAYER
  2
2
 70
     0
 62
     2
  6
HIDDEN
  0
LAYER
  2
DEFPOINTS
 70
     0
 62
     7
  6
CONTINUOUS
  0
LAYER
  2
3
 70
     0
 62
     3
  6
CONTINUOUS
  0
ENDTAB
  0
TABLE
  2
STYLE
 70
     3
  0
STYLE
  2
STANDARD
 70
     0
 40
0.0
 41
1.0
 50
0.0
 71
     0
 42
5.0
  3
simplex.shx
  4
bigfont.shx
  0
STYLE
  2
07500
 70
     0
 40
0.0
 41
0.75
 50
0.0
 71
     0
 42
0.2
  3
simplex.shx
  4
bigfont.shx
  0
STYLE
  2
STANDARD1
 70
     0
 40
0.0
 41
1.0
 50
0.0
 71
     0
 42
3.0
  3
txt
  4

  0
ENDTAB
  0
TABLE
  2
VIEW
 70
     2
  0
VIEW
  2
ALL
 70
     0
 40
270.0
 10
220.99159663865549
 20
135.0
 41
0.0
 11
0.0
 21
0.0
 31
1.0
 12
0.0
 22
0.0
 32
0.0
 42
0.0
 43
0.0
 44
0.0
 50
0.0
 71
     0
  0
VIEW
  2
OLE1
 70
     0
 40
168.2487151179721
 10
2892.3009567448912
 20
702.51600084347126
 41
162.5749581879237
 11
0.0
 21
0.0
 31
1.0
 12
0.0
 22
0.0
 32
0.0
 42
50.0
 43
0.0
 44
0.0
 50
0.0
 71
     0
  0
ENDTAB
  0
TABLE
  2
UCS
 70
     0
  0
ENDTAB
  0
TABLE
  2
APPID
 70
    48
  0
APPID
  2
ACAD
 70
     0
  0
APPID
  2
DCO15
 70
     0
  0
APPID
  2
GENIUS_GENOREF_13
 70
     0
  0
APPID
  2
GENIUS_GENOENT_13
 70
     0
  0
APPID
  2
GENIUS_GENBH_13
 70
     0
  0
APPID
  2
GENIUS_GENOBJ_13
 70
     0
  0
APPID
  2
GENIUS_GENODEF_13
 70
     0
  0
APPID
  2
GENIUS_GENOLIS_13
 70
     0
  0
APPID
  2
GENIUS_GENOBJ-NBEHI-BHF_13
 70
     0
  0
APPID
  2
GENIUS_GENOBJ-NBEHI-BHB_13
 70
     0
  0
APPID
  2
GENIUS_GENOBJ-F-PART_13
 70
     0
  0
APPID
  2
GENIUS_GEFSTDP_13
 70
     0
  0
APPID
  2
GENIUS_GENOBJ-N-RSSYM_13
 70
     0
  0
APPID
  2
GENIUS_GENSYMENT_13
 70
     0
  0
APPID
  2
GENIUS_GENOBJ-N-TIT_13
 70
     0
  0
APPID
  2
GENIUS_GENTITLE_13
 70
     0
  0
APPID
  2
GENIUS_GENZVEED_13
 70
     0
  0
APPID
  2
GENIUS_GENOBJ-N-LEADER_13
 70
     0
  0
APPID
  2
GENIUS_GENOBJ-N-FIL_13
 70
     0
  0
APPID
  2
GENIUS_GENOBJ-N-SEC_13
 70
     0
  0
APPID
  2
GENIUS_GENOBJ-N-CRS_13
 70
     0
  0
APPID
  2
GENIUS_GENOBJ-N-ZOO_13
 70
     0
  0
APPID
  2
GENIUS_GENZOO_13
 70
     0
  0
APPID
  2
GENIUS_GENOBJ-F-TOL_13
 70
     0
  0
APPID
  2
GENIUS_GENFIL_13
 70
     0
  0
APPID
  2
GENIUS_GENOBJ-N-CHA_13
 70
     0
  0
APPID
  2
_CALL_MAC$
 70
     0
  0
APPID
  2
ASM_BASE
 70
     0
  0
APPID
  2
ASM_EXPLO_VER_2_00
 70
     0
  0
APPID
  2
ASM_CADM_VER_12_00
 70
     0
  0
APPID
  2
ASM_BASEFORO
 70
     0
  0
APPID
  2
ASM_BASETRAVI
 70
     0
  0
APPID
  2
ASM_BASETRAVI1
 70
     0
  0
APPID
  2
ASM_GRUPPI
 70
     0
  0
APPID
  2
ASM_CADM_ALBERO
 70
     0
  0
APPID
  2
ASM_GOLE
 70
     0
  0
APPID
  2
ACAD_MLEADERVER
 70
     0
  0
APPID
  2
ACAD_DSTYLE_DIMJAG
 70
     0
  0
APPID
  2
ACAD_DSTYLE_DIMTALN
 70
     0
  0
APPID
  2
ACAD_EXEMPT_FROM_CAD_STANDARDS
 70
     0
  0
APPID
  2
ACAD_DSTYLE_DIMRADIAL_EXTENSION
 70
     0
  0
APPID
  2
ACAD_PSEXT
 70
     0
  0
APPID
  2
ACAD_DSTYLE_DIMBREAK
 70
     0
  0
APPID
  2
ACAECLAYERSTANDARD
 70
     0
  0
APPID
  2
ACCMTRANSPARENCY
 70
     0
  0
APPID
  2
GRADIENTCOLOR1ACI
 70
     0
  0
APPID
  2
GRADIENTCOLOR2ACI
 70
     0
  0
APPID
  2
ACAD_NAV_VCDISPLAY
 70
     0
  0
ENDTAB
  0
TABLE
  2
DIMSTYLE
 70
     1
  0
DIMSTYLE
  2
STANDARD
 70
     0
  3

  4

  5

  6

  7

 40
1.0
 41
0.18
 42
0.0625
 43
0.38
 44
0.18
 45
0.0
 46
0.0
 47
0.0
 48
0.0
140
0.18
141
0.09
142
0.0
143
25.399999999999999
144
1.0
145
0.0
146
1.0
147
0.09
 71
     0
 72
     0
 73
     1
 74
     1
 75
     0
 76
     0
 77
     0
 78
     0
170
     0
171
     2
172
     0
173
     0
174
     0
175
     0
176
     0
177
     0
178
     0
  0
ENDTAB
  0
ENDSEC
  0
SECTION
  2
BLOCKS
  0
BLOCK
  8
0
  2
$MODEL_SPACE
 70
     0
 10
0.0
 20
0.0
 30
0.0
  3
$MODEL_SPACE
  1

  0
ENDBLK
  5
36
  8
0
  0
BLOCK
 67
     1
  8
0
  2
$PAPER_SPACE
 70
     0
 10
0.0
 20
0.0
 30
0.0
  3
$PAPER_SPACE
  1

  0
ENDBLK
  5
34
 67
     1
  8
0
  0
ENDSEC
  0
SECTION
  2
ENTITIES
  0
LINE
  5
30735
  8
1
 10
383.6414331989331
 20
257.35004277657021
 30
0.0
 11
383.64143319893361
 21
212.79522281807479
 31
0.0
  0
LINE
  5
30736
  8
0
 10
350.6414331989335
 20
234.94368873142051
 30
0.0
 11
350.6414331989335
 21
232.94368873142051
 31
0.0
  0
LINE
  5
30737
  8
0
 10
394.64143319893321
 20
243.44368873142051
 30
0.0
 11
394.64143319893321
 21
246.74368873142069
 31
0.0
  0
LINE
  5
30738
  8
0
 10
372.64143319893321
 20
246.7436887314206
 30
0.0
 11
372.64143319893321
 21
243.44368873142051
 31
0.0
  0
ARC
  5
30739
  8
0
 10
355.61643319893352
 20
240.44368873142051
 30
0.0
 40
2.9999999999999778
 50
90.0
 51
179.99999914622629
  0
ARC
  5
3073A
  8
0
 10
411.66643319893359
 20
240.44368873142051
 30
0.0
 40
2.9999999999999711
 50
0.0
 51
90.0
  0
LINE
  5
3073B
  8
0
 10
414.66643319893359
 20
239.94368873142051
 30
0.0
 11
414.66643319893359
 21
240.44368873142051
 31
0.0
  0
LINE
  5
3073C
  8
0
 10
352.61643319893352
 20
240.44368873142051
 30
0.0
 11
352.61643319893352
 21
239.94368873142051
 31
0.0
  0
ARC
  5
3073D
  8
0
 10
351.14143319893361
 20
235.94368873142051
 30
0.0
 40
4.0000000000000071
 50
90.0
 51
180.0
  0
ARC
  5
3073E
  8
0
 10
416.1414331989335
 20
235.94368873142051
 30
0.0
 40
4.0
 50
0.0
 51
90.0
  0
LINE
  5
3073F
  8
0
 10
420.1414331989335
 20
234.94368873142051
 30
0.0
 11
420.1414331989335
 21
235.94368873142051
 31
0.0
  0
LINE
  5
30740
  8
0
 10
347.14143319893361
 20
235.94368873142051
 30
0.0
 11
347.14143319893361
 21
234.94368873142051
 31
0.0
  0
LINE
  5
30741
  8
0
 10
362.10077397039549
 20
232.94368873142051
 30
0.0
 11
344.1414331989335
 21
232.94368873142051
 31
0.0
  0
LINE
  5
30742
  8
0
 10
344.1414331989335
 20
232.94368873142051
 30
0.0
 11
344.1414331989335
 21
229.2436887314206
 31
0.0
  0
ARC
  5
30743
  8
0
 10
349.34143319893337
 20
179.7436887314206
 30
0.0
 40
9.9999999999999432
 50
270.0
 51
315.9559810988776
  0
LINE
  5
30744
  8
0
 10
339.94143319893368
 20
169.7436887314206
 30
0.0
 11
349.34143319893337
 21
169.7436887314206
 31
0.0
  0
LINE
  5
30745
  8
0
 10
344.1414331989335
 20
229.2436887314206
 30
0.0
 11
330.3513865829255
 21
182.57759167661689
 31
0.0
  0
LINE
  5
30746
  8
0
 10
356.5294921949972
 20
172.79158057136459
 30
0.0
 11
416.6414331989335
 21
234.94368873142051
 31
0.0
  0
ARC
  5
30747
  8
0
 10
339.94143319893368
 20
179.7436887314206
 30
0.0
 40
10.0
 50
163.5373472528054
 51
270.0
  0
LINE
  5
30748
  8
0
 10
332.67475419572429
 20
232.74368873142069
 30
0.0
 11
284.15809369732909
 21
219.74368873142069
 31
0.0
  0
LINE
  5
30749
  8
0
 10
344.1414331989335
 20
232.74368873142069
 30
0.0
 11
332.67475419572429
 21
232.74368873142069
 31
0.0
  0
LINE
  5
3074A
  8
0
 10
287.64143319893361
 20
206.74368873142069
 30
0.0
 11
337.49257956766041
 21
206.74368873142069
 31
0.0
  0
LINE
  5
3074B
  8
0
 10
284.15809369732909
 20
219.74368873142069
 30
0.0
 11
287.64143319893361
 21
206.74368873142069
 31
0.0
  0
LINE
  5
30753
  8
0
 10
362.10077397039549
 20
232.94368873142051
 30
0.0
 11
362.10077397039549
 21
178.55194867313821
 31
0.0
  0
LINE
  5
30754
  8
0
 10
372.64143319893321
 20
246.7436887314206
 30
0.0
 11
394.6414331989331
 21
246.74368873142069
 31
0.0
  0
LINE
  5
30755
  8
0
 10
355.61643319893352
 20
243.44368873142051
 30
0.0
 11
411.66643319893359
 21
243.44368873142051
 31
0.0
  0
LINE
  5
30757
  8
0
 10
351.14143319893361
 20
239.94368873142051
 30
0.0
 11
416.1414331989335
 21
239.94368873142051
 31
0.0
  0
LINE
  5
30759
  8
0
 10
347.14143319893361
 20
234.94368873142051
 30
0.0
 11
420.1414331989335
 21
234.94368873142051
 31
0.0
  0
LINE
  5
30778
  8
0
 10
571.28465716636902
 20
200.82368636537649
 30
0.0
 11
571.28465716636902
 21
234.94368873142051
 31
0.0
  0
LINE
  5
30779
  8
0
 10
505.28465716636902
 20
234.94368873142051
 30
0.0
 11
505.28465716636902
 21
200.82368636537649
 31
0.0
  0
ARC
  5
3077C
  8
0
 10
510.25965716636881
 20
240.44368873142051
 30
0.0
 40
2.9999999999999778
 50
90.0
 51
180.0
  0
ARC
  5
3077D
  8
0
 10
566.30965716636899
 20
240.44368873142051
 30
0.0
 40
2.999999999999992
 50
0.0
 51
90.0
  0
LINE
  5
3077E
  8
0
 10
569.30965716636911
 20
239.94368873142051
 30
0.0
 11
569.30965716636911
 21
240.44368873142051
 31
0.0
  0
LINE
  5
3077F
  8
0
 10
507.25965716636892
 20
240.44368873142051
 30
0.0
 11
507.25965716636892
 21
239.94368873142051
 31
0.0
  0
ARC
  5
30780
  8
0
 10
505.78465716636902
 20
235.94368873142051
 30
0.0
 40
4.0000000000000142
 50
90.0
 51
180.0
  0
ARC
  5
30781
  8
0
 10
570.78465716636902
 20
235.94368873142051
 30
0.0
 40
4.0000000000000142
 50
0.0
 51
90.0
  0
LINE
  5
30782
  8
0
 10
574.78465716636902
 20
234.94368873142051
 30
0.0
 11
574.78465716636902
 21
235.94368873142051
 31
0.0
  0
LINE
  5
30783
  8
0
 10
501.78465716636902
 20
235.94368873142051
 30
0.0
 11
501.78465716636902
 21
234.94368873142051
 31
0.0
  0
LINE
  5
30784
  8
0
 10
513.28465716636902
 20
169.7436887314206
 30
0.0
 11
513.28465716636902
 21
178.55194867313821
 31
0.0
  0
LINE
  5
30785
  8
0
 10
513.28465716636902
 20
169.7436887314206
 30
0.0
 11
515.7846571663689
 21
169.7436887314206
 31
0.0
  0
LINE
  5
30787
  8
0
 10
563.28465716636902
 20
178.55194867313821
 30
0.0
 11
563.28465716636902
 21
169.7436887314206
 31
0.0
  0
LINE
  5
30789
  8
0
 10
560.78465716636902
 20
169.7436887314206
 30
0.0
 11
563.28465716636902
 21
169.7436887314206
 31
0.0
  0
POLYLINE
  5
3078A
  8
0
 66
     1
 10
0.0
 20
0.0
 30
0.0
  0
VERTEX
  5
38D9C
  8
0
 10
515.7846571663689
 20
179.53356971262471
 30
0.0
  0
VERTEX
  5
38D9D
  8
0
 10
515.3655427968788
 20
180.0169757529593
 30
0.0
  0
VERTEX
  5
38D9E
  8
0
 10
514.55662757329856
 20
181.01003346220469
 30
0.0
  0
VERTEX
  5
38D9F
  8
0
 10
513.78793273448025
 20
182.0366764609571
 30
0.0
  0
VERTEX
  5
38DA0
  8
0
 10
513.41907786563979
 20
182.56205076911829
 30
0.0
  0
VERTEX
  5
38DA1
  8
0
 10
513.06076126270773
 20
183.0951645298573
 30
0.0
  0
VERTEX
  5
38DA2
  8
0
 10
512.37634575575146
 20
184.1837034703112
 30
0.0
  0
VERTEX
  5
38DA3
  8
0
 10
511.7358463375453
 20
185.30044814575101
 30
0.0
  0
VERTEX
  5
38DA4
  8
0
 10
511.14034869170831
 20
186.44350560925969
 30
0.0
  0
VERTEX
  5
38DA5
  8
0
 10
510.59086222124819
 20
187.61093831221569
 30
0.0
  0
VERTEX
  5
38DA6
  8
0
 10
510.08831833756489
 20
188.80076738855769
 30
0.0
  0
VERTEX
  5
38DA7
  8
0
 10
509.85491921471021
 20
189.4034516974898
 30
0.0
  0
VERTEX
  5
38DA8
  8
0
 10
509.63356888165441
 20
190.0109760090709
 30
0.0
  0
VERTEX
  5
38DA9
  8
0
 10
509.227384680189
 20
191.23951280003621
 30
0.0
  0
VERTEX
  5
38DAA
  8
0
 10
508.8704542389205
 20
192.48429532042061
 30
0.0
  0
VERTEX
  5
38DAB
  8
0
 10
508.56338257562538
 20
193.7432135917397
 30
0.0
  0
VERTEX
  5
38DAC
  8
0
 10
508.30669019456121
 20
195.01413367459369
 30
0.0
  0
VERTEX
  5
38DAD
  8
0
 10
508.10081220418488
 20
196.29490128581429
 30
0.0
  0
VERTEX
  5
38DAE
  8
0
 10
508.01704104199052
 20
196.9383000363614
 30
0.0
  0
VERTEX
  5
38DAF
  8
0
 10
507.94609757961689
 20
197.5833454501053
 30
0.0
  0
VERTEX
  5
38DB0
  8
0
 10
507.84280857110838
 20
198.87728217996479
 30
0.0
  0
VERTEX
  5
38DB1
  8
0
 10
507.79112025951281
 20
200.17451817767781
 30
0.0
  0
VERTEX
  5
38DB2
  8
0
 10
507.78465716636902
 20
200.82368636537649
 30
0.0
  0
SEQEND
  5
38DB3
  8
0
  0
POLYLINE
  5
3078B
  8
0
 66
     1
 10
0.0
 20
0.0
 30
0.0
  0
VERTEX
  5
38DB4
  8
0
 10
507.78465716636902
 20
200.82368636537649
 30
0.0
  0
VERTEX
  5
38DB5
  8
0
 10
507.78788309259238
 20
201.28233041324441
 30
0.0
  0
VERTEX
  5
38DB6
  8
0
 10
507.81368640812241
 20
202.19923045032741
 30
0.0
  0
VERTEX
  5
38DB7
  8
0
 10
507.86527120700163
 20
203.11496663978599
 30
0.0
  0
VERTEX
  5
38DB8
  8
0
 10
507.90071887457083
 20
203.5721561089313
 30
0.0
  0
VERTEX
  5
38DB9
  8
0
 10
507.94259384333998
 20
204.02876417738031
 30
0.0
  0
VERTEX
  5
38DBA
  8
0
 10
508.04558889446798
 20
204.93984989916589
 30
0.0
  0
VERTEX
  5
38DBB
  8
0
 10
508.1741692162891
 20
205.84745293566181
 30
0.0
  0
VERTEX
  5
38DBC
  8
0
 10
508.32822601701491
 20
206.75080536408859
 30
0.0
  0
VERTEX
  5
38DBD
  8
0
 10
508.50762894921121
 20
207.6491428581048
 30
0.0
  0
VERTEX
  5
38DBE
  8
0
 10
508.71222622008639
 20
208.54170533450539
 30
0.0
  0
VERTEX
  5
38DBF
  8
0
 10
508.82391946455249
 20
208.9855847336766
 30
0.0
  0
VERTEX
  5
38DC0
  8
0
 10
508.94184471992361
 20
209.42773759632379
 30
0.0
  0
VERTEX
  5
38DC1
  8
0
 10
509.19629016854782
 20
210.306489971811
 30
0.0
  0
VERTEX
  5
38DC2
  8
0
 10
509.47534727970691
 20
211.17721894872651
 30
0.0
  0
VERTEX
  5
38DC3
  8
0
 10
509.77877994322478
 20
212.03918780342431
 30
0.0
  0
VERTEX
  5
38DC4
  8
0
 10
510.10633142477491
 20
212.89166722419941
 30
0.0
  0
VERTEX
  5
38DC5
  8
0
 10
510.45772458310188
 20
213.73393592835421
 30
0.0
  0
VERTEX
  5
38DC6
  8
0
 10
510.64226966175102
 20
214.15101820662039
 30
0.0
  0
VERTEX
  5
38DC7
  8
0
 10
510.83266210451347
 20
214.5652812724756
 30
0.0
  0
VERTEX
  5
38DC8
  8
0
 10
511.23082675443311
 20
215.38499985540511
 30
0.0
  0
VERTEX
  5
38DC9
  8
0
 10
511.6518816458169
 20
216.192398113385
 30
0.0
  0
VERTEX
  5
38DCA
  8
0
 10
511.8708823509437
 20
216.59126321635179
 30
0.0
  0
VERTEX
  5
38DCB
  8
0
 10
512.0954705241902
 20
216.9867929068823
 30
0.0
  0
VERTEX
  5
38DCC
  8
0
 10
512.56121806907595
 20
217.7675120985914
 30
0.0
  0
VERTEX
  5
38DCD
  8
0
 10
513.04873021155299
 20
218.53389512213289
 30
0.0
  0
VERTEX
  5
38DCE
  8
0
 10
513.30051981555459
 20
218.91150744552311
 30
0.0
  0
VERTEX
  5
38DCF
  8
0
 10
513.55759446767752
 20
219.28529354095741
 30
0.0
  0
VERTEX
  5
38DD0
  8
0
 10
514.08738028748621
 20
220.02107159698519
 30
0.0
  0
VERTEX
  5
38DD1
  8
0
 10
514.63763941928426
 20
220.74060674852441
 30
0.0
  0
VERTEX
  5
38DD2
  8
0
 10
515.20790628891064
 20
221.44329019700311
 30
0.0
  0
VERTEX
  5
38DD3
  8
0
 10
515.79769839366008
 20
222.1285274020683
 30
0.0
  0
VERTEX
  5
38DD4
  8
0
 10
516.40651671053035
 20
222.7957385846357
 30
0.0
  0
VERTEX
  5
38DD5
  8
0
 10
516.71790034017931
 20
223.12240739378561
 30
0.0
  0
VERTEX
  5
38DD6
  8
0
 10
517.0338461184441
 20
223.44435921743209
 30
0.0
  0
VERTEX
  5
38DD7
  8
0
 10
517.67915583409149
 20
224.0738405026477
 30
0.0
  0
VERTEX
  5
38DD8
  8
0
 10
518.3418998610282
 20
224.68364983627001
 30
0.0
  0
VERTEX
  5
38DD9
  8
0
 10
519.02151745164292
 20
225.27327125872219
 30
0.0
  0
VERTEX
  5
38DDA
  8
0
 10
519.71743358160302
 20
225.84220589141569
 30
0.0
  0
VERTEX
  5
38DDB
  8
0
 10
520.42905943638596
 20
226.38997235885111
 30
0.0
  0
VERTEX
  5
38DDC
  8
0
 10
520.79057585766213
 20
226.6557719872963
 30
0.0
  0
VERTEX
  5
38DDD
  8
0
 10
521.15579290947244
 20
226.9161071959106
 30
0.0
  0
VERTEX
  5
38DDE
  8
0
 10
521.897019111791
 20
227.42016523999521
 30
0.0
  0
VERTEX
  5
38DDF
  8
0
 10
522.65211089197317
 20
227.90172000767689
 30
0.0
  0
VERTEX
  5
38DE0
  8
0
 10
523.42042936698817
 20
228.36036405554481
 30
0.0
  0
VERTEX
  5
38DE1
  8
0
 10
524.20132446270054
 20
228.7957093249461
 30
0.0
  0
VERTEX
  5
38DE2
  8
0
 10
524.99413546389815
 20
229.2073874703201
 30
0.0
  0
VERTEX
  5
38DE3
  8
0
 10
525.39480018327765
 20
229.404241730851
 30
0.0
  0
VERTEX
  5
38DE4
  8
0
 10
525.79819157332304
 20
229.59505017085581
 30
0.0
  0
VERTEX
  5
38DE5
  8
0
 10
526.61281247923398
 20
229.95836942520509
 30
0.0
  0
VERTEX
  5
38DE6
  8
0
 10
527.43730893101508
 20
230.2970378290083
 30
0.0
  0
VERTEX
  5
38DE7
  8
0
 10
528.27098332235516
 20
230.61076883498299
 30
0.0
  0
VERTEX
  5
38DE8
  8
0
 10
529.11313028148868
 20
230.899296995377
 30
0.0
  0
VERTEX
  5
38DE9
  8
0
 10
529.9630372680117
 20
231.162378186561
 30
0.0
  0
VERTEX
  5
38DEA
  8
0
 10
530.39067629074225
 20
231.28430576208481
 30
0.0
  0
VERTEX
  5
38DEB
  8
0
 10
530.8199851757621
 20
231.399789815584
 30
0.0
  0
VERTEX
  5
38DEC
  8
0
 10
531.68324894125681
 20
231.6113310085039
 30
0.0
  0
VERTEX
  5
38DED
  8
0
 10
532.55209815716569
 20
231.79682278035219
 30
0.0
  0
VERTEX
  5
38DEE
  8
0
 10
533.42579769030954
 20
231.95610818657221
 30
0.0
  0
VERTEX
  5
38DEF
  8
0
 10
534.30360830365726
 20
232.08905245580809
 30
0.0
  0
VERTEX
  5
38DF0
  8
0
 10
535.18478728179343
 20
232.19554310393411
 30
0.0
  0
VERTEX
  5
38DF1
  8
0
 10
535.62640701256532
 20
232.23883928676699
 30
0.0
  0
VERTEX
  5
38DF2
  8
0
 10
536.0685890593295
 20
232.275490029232
 30
0.0
  0
VERTEX
  5
38DF3
  8
0
 10
536.95426585172618
 20
232.32882558861999
 30
0.0
  0
VERTEX
  5
38DF4
  8
0
 10
537.84106828799565
 20
232.35550465489081
 30
0.0
  0
VERTEX
  5
38DF5
  8
0
 10
538.28465716636902
 20
232.3588400673261
 30
0.0
  0
VERTEX
  5
38DF6
  8
0
 10
538.72824604474215
 20
232.35550465489081
 30
0.0
  0
VERTEX
  5
38DF7
  8
0
 10
539.61504848101185
 20
232.32882558861999
 30
0.0
  0
VERTEX
  5
38DF8
  8
0
 10
540.50072527340853
 20
232.275490029232
 30
0.0
  0
VERTEX
  5
38DF9
  8
0
 10
540.94290732017271
 20
232.23883928676699
 30
0.0
  0
VERTEX
  5
38DFA
  8
0
 10
541.3845270509446
 20
232.19554310393411
 30
0.0
  0
VERTEX
  5
38DFB
  8
0
 10
542.26570602908066
 20
232.08905245580809
 30
0.0
  0
VERTEX
  5
38DFC
  8
0
 10
543.14351664242849
 20
231.95610818657221
 30
0.0
  0
VERTEX
  5
38DFD
  8
0
 10
544.01721617557223
 20
231.79682278035219
 30
0.0
  0
VERTEX
  5
38DFE
  8
0
 10
544.88606539148122
 20
231.6113310085039
 30
0.0
  0
VERTEX
  5
38DFF
  8
0
 10
545.74932915697582
 20
231.399789815584
 30
0.0
  0
VERTEX
  5
38E00
  8
0
 10
546.17863804199567
 20
231.28430576208481
 30
0.0
  0
VERTEX
  5
38E01
  8
0
 10
546.60627706472667
 20
231.162378186561
 30
0.0
  0
VERTEX
  5
38E02
  8
0
 10
547.45618405124924
 20
230.899296995377
 30
0.0
  0
VERTEX
  5
38E03
  8
0
 10
548.29833101038275
 20
230.61076883498299
 30
0.0
  0
VERTEX
  5
38E04
  8
0
 10
549.13200540172284
 20
230.2970378290083
 30
0.0
  0
VERTEX
  5
38E05
  8
0
 10
549.95650185350405
 20
229.95836942520509
 30
0.0
  0
VERTEX
  5
38E06
  8
0
 10
550.77112275941499
 20
229.59505017085581
 30
0.0
  0
VERTEX
  5
38E07
  8
0
 10
551.17451414946026
 20
229.404241730851
 30
0.0
  0
VERTEX
  5
38E08
  8
0
 10
551.57517886883977
 20
229.2073874703201
 30
0.0
  0
VERTEX
  5
38E09
  8
0
 10
552.36798987003749
 20
228.7957093249461
 30
0.0
  0
VERTEX
  5
38E0A
  8
0
 10
553.14888496574974
 20
228.36036405554481
 30
0.0
  0
VERTEX
  5
38E0B
  8
0
 10
553.91720344076475
 20
227.90172000767689
 30
0.0
  0
VERTEX
  5
38E0C
  8
0
 10
554.67229522094703
 20
227.42016523999521
 30
0.0
  0
VERTEX
  5
38E0D
  8
0
 10
555.41352142326559
 20
226.91610719591151
 30
0.0
  0
VERTEX
  5
38E0E
  8
0
 10
555.7787384750759
 20
226.6557719872963
 30
0.0
  0
VERTEX
  5
38E0F
  8
0
 10
556.14025489635196
 20
226.38997235885111
 30
0.0
  0
VERTEX
  5
38E10
  8
0
 10
556.85188075113501
 20
225.84220589141569
 30
0.0
  0
VERTEX
  5
38E11
  8
0
 10
557.547796881095
 20
225.27327125872219
 30
0.0
  0
VERTEX
  5
38E12
  8
0
 10
558.22741447170984
 20
224.68364983627001
 30
0.0
  0
VERTEX
  5
38E13
  8
0
 10
558.89015849864654
 20
224.0738405026477
 30
0.0
  0
VERTEX
  5
38E14
  8
0
 10
559.53546821429381
 20
223.44435921743209
 30
0.0
  0
VERTEX
  5
38E15
  8
0
 10
559.85141399255872
 20
223.12240739378561
 30
0.0
  0
VERTEX
  5
38E16
  8
0
 10
560.16279762220745
 20
222.7957385846357
 30
0.0
  0
VERTEX
  5
38E17
  8
0
 10
560.77161593907795
 20
222.1285274020683
 30
0.0
  0
VERTEX
  5
38E18
  8
0
 10
561.36140804382728
 20
221.44329019700311
 30
0.0
  0
VERTEX
  5
38E19
  8
0
 10
561.93167491345366
 20
220.74060674852441
 30
0.0
  0
VERTEX
  5
38E1A
  8
0
 10
562.48193404525182
 20
220.02107159698519
 30
0.0
  0
VERTEX
  5
38E1B
  8
0
 10
563.01171986506051
 20
219.28529354095741
 30
0.0
  0
VERTEX
  5
38E1C
  8
0
 10
563.26879451718332
 20
218.91150744552311
 30
0.0
  0
VERTEX
  5
38E1D
  8
0
 10
563.52058412118504
 20
218.53389512213289
 30
0.0
  0
VERTEX
  5
38E1E
  8
0
 10
564.00809626366208
 20
217.7675120985914
 30
0.0
  0
VERTEX
  5
38E1F
  8
0
 10
564.47384380854783
 20
216.9867929068823
 30
0.0
  0
VERTEX
  5
38E20
  8
0
 10
564.69843198179433
 20
216.59126321635179
 30
0.0
  0
VERTEX
  5
38E21
  8
0
 10
564.91743268692107
 20
216.192398113385
 30
0.0
  0
VERTEX
  5
38E22
  8
0
 10
565.33848757830492
 20
215.38499985540511
 30
0.0
  0
VERTEX
  5
38E23
  8
0
 10
565.73665222822444
 20
214.5652812724756
 30
0.0
  0
VERTEX
  5
38E24
  8
0
 10
565.92704467098702
 20
214.15101820662039
 30
0.0
  0
VERTEX
  5
38E25
  8
0
 10
566.1115897496361
 20
213.73393592835421
 30
0.0
  0
VERTEX
  5
38E26
  8
0
 10
566.46298290796312
 20
212.89166722419941
 30
0.0
  0
VERTEX
  5
38E27
  8
0
 10
566.79053438951314
 20
212.03918780342431
 30
0.0
  0
VERTEX
  5
38E28
  8
0
 10
567.09396705303107
 20
211.17721894872651
 30
0.0
  0
VERTEX
  5
38E29
  8
0
 10
567.37302416419016
 20
210.306489971811
 30
0.0
  0
VERTEX
  5
38E2A
  8
0
 10
567.62746961281425
 20
209.42773759632379
 30
0.0
  0
VERTEX
  5
38E2B
  8
0
 10
567.74539486818537
 20
208.9855847336766
 30
0.0
  0
VERTEX
  5
38E2C
  8
0
 10
567.85708811265158
 20
208.54170533450539
 30
0.0
  0
VERTEX
  5
38E2D
  8
0
 10
568.06168538352665
 20
207.6491428581048
 30
0.0
  0
VERTEX
  5
38E2E
  8
0
 10
568.241088315723
 20
206.75080536408859
 30
0.0
  0
VERTEX
  5
38E2F
  8
0
 10
568.39514511644893
 20
205.84745293566181
 30
0.0
  0
VERTEX
  5
38E30
  8
0
 10
568.52372543827005
 20
204.93984989916589
 30
0.0
  0
VERTEX
  5
38E31
  8
0
 10
568.62672048939794
 20
204.02876417738031
 30
0.0
  0
VERTEX
  5
38E32
  8
0
 10
568.66859545816715
 20
203.5721561089313
 30
0.0
  0
VERTEX
  5
38E33
  8
0
 10
568.70404312573635
 20
203.11496663978599
 30
0.0
  0
VERTEX
  5
38E34
  8
0
 10
568.7556279246154
 20
202.19923045032741
 30
0.0
  0
VERTEX
  5
38E35
  8
0
 10
568.78143124014559
 20
201.28233041324441
 30
0.0
  0
VERTEX
  5
38E36
  8
0
 10
568.78465716636902
 20
200.82368636537649
 30
0.0
  0
SEQEND
  5
38E37
  8
0
  0
POLYLINE
  5
3078C
  8
0
 66
     1
 10
0.0
 20
0.0
 30
0.0
  0
VERTEX
  5
38E38
  8
0
 10
568.78465716636902
 20
200.82368636537649
 30
0.0
  0
VERTEX
  5
38E39
  8
0
 10
568.77819407322522
 20
200.17451817767781
 30
0.0
  0
VERTEX
  5
38E3A
  8
0
 10
568.72650576162948
 20
198.87728217996479
 30
0.0
  0
VERTEX
  5
38E3B
  8
0
 10
568.62321675312114
 20
197.5833454501053
 30
0.0
  0
VERTEX
  5
38E3C
  8
0
 10
568.55227329074739
 20
196.9383000363614
 30
0.0
  0
VERTEX
  5
38E3D
  8
0
 10
568.46850212855315
 20
196.29490128581429
 30
0.0
  0
VERTEX
  5
38E3E
  8
0
 10
568.26262413817665
 20
195.01413367459369
 30
0.0
  0
VERTEX
  5
38E3F
  8
0
 10
568.00593175711265
 20
193.7432135917397
 30
0.0
  0
VERTEX
  5
38E40
  8
0
 10
567.69886009381753
 20
192.48429532042061
 30
0.0
  0
VERTEX
  5
38E41
  8
0
 10
567.34192965254886
 20
191.23951280003621
 30
0.0
  0
VERTEX
  5
38E42
  8
0
 10
566.93574545108356
 20
190.0109760090709
 30
0.0
  0
VERTEX
  5
38E43
  8
0
 10
566.71439511802771
 20
189.4034516974898
 30
0.0
  0
VERTEX
  5
38E44
  8
0
 10
566.48099599517309
 20
188.80076738855769
 30
0.0
  0
VERTEX
  5
38E45
  8
0
 10
565.97845211148979
 20
187.61093831221569
 30
0.0
  0
VERTEX
  5
38E46
  8
0
 10
565.42896564102966
 20
186.44350560925969
 30
0.0
  0
VERTEX
  5
38E47
  8
0
 10
564.83346799519256
 20
185.30044814575101
 30
0.0
  0
VERTEX
  5
38E48
  8
0
 10
564.19296857698646
 20
184.1837034703112
 30
0.0
  0
VERTEX
  5
38E49
  8
0
 10
563.5085530700303
 20
183.0951645298573
 30
0.0
  0
VERTEX
  5
38E4A
  8
0
 10
563.15023646709824
 20
182.56205076911829
 30
0.0
  0
VERTEX
  5
38E4B
  8
0
 10
562.78138159825755
 20
182.0366764609571
 30
0.0
  0
VERTEX
  5
38E4C
  8
0
 10
562.01268675943936
 20
181.01003346220469
 30
0.0
  0
VERTEX
  5
38E4D
  8
0
 10
561.20377153585923
 20
180.0169757529593
 30
0.0
  0
VERTEX
  5
38E4E
  8
0
 10
560.78465716636902
 20
179.53356971262471
 30
0.0
  0
SEQEND
  5
38E4F
  8
0
  0
LINE
  5
3078D
  8
0
 10
515.7846571663689
 20
169.7436887314206
 30
0.0
 11
515.7846571663689
 21
222.11379412731
 31
0.0
  0
LINE
  5
3078E
  8
0
 10
560.78465716636902
 20
222.11379412731
 30
0.0
 11
560.78465716636902
 21
169.7436887314206
 31
0.0
  0
LINE
  5
3078F
  8
0
 10
525.0612172927149
 20
229.2436887314206
 30
0.0
 11
551.50809704002313
 21
229.2436887314206
 31
0.0
  0
LINE
  5
30790
  8
0
 10
560.78465716636902
 20
217.3288741656979
 30
0.0
 11
546.10690268968665
 21
217.3288741656979
 31
0.0
  0
LINE
  5
30791
  8
0
 10
530.46241164305127
 20
217.3288741656979
 30
0.0
 11
515.7846571663689
 21
217.3288741656979
 31
0.0
  0
POLYLINE
  5
30796
  8
0
 66
     1
 10
0.0
 20
0.0
 30
0.0
  0
VERTEX
  5
38E50
  8
0
 10
538.28465716636902
 20
234.94368873142051
 30
0.0
  0
VERTEX
  5
38E51
  8
0
 10
538.52463782327686
 20
234.9427865177677
 30
0.0
  0
VERTEX
  5
38E52
  8
0
 10
539.00454837250925
 20
234.9355690948241
 30
0.0
  0
VERTEX
  5
38E53
  8
0
 10
539.48430663873114
 20
234.9211357756821
 30
0.0
  0
VERTEX
  5
38E54
  8
0
 10
539.72409694942507
 20
234.91121404954171
 30
0.0
  0
VERTEX
  5
38E55
  8
0
 10
539.96381113572659
 20
234.89948961351089
 30
0.0
  0
VERTEX
  5
38E56
  8
0
 10
540.44296043096392
 20
234.87063518725611
 30
0.0
  0
VERTEX
  5
38E57
  8
0
 10
540.92165316704666
 20
234.83457860067119
 30
0.0
  0
VERTEX
  5
38E58
  8
0
 10
541.39978808315891
 20
234.7913274810289
 30
0.0
  0
VERTEX
  5
38E59
  8
0
 10
541.87726403648355
 20
234.74089097750311
 30
0.0
  0
VERTEX
  5
38E5A
  8
0
 10
542.35398002359796
 20
234.68327975923779
 30
0.0
  0
VERTEX
  5
38E5B
  8
0
 10
542.59202150963074
 20
234.6517873812536
 30
0.0
  0
VERTEX
  5
38E5C
  8
0
 10
542.82983520183859
 20
234.61850601308839
 30
0.0
  0
VERTEX
  5
38E5D
  8
0
 10
543.30472891063619
 20
234.54658344104331
 30
0.0
  0
VERTEX
  5
38E5E
  8
0
 10
543.77856069280551
 20
234.46752725732591
 30
0.0
  0
VERTEX
  5
38E5F
  8
0
 10
544.25123031579676
 20
234.38135418517689
 30
0.0
  0
VERTEX
  5
38E60
  8
0
 10
544.72263779290131
 20
234.28808245331581
 30
0.0
  0
VERTEX
  5
38E61
  8
0
 10
545.19268340439703
 20
234.18773179208529
 30
0.0
  0
VERTEX
  5
38E62
  8
0
 10
545.42716442632616
 20
234.13490843826821
 30
0.0
  0
VERTEX
  5
38E63
  8
0
 10
545.66126771864765
 20
234.08032342927709
 30
0.0
  0
VERTEX
  5
38E64
  8
0
 10
546.12829161313255
 20
233.96588008564319
 30
0.0
  0
VERTEX
  5
38E65
  8
0
 10
546.59365629541799
 20
233.84442597008641
 30
0.0
  0
VERTEX
  5
38E66
  8
0
 10
546.82568565475219
 20
233.7810778437825
 30
0.0
  0
VERTEX
  5
38E67
  8
0
 10
547.05726332405266
 20
233.7159867745431
 30
0.0
  0
VERTEX
  5
38E68
  8
0
 10
547.51901462939156
 20
233.58058966854509
 30
0.0
  0
VERTEX
  5
38E69
  8
0
 10
547.97881253434434
 20
233.43826329347391
 30
0.0
  0
VERTEX
  5
38E6A
  8
0
 10
548.20794855000975
 20
233.36451098144241
 30
0.0
  0
VERTEX
  5
38E6B
  8
0
 10
548.43655977503386
 20
233.2890377565036
 30
0.0
  0
VERTEX
  5
38E6C
  8
0
 10
548.89215952137317
 20
233.132944624228
 30
0.0
  0
VERTEX
  5
38E6D
  8
0
 10
549.3455153975483
 20
232.9700169159878
 30
0.0
  0
VERTEX
  5
38E6E
  8
0
 10
549.79653150240347
 20
232.80028909688099
 30
0.0
  0
VERTEX
  5
38E6F
  8
0
 10
550.24511242973131
 20
232.62379707047691
 30
0.0
  0
VERTEX
  5
38E70
  8
0
 10
550.69116328845075
 20
232.44057817121941
 30
0.0
  0
VERTEX
  5
38E71
  8
0
 10
550.91321043441712
 20
232.3464582006018
 30
0.0
  0
VERTEX
  5
38E72
  8
0
 10
551.13458972268245
 20
232.2506711565274
 30
0.0
  0
VERTEX
  5
38E73
  8
0
 10
551.57529793170715
 20
232.0541161985993
 30
0.0
  0
VERTEX
  5
38E74
  8
0
 10
552.01319468981001
 20
231.850954875913
 30
0.0
  0
VERTEX
  5
38E75
  8
0
 10
552.44818736599746
 20
231.64123016443139
 30
0.0
  0
VERTEX
  5
38E76
  8
0
 10
552.88018394359585
 20
231.42498642851211
 30
0.0
  0
VERTEX
  5
38E77
  8
0
 10
553.30909303971418
 20
231.20226941152211
 30
0.0
  0
VERTEX
  5
38E78
  8
0
 10
553.52236140312505
 20
231.08849809212461
 30
0.0
  0
VERTEX
  5
38E79
  8
0
 10
553.73482392457515
 20
230.97312622615931
 30
0.0
  0
VERTEX
  5
38E7A
  8
0
 10
554.15728654070881
 20
230.7376053444905
 30
0.0
  0
VERTEX
  5
38E7B
  8
0
 10
554.5763915220009
 20
230.4957565876966
 30
0.0
  0
VERTEX
  5
38E7C
  8
0
 10
554.99205021259922
 20
230.24763111552971
 30
0.0
  0
VERTEX
  5
38E7D
  8
0
 10
555.40417468566602
 20
229.99328141549631
 30
0.0
  0
VERTEX
  5
38E7E
  8
0
 10
555.81267776197944
 20
229.7327612917525
 30
0.0
  0
VERTEX
  5
38E7F
  8
0
 10
556.01554424181404
 20
229.60020449201329
 30
0.0
  0
VERTEX
  5
38E80
  8
0
 10
556.21747302837309
 20
229.4661258537208
 30
0.0
  0
VERTEX
  5
38E81
  8
0
 10
556.61847485601584
 20
229.19343150443271
 30
0.0
  0
VERTEX
  5
38E82
  8
0
 10
557.01559841852713
 20
228.9147359286026
 30
0.0
  0
VERTEX
  5
38E83
  8
0
 10
557.40875970991908
 20
228.63009808041531
 30
0.0
  0
VERTEX
  5
38E84
  8
0
 10
557.79787556236715
 20
228.33957817106699
 30
0.0
  0
VERTEX
  5
38E85
  8
0
 10
558.18286366380426
 20
228.04323765601751
 30
0.0
  0
VERTEX
  5
38E86
  8
0
 10
558.37378432365665
 20
227.89290421322221
 30
0.0
  0
VERTEX
  5
38E87
  8
0
 10
558.5636425753305
 20
227.7411392219974
 30
0.0
  0
VERTEX
  5
38E88
  8
0
 10
558.94013174844304
 20
227.43334677374699
 30
0.0
  0
VERTEX
  5
38E89
  8
0
 10
559.31225154207323
 20
227.11992542049211
 30
0.0
  0
VERTEX
  5
38E8A
  8
0
 10
559.67992323943372
 20
226.80094146217931
 30
0.0
  0
VERTEX
  5
38E8B
  8
0
 10
560.04306906467116
 20
226.47646237544541
 30
0.0
  0
VERTEX
  5
38E8C
  8
0
 10
560.4016121993177
 20
226.14655679934549
 30
0.0
  0
VERTEX
  5
38E8D
  8
0
 10
560.57913401768565
 20
225.9795908417691
 30
0.0
  0
VERTEX
  5
38E8E
  8
0
 10
560.75547679853935
 20
225.81129452083411
 30
0.0
  0
VERTEX
  5
38E8F
  8
0
 10
561.10458800718379
 20
225.47074646000061
 30
0.0
  0
VERTEX
  5
38E90
  8
0
 10
561.44887197561127
 20
225.12498465506999
 30
0.0
  0
VERTEX
  5
38E91
  8
0
 10
561.61918094552493
 20
224.95017141250719
 30
0.0
  0
VERTEX
  5
38E92
  8
0
 10
561.78825587531765
 20
224.77408224716149
 30
0.0
  0
VERTEX
  5
38E93
  8
0
 10
562.12266791434104
 20
224.41811346481791
 30
0.0
  0
VERTEX
  5
38E94
  8
0
 10
562.45203735244729
 20
224.05715360830439
 30
0.0
  0
VERTEX
  5
38E95
  8
0
 10
562.61480928110313
 20
223.87482584769899
 30
0.0
  0
VERTEX
  5
38E96
  8
0
 10
562.77629451609573
 20
223.69127903367641
 30
0.0
  0
VERTEX
  5
38E97
  8
0
 10
563.09537081317512
 20
223.32056713663221
 30
0.0
  0
VERTEX
  5
38E98
  8
0
 10
563.4091987475158
 20
222.94509633613779
 30
0.0
  0
VERTEX
  5
38E99
  8
0
 10
563.71771193316545
 20
222.56494605783789
 30
0.0
  0
VERTEX
  5
38E9A
  8
0
 10
564.02084510843395
 20
222.1801967172587
 30
0.0
  0
VERTEX
  5
38E9B
  8
0
 10
564.31853414969817
 20
221.79092970279271
 30
0.0
  0
VERTEX
  5
38E9C
  8
0
 10
564.46531739597947
 20
221.59462776351029
 30
0.0
  0
VERTEX
  5
38E9D
  8
0
 10
564.61071608496604
 20
221.39722735848321
 30
0.0
  0
VERTEX
  5
38E9E
  8
0
 10
564.89732910719613
 20
220.99917296660621
 30
0.0
  0
VERTEX
  5
38E9F
  8
0
 10
565.17831258737442
 20
220.59685073005491
 30
0.0
  0
VERTEX
  5
38EA0
  8
0
 10
565.45360708733961
 20
220.190345754524
 30
0.0
  0
VERTEX
  5
38EA1
  8
0
 10
565.72315437235284
 20
219.77974403050939
 30
0.0
  0
VERTEX
  5
38EA2
  8
0
 10
565.98689742342128
 20
219.36513241511599
 30
0.0
  0
VERTEX
  5
38EA3
  8
0
 10
566.116574878194
 20
219.1563502734443
 30
0.0
  0
VERTEX
  5
38EA4
  8
0
 10
566.24478044935631
 20
218.94659861368839
 30
0.0
  0
VERTEX
  5
38EA5
  8
0
 10
566.49674889857624
 20
218.52423116125371
 30
0.0
  0
VERTEX
  5
38EA6
  8
0
 10
566.74274947064657
 20
218.09811940379501
 30
0.0
  0
VERTEX
  5
38EA7
  8
0
 10
567.55601466125006
 20
216.57855014147299
 30
0.0
  0
VERTEX
  5
38EA8
  8
0
 10
568.77268173924119
 20
213.88084598311889
 30
0.0
  0
VERTEX
  5
38EA9
  8
0
 10
569.75731654106028
 20
211.0837689559458
 30
0.0
  0
VERTEX
  5
38EAA
  8
0
 10
570.16020943390822
 20
209.65459279665171
 30
0.0
  0
VERTEX
  5
38EAB
  8
0
 10
570.50242540132695
 20
208.2086065050498
 30
0.0
  0
VERTEX
  5
38EAC
  8
0
 10
571.00233759170487
 20
205.27724035275509
 30
0.0
  0
VERTEX
  5
38EAD
  8
0
 10
571.25324847857007
 20
202.3119799654869
 30
0.0
  0
VERTEX
  5
38EAE
  8
0
 10
571.28465716636902
 20
200.82368636537649
 30
0.0
  0
SEQEND
  5
38EAF
  8
0
  0
POLYLINE
  5
30797
  8
0
 66
     1
 10
0.0
 20
0.0
 30
0.0
  0
VERTEX
  5
38EB0
  8
0
 10
571.28465716636902
 20
200.82368636537649
 30
0.0
  0
VERTEX
  5
38EB1
  8
0
 10
571.27821762966767
 20
200.1496657125472
 30
0.0
  0
VERTEX
  5
38EB2
  8
0
 10
571.22671641421584
 20
198.80267651773551
 30
0.0
  0
VERTEX
  5
38EB3
  8
0
 10
571.12379437400568
 20
197.45884201317671
 30
0.0
  0
VERTEX
  5
38EB4
  8
0
 10
571.05309762022705
 20
196.788763568923
 30
0.0
  0
VERTEX
  5
38EB5
  8
0
 10
570.96961216493673
 20
196.1202598539694
 30
0.0
  0
VERTEX
  5
38EB6
  8
0
 10
570.76441045734282
 20
194.78901949657839
 30
0.0
  0
VERTEX
  5
38EB7
  8
0
 10
570.50850956031354
 20
193.4671989373
 30
0.0
  0
VERTEX
  5
38EB8
  8
0
 10
570.2023089217131
 20
192.15686146862211
 30
0.0
  0
VERTEX
  5
38EB9
  8
0
 10
569.84628650465993
 20
190.86005245852809
 30
0.0
  0
VERTEX
  5
38EBA
  8
0
 10
569.44099804145299
 20
189.57879615779069
 30
0.0
  0
VERTEX
  5
38EBB
  8
0
 10
569.22007376288502
 20
188.94462629920869
 30
0.0
  0
VERTEX
  5
38EBC
  8
0
 10
568.98707616610227
 20
188.3150925402187
 30
0.0
  0
VERTEX
  5
38EBD
  8
0
 10
568.48522942682109
 20
187.07091418080469
 30
0.0
  0
VERTEX
  5
38EBE
  8
0
 10
567.93624118001787
 20
185.84820317663801
 30
0.0
  0
VERTEX
  5
38EBF
  8
0
 10
567.34096836751985
 20
184.64886811539321
 30
0.0
  0
VERTEX
  5
38EC0
  8
0
 10
566.70034017893056
 20
183.47478109612621
 30
0.0
  0
VERTEX
  5
38EC1
  8
0
 10
566.01535660121397
 20
182.32777480702589
 30
0.0
  0
VERTEX
  5
38EC2
  8
0
 10
565.65656301410615
 20
181.76498816959611
 30
0.0
  0
VERTEX
  5
38EC3
  8
0
 10
565.28708685776826
 20
181.20963966468199
 30
0.0
  0
VERTEX
  5
38EC4
  8
0
 10
564.51666773942225
 20
180.1221210193398
 30
0.0
  0
VERTEX
  5
38EC5
  8
0
 10
563.70530182996617
 20
179.06691643050181
 30
0.0
  0
VERTEX
  5
38EC6
  8
0
 10
563.28465716636902
 20
178.55194867313821
 30
0.0
  0
SEQEND
  5
38EC7
  8
0
  0
POLYLINE
  5
30798
  8
0
 66
     1
 10
0.0
 20
0.0
 30
0.0
  0
VERTEX
  5
38EC8
  8
0
 10
513.28465716636902
 20
178.55194867313821
 30
0.0
  0
VERTEX
  5
38EC9
  8
0
 10
512.86401250277186
 20
179.06691643050181
 30
0.0
  0
VERTEX
  5
38ECA
  8
0
 10
512.05264659331567
 20
180.1221210193398
 30
0.0
  0
VERTEX
  5
38ECB
  8
0
 10
511.2822274749696
 20
181.20963966468199
 30
0.0
  0
VERTEX
  5
38ECC
  8
0
 10
510.91275131863171
 20
181.76498816959611
 30
0.0
  0
VERTEX
  5
38ECD
  8
0
 10
510.55395773152389
 20
182.32777480702589
 30
0.0
  0
VERTEX
  5
38ECE
  8
0
 10
509.8689741538073
 20
183.47478109612621
 30
0.0
  0
VERTEX
  5
38ECF
  8
0
 10
509.22834596521801
 20
184.64886811539321
 30
0.0
  0
VERTEX
  5
38ED0
  8
0
 10
508.63307315271999
 20
185.84820317663801
 30
0.0
  0
VERTEX
  5
38ED1
  8
0
 10
508.08408490591682
 20
187.07091418080469
 30
0.0
  0
VERTEX
  5
38ED2
  8
0
 10
507.5822381666357
 20
188.3150925402187
 30
0.0
  0
VERTEX
  5
38ED3
  8
0
 10
507.3492405698529
 20
188.94462629920869
 30
0.0
  0
VERTEX
  5
38ED4
  8
0
 10
507.12831629128499
 20
189.57879615779069
 30
0.0
  0
VERTEX
  5
38ED5
  8
0
 10
506.72302782807799
 20
190.86005245852809
 30
0.0
  0
VERTEX
  5
38ED6
  8
0
 10
506.36700541102471
 20
192.15686146862211
 30
0.0
  0
VERTEX
  5
38ED7
  8
0
 10
506.06080477242449
 20
193.4671989373
 30
0.0
  0
VERTEX
  5
38ED8
  8
0
 10
505.80490387539521
 20
194.78901949657839
 30
0.0
  0
VERTEX
  5
38ED9
  8
0
 10
505.59970216780118
 20
196.1202598539694
 30
0.0
  0
VERTEX
  5
38EDA
  8
0
 10
505.51621671251081
 20
196.788763568923
 30
0.0
  0
VERTEX
  5
38EDB
  8
0
 10
505.44551995873229
 20
197.45884201317671
 30
0.0
  0
VERTEX
  5
38EDC
  8
0
 10
505.34259791852207
 20
198.80267651773551
 30
0.0
  0
VERTEX
  5
38EDD
  8
0
 10
505.2910967030702
 20
200.1496657125472
 30
0.0
  0
VERTEX
  5
38EDE
  8
0
 10
505.28465716636902
 20
200.82368636537649
 30
0.0
  0
SEQEND
  5
38EDF
  8
0
  0
POLYLINE
  5
30799
  8
0
 66
     1
 10
0.0
 20
0.0
 30
0.0
  0
VERTEX
  5
38EE0
  8
0
 10
505.28465716636902
 20
200.82368636537649
 30
0.0
  0
VERTEX
  5
38EE1
  8
0
 10
505.31606585416779
 20
202.3119799654869
 30
0.0
  0
VERTEX
  5
38EE2
  8
0
 10
505.5669767410331
 20
205.27724035275509
 30
0.0
  0
VERTEX
  5
38EE3
  8
0
 10
506.06688893141097
 20
208.2086065050498
 30
0.0
  0
VERTEX
  5
38EE4
  8
0
 10
506.40910489882981
 20
209.65459279665171
 30
0.0
  0
VERTEX
  5
38EE5
  8
0
 10
506.81199779167758
 20
211.0837689559458
 30
0.0
  0
VERTEX
  5
38EE6
  8
0
 10
507.79663259349661
 20
213.88084598311889
 30
0.0
  0
VERTEX
  5
38EE7
  8
0
 10
509.0132996714878
 20
216.57855014147299
 30
0.0
  0
VERTEX
  5
38EE8
  8
0
 10
509.82656486209129
 20
218.09811940379501
 30
0.0
  0
VERTEX
  5
38EE9
  8
0
 10
510.07256543416167
 20
218.52423116125371
 30
0.0
  0
VERTEX
  5
38EEA
  8
0
 10
510.32453388338172
 20
218.94659861368839
 30
0.0
  0
VERTEX
  5
38EEB
  8
0
 10
510.45273945454392
 20
219.1563502734443
 30
0.0
  0
VERTEX
  5
38EEC
  8
0
 10
510.58241690931658
 20
219.36513241511599
 30
0.0
  0
VERTEX
  5
38EED
  8
0
 10
510.84615996038519
 20
219.77974403050939
 30
0.0
  0
VERTEX
  5
38EEE
  8
0
 10
511.11570724539843
 20
220.190345754524
 30
0.0
  0
VERTEX
  5
38EEF
  8
0
 10
511.39100174536361
 20
220.59685073005491
 30
0.0
  0
VERTEX
  5
38EF0
  8
0
 10
511.67198522554179
 20
220.99917296660621
 30
0.0
  0
VERTEX
  5
38EF1
  8
0
 10
511.95859824777199
 20
221.39722735848321
 30
0.0
  0
VERTEX
  5
38EF2
  8
0
 10
512.10399693675845
 20
221.59462776351029
 30
0.0
  0
VERTEX
  5
38EF3
  8
0
 10
512.25078018303975
 20
221.79092970279271
 30
0.0
  0
VERTEX
  5
38EF4
  8
0
 10
512.54846922430386
 20
222.1801967172587
 30
0.0
  0
VERTEX
  5
38EF5
  8
0
 10
512.85160239957247
 20
222.56494605783789
 30
0.0
  0
VERTEX
  5
38EF6
  8
0
 10
513.16011558522223
 20
222.94509633613779
 30
0.0
  0
VERTEX
  5
38EF7
  8
0
 10
513.47394351956291
 20
223.32056713663221
 30
0.0
  0
VERTEX
  5
38EF8
  8
0
 10
513.79301981664219
 20
223.69127903367641
 30
0.0
  0
VERTEX
  5
38EF9
  8
0
 10
513.9545050516349
 20
223.87482584769899
 30
0.0
  0
VERTEX
  5
38EFA
  8
0
 10
514.11727698029051
 20
224.05715360830439
 30
0.0
  0
VERTEX
  5
38EFB
  8
0
 10
514.44664641839688
 20
224.41811346481791
 30
0.0
  0
VERTEX
  5
38EFC
  8
0
 10
514.78105845742027
 20
224.77408224716149
 30
0.0
  0
VERTEX
  5
38EFD
  8
0
 10
514.95013338721299
 20
224.95017141250719
 30
0.0
  0
VERTEX
  5
38EFE
  8
0
 10
515.12044235712665
 20
225.12498465506999
 30
0.0
  0
VERTEX
  5
38EFF
  8
0
 10
515.46472632555424
 20
225.47074646000061
 30
0.0
  0
VERTEX
  5
38F00
  8
0
 10
515.81383753419857
 20
225.81129452083411
 30
0.0
  0
VERTEX
  5
38F01
  8
0
 10
515.99018031505238
 20
225.97959084176821
 30
0.0
  0
VERTEX
  5
38F02
  8
0
 10
516.16770213342033
 20
226.14655679934549
 30
0.0
  0
VERTEX
  5
38F03
  8
0
 10
516.52624526806665
 20
226.47646237544541
 30
0.0
  0
VERTEX
  5
38F04
  8
0
 10
516.88939109330431
 20
226.80094146217931
 30
0.0
  0
VERTEX
  5
38F05
  8
0
 10
517.25706279066469
 20
227.11992542049211
 30
0.0
  0
VERTEX
  5
38F06
  8
0
 10
517.62918258429499
 20
227.43334677374699
 30
0.0
  0
VERTEX
  5
38F07
  8
0
 10
518.00567175740753
 20
227.7411392219974
 30
0.0
  0
VERTEX
  5
38F08
  8
0
 10
518.19553000908115
 20
227.89290421322221
 30
0.0
  0
VERTEX
  5
38F09
  8
0
 10
518.38645066893378
 20
228.04323765601751
 30
0.0
  0
VERTEX
  5
38F0A
  8
0
 10
518.77143877037076
 20
228.33957817106699
 30
0.0
  0
VERTEX
  5
38F0B
  8
0
 10
519.16055462281884
 20
228.63009808041531
 30
0.0
  0
VERTEX
  5
38F0C
  8
0
 10
519.5537159142109
 20
228.9147359286026
 30
0.0
  0
VERTEX
  5
38F0D
  8
0
 10
519.95083947672219
 20
229.19343150443271
 30
0.0
  0
VERTEX
  5
38F0E
  8
0
 10
520.35184130436483
 20
229.4661258537208
 30
0.0
  0
VERTEX
  5
38F0F
  8
0
 10
520.55377009092388
 20
229.60020449201329
 30
0.0
  0
VERTEX
  5
38F10
  8
0
 10
520.75663657075847
 20
229.7327612917525
 30
0.0
  0
VERTEX
  5
38F11
  8
0
 10
521.16513964707201
 20
229.99328141549631
 30
0.0
  0
VERTEX
  5
38F12
  8
0
 10
521.57726412013881
 20
230.24763111552971
 30
0.0
  0
VERTEX
  5
38F13
  8
0
 10
521.99292281073713
 20
230.4957565876966
 30
0.0
  0
VERTEX
  5
38F14
  8
0
 10
522.41202779202922
 20
230.7376053444905
 30
0.0
  0
VERTEX
  5
38F15
  8
0
 10
522.83449040816276
 20
230.97312622615931
 30
0.0
  0
VERTEX
  5
38F16
  8
0
 10
523.04695292961276
 20
231.08849809212461
 30
0.0
  0
VERTEX
  5
38F17
  8
0
 10
523.26022129302373
 20
231.20226941152211
 30
0.0
  0
VERTEX
  5
38F18
  8
0
 10
523.68913038914195
 20
231.42498642851211
 30
0.0
  0
VERTEX
  5
38F19
  8
0
 10
524.12112696674046
 20
231.64123016443139
 30
0.0
  0
VERTEX
  5
38F1A
  8
0
 10
524.55611964292802
 20
231.850954875913
 30
0.0
  0
VERTEX
  5
38F1B
  8
0
 10
524.99401640103076
 20
232.0541161985993
 30
0.0
  0
VERTEX
  5
38F1C
  8
0
 10
525.43472461005558
 20
232.2506711565274
 30
0.0
  0
VERTEX
  5
38F1D
  8
0
 10
525.65610389832091
 20
232.3464582006018
 30
0.0
  0
VERTEX
  5
38F1E
  8
0
 10
525.87815104428716
 20
232.44057817121941
 30
0.0
  0
VERTEX
  5
38F1F
  8
0
 10
526.32420190300672
 20
232.62379707047691
 30
0.0
  0
VERTEX
  5
38F20
  8
0
 10
526.77278283033445
 20
232.80028909688099
 30
0.0
  0
VERTEX
  5
38F21
  8
0
 10
527.22379893519019
 20
232.9700169159878
 30
0.0
  0
VERTEX
  5
38F22
  8
0
 10
527.67715481136474
 20
233.132944624228
 30
0.0
  0
VERTEX
  5
38F23
  8
0
 10
528.13275455770406
 20
233.2890377565036
 30
0.0
  0
VERTEX
  5
38F24
  8
0
 10
528.36136578272806
 20
233.36451098144241
 30
0.0
  0
VERTEX
  5
38F25
  8
0
 10
528.59050179839357
 20
233.43826329347391
 30
0.0
  0
VERTEX
  5
38F26
  8
0
 10
529.05029970334635
 20
233.58058966854509
 30
0.0
  0
VERTEX
  5
38F27
  8
0
 10
529.51205100868526
 20
233.7159867745431
 30
0.0
  0
VERTEX
  5
38F28
  8
0
 10
529.74362867798573
 20
233.7810778437825
 30
0.0
  0
VERTEX
  5
38F29
  8
0
 10
529.97565803732004
 20
233.84442597008641
 30
0.0
  0
VERTEX
  5
38F2A
  8
0
 10
530.44102271960526
 20
233.96588008564319
 30
0.0
  0
VERTEX
  5
38F2B
  8
0
 10
530.90804661409038
 20
234.08032342927709
 30
0.0
  0
VERTEX
  5
38F2C
  8
0
 10
531.14214990641165
 20
234.13490843826821
 30
0.0
  0
VERTEX
  5
38F2D
  8
0
 10
531.37663092834089
 20
234.18773179208529
 30
0.0
  0
VERTEX
  5
38F2E
  8
0
 10
531.84667653983649
 20
234.28808245331581
 30
0.0
  0
VERTEX
  5
38F2F
  8
0
 10
532.31808401694116
 20
234.38135418517689
 30
0.0
  0
VERTEX
  5
38F30
  8
0
 10
532.79075363993252
 20
234.46752725732591
 30
0.0
  0
VERTEX
  5
38F31
  8
0
 10
533.26458542210185
 20
234.54658344104331
 30
0.0
  0
VERTEX
  5
38F32
  8
0
 10
533.73947913089933
 20
234.61850601308839
 30
0.0
  0
VERTEX
  5
38F33
  8
0
 10
533.97729282310729
 20
234.6517873812536
 30
0.0
  0
VERTEX
  5
38F34
  8
0
 10
534.21533430913985
 20
234.68327975923779
 30
0.0
  0
VERTEX
  5
38F35
  8
0
 10
534.69205029625425
 20
234.74089097750311
 30
0.0
  0
VERTEX
  5
38F36
  8
0
 10
535.16952624957912
 20
234.7913274810289
 30
0.0
  0
VERTEX
  5
38F37
  8
0
 10
535.64766116569115
 20
234.83457860067119
 30
0.0
  0
VERTEX
  5
38F38
  8
0
 10
536.126353901774
 20
234.87063518725611
 30
0.0
  0
VERTEX
  5
38F39
  8
0
 10
536.60550319701133
 20
234.89948961351089
 30
0.0
  0
VERTEX
  5
38F3A
  8
0
 10
536.84521738331296
 20
234.91121404954171
 30
0.0
  0
VERTEX
  5
38F3B
  8
0
 10
537.08500769400689
 20
234.9211357756821
 30
0.0
  0
VERTEX
  5
38F3C
  8
0
 10
537.56476596022856
 20
234.9355690948241
 30
0.0
  0
VERTEX
  5
38F3D
  8
0
 10
538.04467650946106
 20
234.9427865177677
 30
0.0
  0
VERTEX
  5
38F3E
  8
0
 10
538.28465716636902
 20
234.94368873142051
 30
0.0
  0
SEQEND
  5
38F3F
  8
0
  0
LINE
  5
3079B
  8
0
 10
510.25965716636881
 20
243.44368873142051
 30
0.0
 11
566.30965716636899
 21
243.44368873142051
 31
0.0
  0
LINE
  5
3079D
  8
0
 10
505.78465716636902
 20
239.94368873142051
 30
0.0
 11
570.78465716636902
 21
239.94368873142051
 31
0.0
  0
LINE
  5
3079F
  8
0
 10
501.78465716636902
 20
234.94368873142051
 30
0.0
 11
574.78465716636902
 21
234.94368873142051
 31
0.0
  0
LINE
  5
307A1
  8
0
 10
512.68465716636911
 20
173.928688731421
 30
0.0
 11
513.28465716636902
 21
173.928688731421
 31
0.0
  0
LINE
  5
307A2
  8
0
 10
572.51765716636908
 20
183.7436887314206
 30
0.0
 11
571.28465716636902
 21
183.7436887314206
 31
0.0
  0
LINE
  5
307A3
  8
0
 10
571.28465716636902
 20
175.7436887314206
 30
0.0
 11
572.51765716636908
 21
175.7436887314206
 31
0.0
  0
LINE
  5
307A4
  8
0
 10
573.28465716636902
 20
182.97668873142081
 30
0.0
 11
572.51765716636908
 21
183.7436887314206
 31
0.0
  0
LINE
  5
307A5
  8
0
 10
572.51765716636908
 20
175.7436887314206
 30
0.0
 11
573.28465716636902
 21
176.51068873142049
 31
0.0
  0
LINE
  5
307A6
  8
0
 10
560.78465716636902
 20
183.7436887314206
 30
0.0
 11
558.28465716636902
 21
183.7436887314206
 31
0.0
  0
LINE
  5
307A7
  8
0
 10
558.28465716636902
 20
175.7436887314206
 30
0.0
 11
560.78465716636902
 21
175.7436887314206
 31
0.0
  0
LINE
  5
307A8
  8
0
 10
571.28465716636902
 20
185.55868873142029
 30
0.0
 11
568.78465716636902
 21
185.55868873142029
 31
0.0
  0
LINE
  5
307A9
  8
0
 10
568.78465716636902
 20
173.928688731421
 30
0.0
 11
571.28465716636902
 21
173.928688731421
 31
0.0
  0
LINE
  5
307AA
  8
0
 10
518.28465716636902
 20
183.7436887314206
 30
0.0
 11
515.7846571663689
 21
183.7436887314206
 31
0.0
  0
LINE
  5
307AB
  8
0
 10
515.7846571663689
 20
175.7436887314206
 30
0.0
 11
518.28465716636902
 21
175.7436887314206
 31
0.0
  0
LINE
  5
307AC
  8
0
 10
558.28465716636902
 20
185.7436887314206
 30
0.0
 11
550.78465716636902
 21
185.7436887314206
 31
0.0
  0
LINE
  5
307AD
  8
0
 10
525.78465716636902
 20
185.7436887314206
 30
0.0
 11
518.28465716636902
 21
185.7436887314206
 31
0.0
  0
LINE
  5
307AE
  8
0
 10
518.28465716636902
 20
173.7436887314206
 30
0.0
 11
525.78465716636902
 21
173.7436887314206
 31
0.0
  0
LINE
  5
307AF
  8
0
 10
550.78465716636902
 20
173.7436887314206
 30
0.0
 11
558.28465716636902
 21
173.7436887314206
 31
0.0
  0
LINE
  5
307B0
  8
0
 10
572.51765716636908
 20
175.7436887314206
 30
0.0
 11
572.51765716636908
 21
183.7436887314206
 31
0.0
  0
LINE
  5
307B1
  8
0
 10
573.28465716636902
 20
176.51068873142049
 30
0.0
 11
573.28465716636902
 21
182.97668873142081
 31
0.0
  0
LINE
  5
307B2
  8
0
 10
507.98465716636878
 20
173.48535539808739
 30
0.0
 11
507.98465716636878
 21
186.00202206475379
 31
0.0
  0
LINE
  5
307B3
  8
0
 10
512.68465716636911
 20
173.48535539808739
 30
0.0
 11
512.68465716636911
 21
179.29247157658659
 31
0.0
  0
LINE
  5
307B4
  8
0
 10
507.98465716636878
 20
173.48535539808739
 30
0.0
 11
512.68465716636911
 21
173.48535539808739
 31
0.0
  0
POLYLINE
  5
307B5
  8
0
 66
     1
 10
0.0
 20
0.0
 30
0.0
  0
VERTEX
  5
38F40
  8
0
 10
508.24407687578457
 20
179.7436887314206
 30
0.0
  0
VERTEX
  5
38F41
  8
0
 10
508.1632322225264
 20
180.30586720953579
 30
0.0
  0
VERTEX
  5
38F42
  8
0
 10
508.04862188377319
 20
181.36165710225939
 30
0.0
  0
VERTEX
  5
38F43
  8
0
 10
507.99184729998888
 20
182.37041764617149
 30
0.0
  0
VERTEX
  5
38F44
  8
0
 10
507.98465716636878
 20
182.87285539808721
 30
0.0
  0
SEQEND
  5
38F45
  8
0
  0
POLYLINE
  5
307B6
  8
0
 66
     1
 10
0.0
 20
0.0
 30
0.0
  0
VERTEX
  5
38F46
  8
0
 10
507.98465716636878
 20
182.87285539808721
 30
0.0
  0
VERTEX
  5
38F47
  8
0
 10
507.99184729998888
 20
183.37529315000299
 30
0.0
  0
VERTEX
  5
38F48
  8
0
 10
508.04862188377319
 20
184.38405369391509
 30
0.0
  0
VERTEX
  5
38F49
  8
0
 10
508.1632322225264
 20
185.43984358663869
 30
0.0
  0
VERTEX
  5
38F4A
  8
0
 10
508.24407687578457
 20
186.00202206475379
 30
0.0
  0
SEQEND
  5
38F4B
  8
0
  0
POLYLINE
  5
307B7
  8
0
 66
     1
 10
0.0
 20
0.0
 30
0.0
  0
VERTEX
  5
38F4C
  8
0
 10
512.68465716636911
 20
176.614522064754
 30
0.0
  0
VERTEX
  5
38F4D
  8
0
 10
512.67746703274895
 20
176.11208431283831
 30
0.0
  0
VERTEX
  5
38F4E
  8
0
 10
512.62069244896475
 20
175.1033237689262
 30
0.0
  0
VERTEX
  5
38F4F
  8
0
 10
512.50608211021154
 20
174.04753387620249
 30
0.0
  0
VERTEX
  5
38F50
  8
0
 10
512.42523745695371
 20
173.48535539808739
 30
0.0
  0
SEQEND
  5
38F51
  8
0
  0
POLYLINE
  5
307B8
  8
0
 66
     1
 10
0.0
 20
0.0
 30
0.0
  0
VERTEX
  5
38F52
  8
0
 10
508.24407687578457
 20
173.48535539808739
 30
0.0
  0
VERTEX
  5
38F53
  8
0
 10
508.1632322225264
 20
174.04753387620249
 30
0.0
  0
VERTEX
  5
38F54
  8
0
 10
508.04862188377319
 20
175.1033237689262
 30
0.0
  0
VERTEX
  5
38F55
  8
0
 10
507.99184729998888
 20
176.11208431283831
 30
0.0
  0
VERTEX
  5
38F56
  8
0
 10
507.98465716636878
 20
176.614522064754
 30
0.0
  0
SEQEND
  5
38F57
  8
0
  0
POLYLINE
  5
307B9
  8
0
 66
     1
 10
0.0
 20
0.0
 30
0.0
  0
VERTEX
  5
38F58
  8
0
 10
507.98465716636878
 20
176.614522064754
 30
0.0
  0
VERTEX
  5
38F59
  8
0
 10
507.99184729998888
 20
177.11695981666981
 30
0.0
  0
VERTEX
  5
38F5A
  8
0
 10
508.04862188377319
 20
178.12572036058191
 30
0.0
  0
VERTEX
  5
38F5B
  8
0
 10
508.1632322225264
 20
179.1815102533055
 30
0.0
  0
VERTEX
  5
38F5C
  8
0
 10
508.24407687578457
 20
179.7436887314206
 30
0.0
  0
SEQEND
  5
38F5D
  8
0
  0
LINE
  5
307BA
  8
0
 10
508.24407687578457
 20
179.7436887314206
 30
0.0
 11
512.33610439853317
 21
179.7436887314206
 31
0.0
  0
POLYLINE
  5
307BB
  8
0
 66
     1
 10
0.0
 20
0.0
 30
0.0
  0
VERTEX
  5
38F5E
  8
0
 10
512.44809956287463
 20
179.59315746643551
 30
0.0
  0
VERTEX
  5
38F5F
  8
0
 10
512.52159764106125
 20
179.06206700033999
 30
0.0
  0
VERTEX
  5
38F60
  8
0
 10
512.62615586735501
 20
178.05858650936989
 30
0.0
  0
VERTEX
  5
38F61
  8
0
 10
512.67807989472237
 20
177.0950261379212
 30
0.0
  0
VERTEX
  5
38F62
  8
0
 10
512.68465716636911
 20
176.614522064754
 30
0.0
  0
SEQEND
  5
38F63
  8
0
  0
LINE
  5
307BC
  8
0
 10
507.98465716636878
 20
186.00202206475379
 30
0.0
 11
508.56085541058292
 21
186.00202206475379
 31
0.0
  0
LINE
  5
307BD
  8
0
 10
571.28465716636902
 20
173.928688731421
 30
0.0
 11
571.28465716636902
 21
185.55868873142029
 31
0.0
  0
LINE
  5
307BE
  8
0
 10
568.78465716636902
 20
173.48535539808739
 30
0.0
 11
568.78465716636902
 21
186.00202206475379
 31
0.0
  0
LINE
  5
307BF
  8
0
 10
563.28465716636902
 20
173.48535539808739
 30
0.0
 11
568.78465716636902
 21
173.48535539808739
 31
0.0
  0
POLYLINE
  5
307C0
  8
0
 66
     1
 10
0.0
 20
0.0
 30
0.0
  0
VERTEX
  5
38F64
  8
0
 10
568.78465716636902
 20
182.87285539808721
 30
0.0
  0
VERTEX
  5
38F65
  8
0
 10
568.77746703274886
 20
182.37041764617149
 30
0.0
  0
VERTEX
  5
38F66
  8
0
 10
568.72069244896466
 20
181.36165710225939
 30
0.0
  0
VERTEX
  5
38F67
  8
0
 10
568.60608211021145
 20
180.30586720953579
 30
0.0
  0
VERTEX
  5
38F68
  8
0
 10
568.52523745695362
 20
179.7436887314206
 30
0.0
  0
SEQEND
  5
38F69
  8
0
  0
POLYLINE
  5
307C1
  8
0
 66
     1
 10
0.0
 20
0.0
 30
0.0
  0
VERTEX
  5
38F6A
  8
0
 10
568.52523745695362
 20
186.00202206475379
 30
0.0
  0
VERTEX
  5
38F6B
  8
0
 10
568.60608211021145
 20
185.43984358663869
 30
0.0
  0
VERTEX
  5
38F6C
  8
0
 10
568.72069244896466
 20
184.38405369391509
 30
0.0
  0
VERTEX
  5
38F6D
  8
0
 10
568.77746703274886
 20
183.37529315000299
 30
0.0
  0
VERTEX
  5
38F6E
  8
0
 10
568.78465716636902
 20
182.87285539808721
 30
0.0
  0
SEQEND
  5
38F6F
  8
0
  0
POLYLINE
  5
307C2
  8
0
 66
     1
 10
0.0
 20
0.0
 30
0.0
  0
VERTEX
  5
38F70
  8
0
 10
568.78465716636902
 20
176.614522064754
 30
0.0
  0
VERTEX
  5
38F71
  8
0
 10
568.77746703274886
 20
176.11208431283831
 30
0.0
  0
VERTEX
  5
38F72
  8
0
 10
568.72069244896466
 20
175.1033237689262
 30
0.0
  0
VERTEX
  5
38F73
  8
0
 10
568.60608211021145
 20
174.04753387620249
 30
0.0
  0
VERTEX
  5
38F74
  8
0
 10
568.52523745695362
 20
173.48535539808739
 30
0.0
  0
SEQEND
  5
38F75
  8
0
  0
POLYLINE
  5
307C3
  8
0
 66
     1
 10
0.0
 20
0.0
 30
0.0
  0
VERTEX
  5
38F76
  8
0
 10
563.54407687578441
 20
173.48535539808739
 30
0.0
  0
VERTEX
  5
38F77
  8
0
 10
563.46323222252795
 20
174.0475338761907
 30
0.0
  0
VERTEX
  5
38F78
  8
0
 10
563.34862188377599
 20
175.10332376889531
 30
0.0
  0
VERTEX
  5
38F79
  8
0
 10
563.29184729999042
 20
176.1120843127874
 30
0.0
  0
VERTEX
  5
38F7A
  8
0
 10
563.28465716636902
 20
176.61452206469221
 30
0.0
  0
SEQEND
  5
38F7B
  8
0
  0
POLYLINE
  5
307C4
  8
0
 66
     1
 10
0.0
 20
0.0
 30
0.0
  0
VERTEX
  5
38F7C
  8
0
 10
563.28465716636902
 20
176.614522064754
 30
0.0
  0
VERTEX
  5
38F7D
  8
0
 10
563.28800918878324
 20
176.95738388585141
 30
0.0
  0
VERTEX
  5
38F7E
  8
0
 10
563.31447861677134
 20
177.64120280916899
 30
0.0
  0
VERTEX
  5
38F7F
  8
0
 10
563.36718271064137
 20
178.33568295733761
 30
0.0
  0
VERTEX
  5
38F80
  8
0
 10
563.4036129426845
 20
178.69187357187451
 30
0.0
  0
SEQEND
  5
38F81
  8
0
  0
LINE
  5
307C5
  8
0
 10
564.23320993420475
 20
179.7436887314206
 30
0.0
 11
568.52523745695362
 21
179.7436887314206
 31
0.0
  0
POLYLINE
  5
307C6
  8
0
 66
     1
 10
0.0
 20
0.0
 30
0.0
  0
VERTEX
  5
38F82
  8
0
 10
568.52523745695362
 20
179.7436887314206
 30
0.0
  0
VERTEX
  5
38F83
  8
0
 10
568.60608211021145
 20
179.1815102533055
 30
0.0
  0
VERTEX
  5
38F84
  8
0
 10
568.72069244896466
 20
178.12572036058191
 30
0.0
  0
VERTEX
  5
38F85
  8
0
 10
568.77746703274886
 20
177.11695981666981
 30
0.0
  0
VERTEX
  5
38F86
  8
0
 10
568.78465716636902
 20
176.614522064754
 30
0.0
  0
SEQEND
  5
38F87
  8
0
  0
LINE
  5
307C7
  8
0
 10
568.78465716636902
 20
186.00202206475379
 30
0.0
 11
568.00845892215511
 21
186.00202206475379
 31
0.0
  0
LINE
  5
307C8
  8
0
 10
518.28465716636902
 20
173.7436887314206
 30
0.0
 11
518.28465716636902
 21
185.7436887314206
 31
0.0
  0
LINE
  5
307C9
  8
0
 10
558.28465716636902
 20
173.7436887314206
 30
0.0
 11
558.28465716636902
 21
185.7436887314206
 31
0.0
  0
LINE
  5
307E0
  8
0
 10
541.28465716636902
 20
219.74368873142069
 30
0.0
 11
535.28465716636902
 21
219.74368873142069
 31
0.0
  0
LINE
  5
307E1
  8
0
 10
535.28465716636902
 20
139.7436887314206
 30
0.0
 11
541.28465716636902
 21
139.7436887314206
 31
0.0
  0
ARC
  5
307E2
  8
0
 10
541.28465716636902
 20
140.04368873142079
 30
0.0
 40
0.3000000000000185
 50
270.0
 51
0.0000008537736463
  0
ARC
  5
307E3
  8
0
 10
541.28465716636902
 20
219.44368873142051
 30
0.0
 40
0.3000000000000145
 50
0.0000008537736463
 51
90.0
  0
LINE
  5
307E4
  8
0
 10
543.98465716636883
 20
219.44368873142051
 30
0.0
 11
541.58465716636908
 21
219.44368873142051
 31
0.0
  0
LINE
  5
307E5
  8
0
 10
541.58465716636908
 20
140.04368873142079
 30
0.0
 11
543.98465716636883
 21
140.04368873142079
 31
0.0
  0
ARC
  5
307E6
  8
0
 10
544.28465716636902
 20
140.04368873142079
 30
0.0
 40
0.2999999999999998
 50
180.0
 51
270.0
  0
ARC
  5
307E7
  8
0
 10
544.28465716636902
 20
219.44368873142051
 30
0.0
 40
0.2999999999999971
 50
90.0
 51
180.0
  0
LINE
  5
307E8
  8
0
 10
544.56212228583706
 20
219.74368873142069
 30
0.0
 11
544.28465716636902
 21
219.74368873142069
 31
0.0
  0
LINE
  5
307E9
  8
0
 10
544.28465716636902
 20
139.7436887314206
 30
0.0
 11
544.56212228583706
 21
139.7436887314206
 31
0.0
  0
ARC
  5
307EA
  8
0
 10
544.56212228583706
 20
140.7436887314206
 30
0.0
 40
1.0000000000000211
 50
270.0
 51
341.00000000000807
  0
ARC
  5
307EB
  8
0
 10
544.56212228583706
 20
218.7436887314206
 30
0.0
 40
1.0000000000000191
 50
18.999999999991871
 51
90.0
  0
LINE
  5
307EC
  8
0
 10
546.19992532018296
 20
217.0587168303409
 30
0.0
 11
545.50764086143681
 21
219.06925688587759
 31
0.0
  0
LINE
  5
307ED
  8
0
 10
545.50764086143681
 20
140.4181205769637
 30
0.0
 11
546.19992532018296
 21
142.4286606325004
 31
0.0
  0
ARC
  5
307EE
  8
0
 10
543.36336959338541
 20
143.40536509587221
 30
0.0
 40
2.9999999999997642
 50
341.00000000000807
 51
0.0
  0
ARC
  5
307EF
  8
0
 10
543.36336959338485
 20
216.0820123669692
 30
0.0
 40
3.0000000000000191
 50
0.0
 51
18.999999999991871
  0
ARC
  5
307F0
  8
0
 10
546.78003626005136
 20
144.1134251343255
 30
0.0
 40
0.4166666666666679
 50
180.0
 51
0.0
  0
ARC
  5
307F1
  8
0
 10
546.78003626005136
 20
215.3739523285158
 30
0.0
 40
0.4166666666666679
 50
0.0
 51
180.0
  0
ARC
  5
307F2
  8
0
 10
547.61336959338496
 20
146.53360086572229
 30
0.0
 40
0.4166666666666661
 50
180.0
 51
0.0
  0
ARC
  5
307F3
  8
0
 10
547.61336959338496
 20
212.953776597119
 30
0.0
 40
0.4166666666666661
 50
0.0
 51
180.0
  0
LINE
  5
307F4
  8
0
 10
550.62121289316701
 20
204.21836536754751
 30
0.0
 11
548.03003626005136
 21
211.74368873142069
 31
0.0
  0
LINE
  5
307F5
  8
0
 10
548.03003626005136
 20
147.7436887314206
 30
0.0
 11
550.62121289316701
 21
155.26901209529379
 31
0.0
  0
ARC
  5
307F6
  8
0
 10
547.78465716636902
 20
156.2457165586647
 30
0.0
 40
3.0000000000000591
 50
341.00000000000807
 51
0.0000008537736463
  0
ARC
  5
307F7
  8
0
 10
547.78465716636902
 20
203.2416609041766
 30
0.0
 40
3.00000000000006
 50
0.0000008537736463
 51
18.999999999991871
  0
ARC
  5
307F8
  8
0
 10
528.78465716636902
 20
156.2457165586647
 30
0.0
 40
3.0000000000000102
 50
180.0
 51
198.99999999999179
  0
ARC
  5
307F9
  8
0
 10
528.78465716636902
 20
203.2416609041766
 30
0.0
 40
2.9999999999998201
 50
161.0000000000081
 51
180.0
  0
LINE
  5
307FA
  8
0
 10
528.53927807268656
 20
211.74368873142069
 30
0.0
 11
525.94810143957102
 21
204.21836536754751
 31
0.0
  0
LINE
  5
307FB
  8
0
 10
525.94810143957102
 20
155.26901209529379
 30
0.0
 11
528.53927807268656
 21
147.7436887314206
 31
0.0
  0
ARC
  5
307FC
  8
0
 10
528.95594473935296
 20
146.53360086572229
 30
0.0
 40
0.4166666666666679
 50
180.0
 51
0.0
  0
ARC
  5
307FD
  8
0
 10
528.95594473935296
 20
212.953776597119
 30
0.0
 40
0.4166666666666679
 50
0.0
 51
180.0
  0
ARC
  5
307FE
  8
0
 10
529.78927807268656
 20
144.1134251343255
 30
0.0
 40
0.4166666666666661
 50
180.0
 51
0.0
  0
ARC
  5
307FF
  8
0
 10
529.78927807268656
 20
215.3739523285158
 30
0.0
 40
0.4166666666666661
 50
0.0
 51
180.0
  0
ARC
  5
30800
  8
0
 10
533.2059447393525
 20
143.40536509587221
 30
0.0
 40
2.9999999999997882
 50
179.99999914622629
 51
198.99999999999179
  0
ARC
  5
30801
  8
0
 10
533.2059447393525
 20
216.0820123669692
 30
0.0
 40
2.9999999999997882
 50
161.0000000000081
 51
180.0
  0
LINE
  5
30802
  8
0
 10
531.06167347130122
 20
219.06925688587759
 30
0.0
 11
530.36938901255508
 21
217.0587168303409
 31
0.0
  0
LINE
  5
30803
  8
0
 10
530.36938901255508
 20
142.4286606325004
 30
0.0
 11
531.06167347130122
 21
140.4181205769637
 31
0.0
  0
ARC
  5
30804
  8
0
 10
532.00719204690085
 20
140.7436887314206
 30
0.0
 40
1.000000000000018
 50
198.99999999999179
 51
270.0
  0
ARC
  5
30805
  8
0
 10
532.00719204690085
 20
218.7436887314206
 30
0.0
 40
1.0000000000000211
 50
90.0
 51
161.0000000000081
  0
LINE
  5
30806
  8
0
 10
532.2846571663689
 20
219.74368873142069
 30
0.0
 11
532.00719204690085
 21
219.74368873142069
 31
0.0
  0
LINE
  5
30807
  8
0
 10
532.00719204690085
 20
139.7436887314206
 30
0.0
 11
532.2846571663689
 21
139.7436887314206
 31
0.0
  0
ARC
  5
30808
  8
0
 10
532.2846571663689
 20
140.04368873142079
 30
0.0
 40
0.2999999999999971
 50
270.0
 51
0.0
  0
ARC
  5
30809
  8
0
 10
532.2846571663689
 20
219.44368873142051
 30
0.0
 40
0.299999999999998
 50
0.0
 51
90.0
  0
LINE
  5
3080A
  8
0
 10
534.98465716636883
 20
219.44368873142051
 30
0.0
 11
532.58465716636908
 21
219.44368873142051
 31
0.0
  0
LINE
  5
3080B
  8
0
 10
532.58465716636908
 20
140.04368873142079
 30
0.0
 11
534.98465716636883
 21
140.04368873142079
 31
0.0
  0
ARC
  5
3080C
  8
0
 10
535.28465716636902
 20
140.04368873142079
 30
0.0
 40
0.2999999999999985
 50
179.99999914622629
 51
270.0
  0
ARC
  5
3080D
  8
0
 10
535.28465716636902
 20
219.44368873142051
 30
0.0
 40
0.2999999999999971
 50
90.0
 51
179.99999914622629
  0
LINE
  5
3080F
  8
0
 10
541.58465716636908
 20
140.04368873142079
 30
0.0
 11
541.58465716636908
 21
219.44368873142051
 31
0.0
  0
LINE
  5
30810
  8
0
 10
543.98465716636883
 20
140.04368873142079
 30
0.0
 11
543.98465716636883
 21
219.44368873142051
 31
0.0
  0
LINE
  5
30815
  8
0
 10
546.36336959338485
 20
143.40536509587221
 30
0.0
 11
546.36336959338485
 21
216.0820123669692
 31
0.0
  0
LINE
  5
30816
  8
0
 10
547.19670292671844
 20
144.1134251343255
 30
0.0
 11
547.19670292671844
 21
215.3739523285158
 31
0.0
  0
LINE
  5
30817
  8
0
 10
548.03003626005136
 20
146.53360086572229
 30
0.0
 11
548.03003626005136
 21
212.953776597119
 31
0.0
  0
LINE
  5
30819
  8
0
 10
550.78465716636902
 20
156.2457165586647
 30
0.0
 11
550.78465716636902
 21
203.2416609041766
 31
0.0
  0
LINE
  5
3081A
  8
0
 10
525.78465716636902
 20
156.2457165586647
 30
0.0
 11
525.78465716636902
 21
203.2416609041766
 31
0.0
  0
LINE
  5
3081C
  8
0
 10
528.53927807268656
 20
146.53360086572229
 30
0.0
 11
528.53927807268656
 21
212.953776597119
 31
0.0
  0
LINE
  5
3081D
  8
0
 10
529.37261140601959
 20
144.1134251343255
 30
0.0
 11
529.37261140601959
 21
215.3739523285158
 31
0.0
  0
LINE
  5
3081E
  8
0
 10
530.20594473935296
 20
143.40536509587221
 30
0.0
 11
530.20594473935296
 21
216.0820123669692
 31
0.0
  0
LINE
  5
30823
  8
0
 10
532.58465716636908
 20
140.04368873142079
 30
0.0
 11
532.58465716636908
 21
219.44368873142051
 31
0.0
  0
LINE
  5
30825
  8
0
 10
534.98465716636883
 20
140.04368873142079
 30
0.0
 11
534.98465716636883
 21
219.44368873142051
 31
0.0
  0
LINE
  5
30826
  8
1
 10
251.4192041028036
 20
384.07567298692811
 30
0.0
 11
429.8070278788864
 21
384.07567298692811
 31
0.0
  0
LINE
  5
30827
  8
1
 10
383.64143319893361
 20
337.91007830697532
 30
0.0
 11
383.64143319893361
 21
430.2412676668809
 31
0.0
  0
LINE
  5
30828
  8
0
 10
329.94143319893368
 20
359.17567298692848
 30
0.0
 11
329.94143319893368
 21
359.07567298692811
 31
0.0
  0
LINE
  5
30829
  8
0
 10
329.94143319893368
 20
409.07567298692811
 30
0.0
 11
329.94143319893368
 21
408.97567298692769
 31
0.0
  0
LINE
  5
3082A
  8
0
 10
344.1414331989335
 20
409.07567298692811
 30
0.0
 11
344.1414331989335
 21
359.07567298692811
 31
0.0
  0
LINE
  5
3082C
  8
0
 10
357.0472609049894
 20
359.07567298692811
 30
0.0
 11
329.94143319893368
 21
359.07567298692811
 31
0.0
  0
LINE
  5
3082D
  8
0
 10
329.94143319893368
 20
409.07567298692811
 30
0.0
 11
357.04726090498889
 21
409.07567298692811
 31
0.0
  0
LINE
  5
3082F
  8
0
 10
344.1414331989335
 20
359.17567298692848
 30
0.0
 11
284.15809369732909
 21
359.17567298692848
 31
0.0
  0
LINE
  5
30830
  8
0
 10
344.1414331989335
 20
408.97567298692769
 30
0.0
 11
284.15809369732909
 21
408.97567298692769
 31
0.0
  0
LINE
  5
30831
  8
0
 10
332.67475419572429
 20
359.17567298692848
 30
0.0
 11
332.67475419572429
 21
408.97567298692769
 31
0.0
  0
LINE
  5
30832
  8
0
 10
284.15809369732909
 20
359.17567298692848
 30
0.0
 11
284.15809369732909
 21
408.97567298692769
 31
0.0
  0
CIRCLE
  5
3083A
  8
0
 10
383.64143319893361
 20
384.07567298692811
 30
0.0
 40
11.0
  0
CIRCLE
  5
3083B
  8
0
 10
383.64143319893361
 20
384.07567298692811
 30
0.0
 40
28.025000000000009
  0
CIRCLE
  5
3083C
  8
0
 10
383.64143319893361
 20
384.07567298692811
 30
0.0
 40
31.025000000000009
  0
CIRCLE
  5
3083D
  8
0
 10
383.64143319893361
 20
384.07567298692811
 30
0.0
 40
32.5
  0
CIRCLE
  5
3083E
  8
0
 10
383.64143319893361
 20
384.07567298692811
 30
0.0
 40
36.5
  0
CIRCLE
  5
3083F
  8
0
 10
383.64143319893361
 20
384.07567298692811
 30
0.0
 40
6.0
  0
LINE
  5
30840
  8
1
 10
344.6414331989335
 20
345.81067298692778
 30
0.0
 11
344.6414331989335
 21
422.34067298692838
 31
0.0
  0
LINE
  5
30841
  8
0
 10
338.8264331989335
 20
359.07567298692811
 30
0.0
 11
338.8264331989335
 21
358.47567298692769
 31
0.0
  0
LINE
  5
30842
  8
0
 10
350.45643319893361
 20
358.47567298692769
 30
0.0
 11
350.45643319893361
 21
359.07567298692811
 31
0.0
  0
LINE
  5
30843
  8
0
 10
340.6414331989335
 20
418.30867298692817
 30
0.0
 11
340.6414331989335
 21
417.07567298692811
 31
0.0
  0
LINE
  5
30844
  8
0
 10
348.6414331989335
 20
417.07567298692811
 30
0.0
 11
348.6414331989335
 21
418.30867298692817
 31
0.0
  0
LINE
  5
30845
  8
0
 10
341.40843319893338
 20
419.075672986928
 30
0.0
 11
340.6414331989335
 21
418.30867298692817
 31
0.0
  0
LINE
  5
30846
  8
0
 10
348.6414331989335
 20
418.30867298692817
 30
0.0
 11
347.87443319893367
 21
419.075672986928
 31
0.0
  0
LINE
  5
30847
  8
0
 10
350.89976653226671
 20
353.77567298692799
 30
0.0
 11
351.8679340682902
 21
354.03509269634378
 31
0.0
  0
LINE
  5
30848
  8
0
 10
337.41493232957691
 20
354.03509269634378
 30
0.0
 11
338.38309986560029
 21
353.77567298692799
 31
0.0
  0
LINE
  5
30849
  8
0
 10
351.8679340682902
 20
358.21625327751281
 30
0.0
 11
350.89976653226671
 21
358.47567298692769
 31
0.0
  0
LINE
  5
3084A
  8
0
 10
338.38309986560029
 20
358.47567298692769
 30
0.0
 11
337.41493232957691
 21
358.21625327751281
 31
0.0
  0
LINE
  5
3084B
  8
0
 10
338.8264331989335
 20
417.07567298692811
 30
0.0
 11
338.8264331989335
 21
414.57567298692811
 31
0.0
  0
LINE
  5
3084C
  8
0
 10
350.45643319893361
 20
414.57567298692811
 30
0.0
 11
350.45643319893361
 21
417.07567298692811
 31
0.0
  0
LINE
  5
3084D
  8
0
 10
350.89976653226671
 20
409.07567298692811
 30
0.0
 11
351.8679340682902
 21
409.33509269634391
 31
0.0
  0
LINE
  5
3084E
  8
0
 10
337.41493232957691
 20
409.33509269634391
 30
0.0
 11
338.38309986560029
 21
409.07567298692811
 31
0.0
  0
LINE
  5
3084F
  8
0
 10
351.8679340682902
 20
414.3162532775122
 30
0.0
 11
350.89976653226671
 21
414.57567298692811
 31
0.0
  0
LINE
  5
30850
  8
0
 10
338.38309986560029
 20
414.57567298692811
 30
0.0
 11
337.41493232957691
 21
414.3162532775122
 31
0.0
  0
LINE
  5
30851
  8
0
 10
348.6414331989335
 20
418.30867298692817
 30
0.0
 11
340.6414331989335
 21
418.30867298692817
 31
0.0
  0
LINE
  5
30852
  8
0
 10
347.87443319893367
 20
419.075672986928
 30
0.0
 11
341.40843319893338
 21
419.075672986928
 31
0.0
  0
LINE
  5
30853
  8
0
 10
350.89976653226671
 20
353.77567298692799
 30
0.0
 11
338.38309986560029
 21
353.77567298692799
 31
0.0
  0
LINE
  5
30854
  8
0
 10
350.89976653226671
 20
358.47567298692769
 30
0.0
 11
338.38309986560029
 21
358.47567298692769
 31
0.0
  0
POLYLINE
  5
30855
  8
0
 66
     1
 10
0.0
 20
0.0
 30
0.0
  0
VERTEX
  5
38F88
  8
0
 10
341.02818276425529
 20
354.03509269634378
 30
0.0
  0
VERTEX
  5
38F89
  8
0
 10
340.70360886858322
 20
353.9542480430855
 30
0.0
  0
VERTEX
  5
38F8A
  8
0
 10
340.09404828981093
 20
353.83963770433269
 30
0.0
  0
VERTEX
  5
38F8B
  8
0
 10
339.51164011823539
 20
353.78286312054843
 30
0.0
  0
VERTEX
  5
38F8C
  8
0
 10
339.2215575469159
 20
353.77567298692799
 30
0.0
  0
SEQEND
  5
38F8D
  8
0
  0
POLYLINE
  5
30856
  8
0
 66
     1
 10
0.0
 20
0.0
 30
0.0
  0
VERTEX
  5
38F8E
  8
0
 10
339.2215575469159
 20
353.77567298692799
 30
0.0
  0
VERTEX
  5
38F8F
  8
0
 10
338.9314749755963
 20
353.78286312054843
 30
0.0
  0
VERTEX
  5
38F90
  8
0
 10
338.34906680402082
 20
353.83963770433269
 30
0.0
  0
VERTEX
  5
38F91
  8
0
 10
337.73950622524899
 20
353.9542480430855
 30
0.0
  0
VERTEX
  5
38F92
  8
0
 10
337.41493232957691
 20
354.03509269634378
 30
0.0
  0
SEQEND
  5
38F93
  8
0
  0
POLYLINE
  5
30857
  8
0
 66
     1
 10
0.0
 20
0.0
 30
0.0
  0
VERTEX
  5
38F94
  8
0
 10
337.41493232957691
 20
358.21625327751281
 30
0.0
  0
VERTEX
  5
38F95
  8
0
 10
337.73950622524899
 20
358.29709793077109
 30
0.0
  0
VERTEX
  5
38F96
  8
0
 10
338.34906680402082
 20
358.4117082695239
 30
0.0
  0
VERTEX
  5
38F97
  8
0
 10
338.9314749755963
 20
358.4684828533081
 30
0.0
  0
VERTEX
  5
38F98
  8
0
 10
339.2215575469159
 20
358.47567298692769
 30
0.0
  0
SEQEND
  5
38F99
  8
0
  0
POLYLINE
  5
30858
  8
0
 66
     1
 10
0.0
 20
0.0
 30
0.0
  0
VERTEX
  5
38F9A
  8
0
 10
339.2215575469159
 20
358.47567298692769
 30
0.0
  0
VERTEX
  5
38F9B
  8
0
 10
339.51164011823539
 20
358.4684828533081
 30
0.0
  0
VERTEX
  5
38F9C
  8
0
 10
340.09404828981093
 20
358.4117082695239
 30
0.0
  0
VERTEX
  5
38F9D
  8
0
 10
340.70360886858322
 20
358.29709793077109
 30
0.0
  0
VERTEX
  5
38F9E
  8
0
 10
341.02818276425529
 20
358.21625327751281
 30
0.0
  0
SEQEND
  5
38F9F
  8
0
  0
LINE
  5
30859
  8
0
 10
337.41493232957691
 20
354.03509269634378
 30
0.0
 11
337.41493232957691
 21
358.21625327751281
 31
0.0
  0
POLYLINE
  5
3085A
  8
0
 66
     1
 10
0.0
 20
0.0
 30
0.0
  0
VERTEX
  5
38FA0
  8
0
 10
350.06130885095132
 20
358.47567298692769
 30
0.0
  0
VERTEX
  5
38FA1
  8
0
 10
350.35139142227081
 20
358.4684828533081
 30
0.0
  0
VERTEX
  5
38FA2
  8
0
 10
350.93379959384629
 20
358.4117082695239
 30
0.0
  0
VERTEX
  5
38FA3
  8
0
 10
351.54336017261812
 20
358.29709793077109
 30
0.0
  0
VERTEX
  5
38FA4
  8
0
 10
351.8679340682902
 20
358.21625327751281
 30
0.0
  0
SEQEND
  5
38FA5
  8
0
  0
POLYLINE
  5
3085B
  8
0
 66
     1
 10
0.0
 20
0.0
 30
0.0
  0
VERTEX
  5
38FA6
  8
0
 10
351.8679340682902
 20
354.03509269634378
 30
0.0
  0
VERTEX
  5
38FA7
  8
0
 10
351.54336017261812
 20
353.9542480430855
 30
0.0
  0
VERTEX
  5
38FA8
  8
0
 10
350.93379959384629
 20
353.83963770433269
 30
0.0
  0
VERTEX
  5
38FA9
  8
0
 10
350.35139142227081
 20
353.78286312054843
 30
0.0
  0
VERTEX
  5
38FAA
  8
0
 10
350.06130885095132
 20
353.77567298692799
 30
0.0
  0
SEQEND
  5
38FAB
  8
0
  0
POLYLINE
  5
3085C
  8
0
 66
     1
 10
0.0
 20
0.0
 30
0.0
  0
VERTEX
  5
38FAC
  8
0
 10
350.06130885095132
 20
353.77567298692799
 30
0.0
  0
VERTEX
  5
38FAD
  8
0
 10
349.77122627963172
 20
353.78286312054843
 30
0.0
  0
VERTEX
  5
38FAE
  8
0
 10
349.18881810805618
 20
353.83963770433269
 30
0.0
  0
VERTEX
  5
38FAF
  8
0
 10
348.57925752928401
 20
353.9542480430855
 30
0.0
  0
VERTEX
  5
38FB0
  8
0
 10
348.25468363361188
 20
354.03509269634378
 30
0.0
  0
SEQEND
  5
38FB1
  8
0
  0
POLYLINE
  5
3085D
  8
0
 66
     1
 10
0.0
 20
0.0
 30
0.0
  0
VERTEX
  5
38FB2
  8
0
 10
348.25468363361188
 20
358.21625327751281
 30
0.0
  0
VERTEX
  5
38FB3
  8
0
 10
348.57925752928401
 20
358.29709793077109
 30
0.0
  0
VERTEX
  5
38FB4
  8
0
 10
349.18881810805618
 20
358.4117082695239
 30
0.0
  0
VERTEX
  5
38FB5
  8
0
 10
349.77122627963172
 20
358.4684828533081
 30
0.0
  0
VERTEX
  5
38FB6
  8
0
 10
350.06130885095132
 20
358.47567298692769
 30
0.0
  0
SEQEND
  5
38FB7
  8
0
  0
LINE
  5
3085E
  8
0
 10
351.8679340682902
 20
354.03509269634378
 30
0.0
 11
351.8679340682902
 21
358.21625327751281
 31
0.0
  0
POLYLINE
  5
3085F
  8
0
 66
     1
 10
0.0
 20
0.0
 30
0.0
  0
VERTEX
  5
38FB8
  8
0
 10
344.6414331989335
 20
358.47567298692769
 30
0.0
  0
VERTEX
  5
38FB9
  8
0
 10
345.22159834157259
 20
358.4684828533081
 30
0.0
  0
VERTEX
  5
38FBA
  8
0
 10
346.3864146847236
 20
358.4117082695239
 30
0.0
  0
VERTEX
  5
38FBB
  8
0
 10
347.60553584226773
 20
358.29709793077109
 30
0.0
  0
VERTEX
  5
38FBC
  8
0
 10
348.25468363361188
 20
358.21625327751281
 30
0.0
  0
SEQEND
  5
38FBD
  8
0
  0
LINE
  5
30860
  8
0
 10
348.25468363361188
 20
354.03509269634378
 30
0.0
 11
348.25468363361188
 21
358.21625327751281
 31
0.0
  0
POLYLINE
  5
30861
  8
0
 66
     1
 10
0.0
 20
0.0
 30
0.0
  0
VERTEX
  5
38FBE
  8
0
 10
348.25468363361188
 20
354.03509269634378
 30
0.0
  0
VERTEX
  5
38FBF
  8
0
 10
347.60553584226773
 20
353.9542480430855
 30
0.0
  0
VERTEX
  5
38FC0
  8
0
 10
346.3864146847236
 20
353.83963770433269
 30
0.0
  0
VERTEX
  5
38FC1
  8
0
 10
345.22159834157259
 20
353.78286312054843
 30
0.0
  0
VERTEX
  5
38FC2
  8
0
 10
344.6414331989335
 20
353.77567298692799
 30
0.0
  0
SEQEND
  5
38FC3
  8
0
  0
POLYLINE
  5
30862
  8
0
 66
     1
 10
0.0
 20
0.0
 30
0.0
  0
VERTEX
  5
38FC4
  8
0
 10
344.6414331989335
 20
353.77567298692799
 30
0.0
  0
VERTEX
  5
38FC5
  8
0
 10
344.06126805629452
 20
353.78286312054843
 30
0.0
  0
VERTEX
  5
38FC6
  8
0
 10
342.89645171314311
 20
353.83963770433269
 30
0.0
  0
VERTEX
  5
38FC7
  8
0
 10
341.67733055559938
 20
353.9542480430855
 30
0.0
  0
VERTEX
  5
38FC8
  8
0
 10
341.02818276425529
 20
354.03509269634378
 30
0.0
  0
SEQEND
  5
38FC9
  8
0
  0
LINE
  5
30863
  8
0
 10
341.02818276425529
 20
354.03509269634378
 30
0.0
 11
341.02818276425529
 21
358.21625327751281
 31
0.0
  0
POLYLINE
  5
30864
  8
0
 66
     1
 10
0.0
 20
0.0
 30
0.0
  0
VERTEX
  5
38FCA
  8
0
 10
341.02818276425529
 20
358.21625327751281
 30
0.0
  0
VERTEX
  5
38FCB
  8
0
 10
341.67733055559938
 20
358.29709793077109
 30
0.0
  0
VERTEX
  5
38FCC
  8
0
 10
342.89645171314311
 20
358.4117082695239
 30
0.0
  0
VERTEX
  5
38FCD
  8
0
 10
344.06126805629452
 20
358.4684828533081
 30
0.0
  0
VERTEX
  5
38FCE
  8
0
 10
344.6414331989335
 20
358.47567298692769
 30
0.0
  0
SEQEND
  5
38FCF
  8
0
  0
LINE
  5
30865
  8
0
 10
350.45643319893361
 20
417.07567298692811
 30
0.0
 11
338.8264331989335
 21
417.07567298692811
 31
0.0
  0
LINE
  5
30866
  8
0
 10
350.89976653226671
 20
414.57567298692811
 30
0.0
 11
338.38309986560029
 21
414.57567298692811
 31
0.0
  0
POLYLINE
  5
30867
  8
0
 66
     1
 10
0.0
 20
0.0
 30
0.0
  0
VERTEX
  5
38FD0
  8
0
 10
341.02818276425529
 20
409.33509269634391
 30
0.0
  0
VERTEX
  5
38FD1
  8
0
 10
340.70360886858322
 20
409.25424804308562
 30
0.0
  0
VERTEX
  5
38FD2
  8
0
 10
340.09404828981093
 20
409.13963770433293
 30
0.0
  0
VERTEX
  5
38FD3
  8
0
 10
339.51164011823539
 20
409.0828631205477
 30
0.0
  0
VERTEX
  5
38FD4
  8
0
 10
339.2215575469159
 20
409.07567298692811
 30
0.0
  0
SEQEND
  5
38FD5
  8
0
  0
POLYLINE
  5
30868
  8
0
 66
     1
 10
0.0
 20
0.0
 30
0.0
  0
VERTEX
  5
38FD6
  8
0
 10
339.2215575469159
 20
409.07567298692811
 30
0.0
  0
VERTEX
  5
38FD7
  8
0
 10
338.9314749755963
 20
409.0828631205477
 30
0.0
  0
VERTEX
  5
38FD8
  8
0
 10
338.34906680402082
 20
409.13963770433293
 30
0.0
  0
VERTEX
  5
38FD9
  8
0
 10
337.73950622524899
 20
409.25424804308562
 30
0.0
  0
VERTEX
  5
38FDA
  8
0
 10
337.41493232957691
 20
409.33509269634391
 30
0.0
  0
SEQEND
  5
38FDB
  8
0
  0
POLYLINE
  5
30869
  8
0
 66
     1
 10
0.0
 20
0.0
 30
0.0
  0
VERTEX
  5
38FDC
  8
0
 10
337.41493232957691
 20
414.3162532775122
 30
0.0
  0
VERTEX
  5
38FDD
  8
0
 10
337.73950622524899
 20
414.39709793077049
 30
0.0
  0
VERTEX
  5
38FDE
  8
0
 10
338.34906680402082
 20
414.51170826952409
 30
0.0
  0
VERTEX
  5
38FDF
  8
0
 10
338.9314749755963
 20
414.56848285330841
 30
0.0
  0
VERTEX
  5
38FE0
  8
0
 10
339.2215575469159
 20
414.57567298692811
 30
0.0
  0
SEQEND
  5
38FE1
  8
0
  0
POLYLINE
  5
3086A
  8
0
 66
     1
 10
0.0
 20
0.0
 30
0.0
  0
VERTEX
  5
38FE2
  8
0
 10
339.2215575469159
 20
414.57567298692811
 30
0.0
  0
VERTEX
  5
38FE3
  8
0
 10
339.51164011823539
 20
414.56848285330841
 30
0.0
  0
VERTEX
  5
38FE4
  8
0
 10
340.09404828981093
 20
414.51170826952409
 30
0.0
  0
VERTEX
  5
38FE5
  8
0
 10
340.70360886858322
 20
414.39709793077049
 30
0.0
  0
VERTEX
  5
38FE6
  8
0
 10
341.02818276425529
 20
414.3162532775122
 30
0.0
  0
SEQEND
  5
38FE7
  8
0
  0
LINE
  5
3086B
  8
0
 10
337.41493232957691
 20
409.33509269634391
 30
0.0
 11
337.41493232957691
 21
414.3162532775122
 31
0.0
  0
POLYLINE
  5
3086C
  8
0
 66
     1
 10
0.0
 20
0.0
 30
0.0
  0
VERTEX
  5
38FE8
  8
0
 10
350.06130885095132
 20
414.57567298692811
 30
0.0
  0
VERTEX
  5
38FE9
  8
0
 10
350.35139142227081
 20
414.56848285330841
 30
0.0
  0
VERTEX
  5
38FEA
  8
0
 10
350.93379959384629
 20
414.51170826952409
 30
0.0
  0
VERTEX
  5
38FEB
  8
0
 10
351.54336017261812
 20
414.39709793077049
 30
0.0
  0
VERTEX
  5
38FEC
  8
0
 10
351.8679340682902
 20
414.3162532775122
 30
0.0
  0
SEQEND
  5
38FED
  8
0
  0
POLYLINE
  5
3086D
  8
0
 66
     1
 10
0.0
 20
0.0
 30
0.0
  0
VERTEX
  5
38FEE
  8
0
 10
351.8679340682902
 20
409.33509269634391
 30
0.0
  0
VERTEX
  5
38FEF
  8
0
 10
351.54336017261812
 20
409.25424804308562
 30
0.0
  0
VERTEX
  5
38FF0
  8
0
 10
350.93379959384629
 20
409.13963770433293
 30
0.0
  0
VERTEX
  5
38FF1
  8
0
 10
350.35139142227081
 20
409.0828631205477
 30
0.0
  0
VERTEX
  5
38FF2
  8
0
 10
350.06130885095132
 20
409.07567298692811
 30
0.0
  0
SEQEND
  5
38FF3
  8
0
  0
POLYLINE
  5
3086E
  8
0
 66
     1
 10
0.0
 20
0.0
 30
0.0
  0
VERTEX
  5
38FF4
  8
0
 10
350.06130885095132
 20
409.07567298692811
 30
0.0
  0
VERTEX
  5
38FF5
  8
0
 10
349.77122627963172
 20
409.0828631205477
 30
0.0
  0
VERTEX
  5
38FF6
  8
0
 10
349.18881810805618
 20
409.13963770433293
 30
0.0
  0
VERTEX
  5
38FF7
  8
0
 10
348.57925752928401
 20
409.25424804308562
 30
0.0
  0
VERTEX
  5
38FF8
  8
0
 10
348.25468363361188
 20
409.33509269634391
 30
0.0
  0
SEQEND
  5
38FF9
  8
0
  0
POLYLINE
  5
3086F
  8
0
 66
     1
 10
0.0
 20
0.0
 30
0.0
  0
VERTEX
  5
38FFA
  8
0
 10
348.25468363361188
 20
414.3162532775122
 30
0.0
  0
VERTEX
  5
38FFB
  8
0
 10
348.57925752928401
 20
414.39709793077049
 30
0.0
  0
VERTEX
  5
38FFC
  8
0
 10
349.18881810805618
 20
414.51170826952409
 30
0.0
  0
VERTEX
  5
38FFD
  8
0
 10
349.77122627963172
 20
414.56848285330841
 30
0.0
  0
VERTEX
  5
38FFE
  8
0
 10
350.06130885095132
 20
414.57567298692811
 30
0.0
  0
SEQEND
  5
38FFF
  8
0
  0
LINE
  5
30870
  8
0
 10
351.8679340682902
 20
409.33509269634391
 30
0.0
 11
351.8679340682902
 21
414.3162532775122
 31
0.0
  0
POLYLINE
  5
30871
  8
0
 66
     1
 10
0.0
 20
0.0
 30
0.0
  0
VERTEX
  5
39000
  8
0
 10
344.6414331989335
 20
414.57567298692811
 30
0.0
  0
VERTEX
  5
39001
  8
0
 10
345.22159834157259
 20
414.56848285330841
 30
0.0
  0
VERTEX
  5
39002
  8
0
 10
346.3864146847236
 20
414.51170826952409
 30
0.0
  0
VERTEX
  5
39003
  8
0
 10
347.60553584226773
 20
414.39709793077049
 30
0.0
  0
VERTEX
  5
39004
  8
0
 10
348.25468363361188
 20
414.3162532775122
 30
0.0
  0
SEQEND
  5
39005
  8
0
  0
LINE
  5
30872
  8
0
 10
348.25468363361188
 20
409.33509269634391
 30
0.0
 11
348.25468363361188
 21
414.3162532775122
 31
0.0
  0
POLYLINE
  5
30873
  8
0
 66
     1
 10
0.0
 20
0.0
 30
0.0
  0
VERTEX
  5
39006
  8
0
 10
348.25468363361188
 20
409.33509269634391
 30
0.0
  0
VERTEX
  5
39007
  8
0
 10
347.60553584226773
 20
409.25424804308562
 30
0.0
  0
VERTEX
  5
39008
  8
0
 10
346.3864146847236
 20
409.13963770433293
 30
0.0
  0
VERTEX
  5
39009
  8
0
 10
345.22159834157259
 20
409.0828631205477
 30
0.0
  0
VERTEX
  5
3900A
  8
0
 10
344.6414331989335
 20
409.07567298692811
 30
0.0
  0
SEQEND
  5
3900B
  8
0
  0
POLYLINE
  5
30874
  8
0
 66
     1
 10
0.0
 20
0.0
 30
0.0
  0
VERTEX
  5
3900C
  8
0
 10
344.6414331989335
 20
409.07567298692811
 30
0.0
  0
VERTEX
  5
3900D
  8
0
 10
344.06126805629452
 20
409.0828631205477
 30
0.0
  0
VERTEX
  5
3900E
  8
0
 10
342.89645171314311
 20
409.13963770433293
 30
0.0
  0
VERTEX
  5
3900F
  8
0
 10
341.67733055559938
 20
409.25424804308562
 30
0.0
  0
VERTEX
  5
39010
  8
0
 10
341.02818276425529
 20
409.33509269634391
 30
0.0
  0
SEQEND
  5
39011
  8
0
  0
LINE
  5
30875
  8
0
 10
341.02818276425529
 20
409.33509269634391
 30
0.0
 11
341.02818276425529
 21
414.3162532775122
 31
0.0
  0
POLYLINE
  5
30876
  8
0
 66
     1
 10
0.0
 20
0.0
 30
0.0
  0
VERTEX
  5
39012
  8
0
 10
341.02818276425529
 20
414.3162532775122
 30
0.0
  0
VERTEX
  5
39013
  8
0
 10
341.67733055559938
 20
414.39709793077049
 30
0.0
  0
VERTEX
  5
39014
  8
0
 10
342.89645171314311
 20
414.51170826952409
 30
0.0
  0
VERTEX
  5
39015
  8
0
 10
344.06126805629452
 20
414.56848285330841
 30
0.0
  0
VERTEX
  5
39016
  8
0
 10
344.6414331989335
 20
414.57567298692811
 30
0.0
  0
SEQEND
  5
39017
  8
0
  0
LINE
  5
3087C
  8
1
 10
344.6414331989335
 20
370.32567298692811
 30
0.0
 11
344.6414331989335
 21
397.82567298692811
 31
0.0
  0
LINE
  5
3088B
  8
0
 10
384.64143319893361
 20
381.07567298692811
 30
0.0
 11
384.64143319893361
 21
387.07567298692811
 31
0.0
  0
ARC
  5
3088C
  8
0
 10
384.34143319893337
 20
387.07567298692811
 30
0.0
 40
0.3000000000000185
 50
0.0000008537736463
 51
90.0
  0
LINE
  5
3088D
  8
0
 10
384.34143319893337
 20
387.37567298692829
 30
0.0
 11
384.34143319893337
 21
389.77567298692787
 31
0.0
  0
ARC
  5
3088E
  8
0
 10
384.34143319893337
 20
390.07567298692811
 30
0.0
 40
0.2999999999999971
 50
270.0
 51
344.13718538703017
  0
ARC
  5
3088F
  8
0
 10
384.34143319893337
 20
378.07567298692811
 30
0.0
 40
0.2999999999999902
 50
15.86281461296972
 51
90.0
  0
LINE
  5
30890
  8
0
 10
384.34143319893337
 20
378.37567298692829
 30
0.0
 11
384.34143319893337
 21
380.77567298692787
 31
0.0
  0
ARC
  5
30891
  8
0
 10
384.34143319893337
 20
381.07567298692811
 30
0.0
 40
0.2999999999999985
 50
270.0
 51
0.0
  0
LINE
  5
30893
  8
0
 10
384.34143319893337
 20
387.37567298692829
 30
0.0
 11
378.63044527238662
 21
387.37567298692829
 31
0.0
  0
LINE
  5
30894
  8
0
 10
384.34143319893337
 20
389.77567298692787
 30
0.0
 11
381.76793379941358
 21
389.77567298692799
 31
0.0
  0
LINE
  5
30895
  8
0
 10
384.34143319893337
 20
378.37567298692829
 30
0.0
 11
381.76793379941341
 21
378.37567298692829
 31
0.0
  0
LINE
  5
30897
  8
0
 10
384.34143319893337
 20
380.77567298692787
 30
0.0
 11
378.63044527238662
 21
380.77567298692787
 31
0.0
  0
LINE
  5
36A68
  8
3
 10
347.87443319893367
 20
419.075672986928
 30
0.0
 11
347.87443319893367
 21
417.07567298692811
 31
0.0
  0
LINE
  5
36A69
  8
3
 10
341.40843319893338
 20
419.075672986928
 30
0.0
 11
341.40843319893338
 21
417.07567298692811
 31
0.0
  0
ARC
  5
36A6A
  8
0
 10
344.6414331989335
 20
179.7436887314206
 30
0.0
 40
33.626754532364927
 50
126.58898521388581
 51
22.51217163455782
  0
ARC
  5
36A6B
  8
0
 10
344.6414331989335
 20
179.7436887314206
 30
0.0
 40
36.046930263761439
 50
131.49413378366259
 51
24.170159645671649
  0
ARC
  5
36A6C
  8
0
 10
344.64143319893401
 20
180.05763330244551
 30
0.0
 40
24.308207062973381
 50
109.91803358455761
 51
11.94555045457261
  0
ARC
  5
36A6D
  8
0
 10
344.6414331989335
 20
179.7436887314206
 30
0.0
 40
31.999999999999989
 50
122.4617449672395
 51
21.242891567976791
  0
ARC
  5
36A6E
  8
0
 10
344.6414331989335
 20
179.7436887314206
 30
0.0
 40
40.0
 50
137.54584979558291
 51
26.416295574343891
  0
ARC
  5
36A6F
  8
0
 10
344.6414331989335
 20
179.7436887314206
 30
0.0
 40
20.00000000000005
 50
120.03665843584611
 51
3.9722638789892248
  0
LINE
  5
36A70
  8
3
 10
573.28465716636902
 20
182.97668873142081
 30
0.0
 11
571.28465716636902
 21
182.97668873142081
 31
0.0
  0
LINE
  5
36A71
  8
3
 10
573.28465716636902
 20
176.51068873142049
 30
0.0
 11
571.28465716636902
 21
176.51068873142049
 31
0.0
  0
LINE
  5
36A72
  8
1
 10
294.03507915378441
 20
179.7436887314206
 30
0.0
 11
395.24778724408321
 21
179.7436887314206
 31
0.0
  0
LINE
  5
36A73
  8
1
 10
344.6414331989335
 20
129.137334686271
 30
0.0
 11
344.6414331989335
 21
230.35004277657021
 31
0.0
  0
CIRCLE
  5
36A74
  8
0
 10
344.6414331989335
 20
179.7436887314206
 30
0.0
 40
6.2583333333333311
  0
LINE
  5
36A75
  8
0
 10
338.38309986560029
 20
183.35693916609941
 30
0.0
 11
344.6414331989335
 21
186.97018960077821
 31
0.0
  0
LINE
  5
36A76
  8
0
 10
338.38309986560029
 20
183.35693916609941
 30
0.0
 11
338.38309986560029
 21
176.1304382967428
 31
0.0
  0
LINE
  5
36A77
  8
0
 10
338.38309986560029
 20
176.1304382967428
 30
0.0
 11
344.6414331989335
 21
172.51718786206399
 31
0.0
  0
LINE
  5
36A78
  8
0
 10
350.89976653226671
 20
183.35693916609941
 30
0.0
 11
344.6414331989335
 21
186.97018960077821
 31
0.0
  0
LINE
  5
36A79
  8
0
 10
350.89976653226671
 20
183.35693916609941
 30
0.0
 11
350.89976653226671
 21
176.1304382967428
 31
0.0
  0
LINE
  5
36A7A
  8
0
 10
350.89976653226671
 20
176.1304382967428
 30
0.0
 11
344.6414331989335
 21
172.51718786206399
 31
0.0
  0
LINE
  5
36BC2
  8
0
 10
156.99820923149809
 20
139.7436887314206
 30
0.0
 11
157.27567435096671
 21
139.7436887314206
 31
0.0
  0
ARC
  5
36BC3
  8
0
 10
157.2756743509658
 20
140.74368873142251
 30
0.0
 40
1.0000000000010809
 50
270.00000000005213
 51
340.99999999995879
  0
ARC
  5
36BC4
  8
0
 10
156.99820923149809
 20
140.0436887314217
 30
0.0
 40
0.2999999999999545
 50
180.0
 51
270.00000000002598
  0
LINE
  5
36BC5
  8
0
 10
147.99820923149809
 20
139.7436887314206
 30
0.0
 11
153.99820923149809
 21
139.7436887314206
 31
0.0
  0
ARC
  5
36BC6
  8
0
 10
153.99820923149809
 20
140.0436887314217
 30
0.0
 40
0.2999999999999545
 50
269.99999999997391
 51
0.0
  0
ARC
  5
36BC7
  8
0
 10
147.99820923149809
 20
140.0436887314217
 30
0.0
 40
0.2999999999999545
 50
180.0
 51
270.00000000002598
  0
ARC
  5
36BC8
  8
0
 10
144.99820923149809
 20
140.0436887314217
 30
0.0
 40
0.2999999999999545
 50
269.99999999997391
 51
0.0
  0
ARC
  5
36BC9
  8
0
 10
144.72074411203039
 20
140.74368873142251
 30
0.0
 40
1.00000000000108
 50
199.0000000000411
 51
269.99999999994787
  0
LINE
  5
36BCA
  8
0
 10
144.72074411202951
 20
139.7436887314206
 30
0.0
 11
144.99820923149809
 21
139.7436887314206
 31
0.0
  0
LINE
  5
36BCB
  8
0
 10
154.2982092314983
 20
140.0436887314217
 30
0.0
 11
156.69820923149791
 21
140.0436887314217
 31
0.0
  0
LINE
  5
36BCC
  8
0
 10
145.29820923149819
 20
140.0436887314217
 30
0.0
 11
147.69820923149791
 21
140.0436887314217
 31
0.0
  0
LINE
  5
36BCD
  8
0
 10
158.22119292656541
 20
140.41812057696461
 30
0.0
 11
158.91347738531249
 21
142.42866063250131
 31
0.0
  0
LINE
  5
36BD0
  8
0
 10
143.0829410776837
 20
142.42866063250131
 30
0.0
 11
143.7752255364307
 21
140.41812057696461
 31
0.0
  0
ARC
  5
36BD1
  8
0
 10
156.0769216585181
 20
143.40536509587309
 30
0.0
 40
2.999999999996191
 50
341.00000000000807
 51
0.0
  0
ARC
  5
36BD3
  8
0
 10
145.919496804478
 20
143.40536509587309
 30
0.0
 40
2.9999999999962079
 50
180.0
 51
198.99999999999179
  0
ARC
  5
36BD5
  8
0
 10
159.4935883251805
 20
144.11342513432729
 30
0.0
 40
0.4166666666666572
 50
180.0000000000521
 51
359.99999999994787
  0
ARC
  5
36BD7
  8
0
 10
142.50283013781561
 20
144.11342513432729
 30
0.0
 40
0.4166666666666572
 50
180.0000000000521
 51
359.99999999994787
  0
ARC
  5
36BD9
  8
0
 10
160.32692165851449
 20
146.53360086572411
 30
0.0
 40
0.4166666666667141
 50
180.0
 51
0.0
  0
ARC
  5
36BDA
  8
0
 10
160.32692165851449
 20
212.953776597119
 30
0.0
 40
0.4166666666667141
 50
0.0
 51
180.0
  0
ARC
  5
36BDB
  8
0
 10
141.66949680448261
 20
146.53360086572411
 30
0.0
 40
0.4166666666667141
 50
180.0
 51
0.0
  0
ARC
  5
36BDC
  8
0
 10
141.66949680448261
 20
212.953776597119
 30
0.0
 40
0.4166666666667141
 50
0.0
 51
180.0
  0
LINE
  5
36BDD
  8
0
 10
160.7435883251805
 20
147.7436887314206
 30
0.0
 11
163.33476495829609
 21
155.26901209529481
 31
0.0
  0
LINE
  5
36BDE
  8
0
 10
163.33476495829609
 20
204.21836536754839
 30
0.0
 11
160.7435883251805
 21
211.74368873142069
 31
0.0
  0
LINE
  5
36BDF
  8
0
 10
141.25283013781561
 20
211.74368873142069
 30
0.0
 11
138.6616535047001
 21
204.21836536754839
 31
0.0
  0
LINE
  5
36BE0
  8
0
 10
138.6616535047001
 20
155.26901209529481
 30
0.0
 11
141.25283013781561
 21
147.7436887314206
 31
0.0
  0
ARC
  5
36BE1
  8
0
 10
160.4982092315235
 20
156.24571655866109
 30
0.0
 40
2.99999999997496
 50
340.99999999990109
 51
0.0000000000521102
  0
ARC
  5
36BE2
  8
0
 10
160.4982092315235
 20
203.241660904182
 30
0.0
 40
2.999999999974972
 50
359.99999999994787
 51
19.0000000000989
  0
ARC
  5
36BE3
  8
0
 10
141.49820923147351
 20
156.24571655866109
 30
0.0
 40
2.99999999997496
 50
179.9999999999479
 51
199.00000000009879
  0
ARC
  5
36BE4
  8
0
 10
141.49820923147351
 20
203.241660904182
 30
0.0
 40
2.999999999974972
 50
160.99999999990109
 51
180.0000000000521
  0
LINE
  5
36BE5
  8
0
 10
173.49820923147811
 20
185.7436887314206
 30
0.0
 11
163.49820923149809
 21
185.7436887314206
 31
0.0
  0
LINE
  5
36BE6
  8
0
 10
163.49820923149809
 20
173.7436887314206
 30
0.0
 11
173.49820923147811
 21
173.7436887314206
 31
0.0
  0
LINE
  5
36BE7
  8
0
 10
138.49820923149809
 20
185.7436887314206
 30
0.0
 11
128.49820923151901
 21
185.7436887314206
 31
0.0
  0
LINE
  5
36BE8
  8
0
 10
128.49820923151901
 20
173.7436887314206
 30
0.0
 11
138.49820923149809
 21
173.7436887314206
 31
0.0
  0
LINE
  5
36BE9
  8
0
 10
176.5982092314984
 20
185.5586887314212
 30
0.0
 11
175.99820923149809
 21
185.5586887314212
 31
0.0
  0
LINE
  5
36BEA
  8
0
 10
175.99820923149809
 20
173.928688731422
 30
0.0
 11
176.5982092314984
 21
173.928688731422
 31
0.0
  0
LINE
  5
36BEB
  8
0
 10
120.49820923149809
 20
185.5586887314212
 30
0.0
 11
117.99820923149809
 21
185.5586887314212
 31
0.0
  0
LINE
  5
36BEC
  8
0
 10
117.99820923149809
 20
173.928688731422
 30
0.0
 11
120.49820923149809
 21
173.928688731422
 31
0.0
  0
LINE
  5
36BED
  8
0
 10
117.99820923149809
 20
183.7436887314206
 30
0.0
 11
116.76520923149791
 21
183.7436887314206
 31
0.0
  0
LINE
  5
36BEE
  8
0
 10
116.76520923149791
 20
175.7436887314206
 30
0.0
 11
117.99820923149809
 21
175.7436887314206
 31
0.0
  0
LINE
  5
36BEF
  8
0
 10
116.76520923149791
 20
183.7436887314206
 30
0.0
 11
115.99820923149809
 21
182.97668873142081
 31
0.0
  0
LINE
  5
36BF0
  8
0
 10
115.99820923149809
 20
176.51068873142231
 30
0.0
 11
116.76520923149791
 21
175.7436887314206
 31
0.0
  0
ARC
  5
36BF1
  8
0
 10
118.498209231499
 20
235.94368873142139
 30
0.0
 40
4.0000000000006111
 50
90.0
 51
180.0
  0
ARC
  5
36BF2
  8
0
 10
183.49820923149809
 20
235.94368873142139
 30
0.0
 40
4.0000000000006253
 50
0.0
 51
90.0
  0
LINE
  5
36BF3
  8
0
 10
114.49820923149809
 20
235.94368873142139
 30
0.0
 11
114.49820923149809
 21
234.94368873142139
 31
0.0
  0
LINE
  5
36BF4
  8
0
  6
CONTINUOUS
 62
     7
 10
187.49820923149809
 20
234.94368873142139
 30
0.0
 11
187.49820923149809
 21
235.94368873142139
 31
0.0
  0
LINE
  5
36BF5
  8
0
 10
117.99820923149809
 20
234.94368873142139
 30
0.0
 11
117.99820923149809
 21
200.8236863653774
 31
0.0
  0
LINE
  5
36BF6
  8
0
 10
183.99820923149809
 20
200.8236863653774
 30
0.0
 11
183.99820923149809
 21
234.94368873142139
 31
0.0
  0
LINE
  5
36BF7
  8
0
 10
119.9732092314984
 20
240.44368873142139
 30
0.0
 11
119.9732092314984
 21
239.94368873142139
 31
0.0
  0
LINE
  5
36BF8
  8
0
 10
182.02320923149861
 20
239.94368873142139
 30
0.0
 11
182.02320923149861
 21
240.44368873142139
 31
0.0
  0
ARC
  5
36BF9
  8
0
 10
122.9732092314966
 20
240.44368873142321
 30
0.0
 40
2.9999999999988058
 50
90.0
 51
180.0
  0
ARC
  5
36BFA
  8
0
 10
179.02320923149949
 20
240.44368873142321
 30
0.0
 40
2.9999999999988058
 50
0.0
 51
90.0
  0
LINE
  5
36C07
  8
0
 10
173.49820923149809
 20
206.74368873142069
 30
0.0
 11
175.8982092314977
 21
206.74368873142069
 31
0.0
  0
LINE
  5
36C08
  8
0
 10
173.49820923149809
 20
217.32887416569889
 30
0.0
 11
173.49820923149809
 21
206.74368873142069
 31
0.0
  0
LINE
  5
36C09
  8
0
 10
169.99820923149809
 20
217.32887416569889
 30
0.0
 11
173.49820923149809
 21
217.32887416569889
 31
0.0
  0
LINE
  5
36C0A
  8
0
 10
169.99820923149809
 20
219.7436887314216
 30
0.0
 11
175.8982092314977
 21
219.74368873142069
 31
0.0
  0
LINE
  5
36C0B
  8
0
 10
175.8982092314977
 20
219.74368873142069
 30
0.0
 11
175.8982092314977
 21
206.74368873142069
 31
0.0
  0
LINE
  5
36C0E
  8
0
 10
126.09820923149751
 20
219.74368873142069
 30
0.0
 11
131.99820923149761
 21
219.74368873142069
 31
0.0
  0
LINE
  5
36C10
  8
0
 10
128.49820923149809
 20
217.32887416569889
 30
0.0
 11
131.99820923149809
 21
217.32887416569889
 31
0.0
  0
LINE
  5
36C11
  8
0
 10
128.49820923149809
 20
217.32887416569889
 30
0.0
 11
128.49820923149809
 21
206.74368873142069
 31
0.0
  0
LINE
  5
36C12
  8
0
 10
126.09820923149751
 20
206.74368873142069
 30
0.0
 11
128.49820923149809
 21
206.74368873142069
 31
0.0
  0
LINE
  5
36C13
  8
0
 10
126.09820923149751
 20
219.74368873142069
 30
0.0
 11
126.09820923149751
 21
206.74368873142069
 31
0.0
  0
LINE
  5
36C14
  8
0
 10
156.69820923149791
 20
140.0436887314217
 30
0.0
 11
156.69820923149791
 21
214.43109668683161
 31
0.0
  0
LINE
  5
36C16
  8
0
 10
154.2982092314983
 20
140.0436887314217
 30
0.0
 11
154.2982092314983
 21
214.43109668683161
 31
0.0
  0
LINE
  5
36C18
  8
0
 10
147.69820923149791
 20
140.0436887314217
 30
0.0
 11
147.69820923149791
 21
214.43109668683161
 31
0.0
  0
LINE
  5
36C1A
  8
0
 10
145.29820923149819
 20
140.0436887314217
 30
0.0
 11
145.29820923149819
 21
214.43109668683161
 31
0.0
  0
LINE
  5
36C1C
  8
0
 10
159.0769216585127
 20
143.40536509587309
 30
0.0
 11
159.07692165851449
 21
214.43109668695431
 31
0.0
  0
LINE
  5
36C1E
  8
0
 10
142.91949680448079
 20
143.40536509587309
 30
0.0
 11
142.91949680448261
 21
214.43109668695431
 31
0.0
  0
LINE
  5
36C20
  8
0
 10
159.9102549918471
 20
144.11342513432729
 30
0.0
 11
159.91025499184749
 21
214.43109668695519
 31
0.0
  0
LINE
  5
36C22
  8
0
 10
142.08616347114861
 20
144.11342513432729
 30
0.0
 11
142.08616347114861
 21
214.43109668695519
 31
0.0
  0
LINE
  5
36C24
  8
0
 10
160.7435883251801
 20
146.53360086572411
 30
0.0
 11
160.7435883251805
 21
212.953776597119
 31
0.0
  0
LINE
  5
36C26
  8
0
 10
141.25283013781561
 20
146.53360086572411
 30
0.0
 11
141.25283013781561
 21
212.953776597119
 31
0.0
  0
LINE
  5
36C28
  8
0
 10
163.49820923149809
 20
156.24571655866109
 30
0.0
 11
163.49820923149809
 21
203.24166090417839
 31
0.0
  0
LINE
  5
36C2A
  8
0
 10
138.49820923149809
 20
156.24571655866109
 30
0.0
 11
138.49820923149809
 21
203.24166090417839
 31
0.0
  0
LINE
  5
36C2C
  8
0
 10
173.49820923149809
 20
169.7436887314206
 30
0.0
 11
175.99820923149809
 21
169.7436887314206
 31
0.0
  0
LINE
  5
36C2E
  8
0
 10
175.99820923149809
 20
182.57759167661879
 30
0.0
 11
175.99820923149809
 21
169.7436887314206
 31
0.0
  0
LINE
  5
36C2F
  8
0
 10
173.49820923149809
 20
182.57759167661879
 30
0.0
 11
173.49820923149809
 21
169.7436887314206
 31
0.0
  0
LINE
  5
36C30
  8
0
 10
125.99820923149809
 20
169.7436887314206
 30
0.0
 11
125.99820923149809
 21
182.57759167661879
 31
0.0
  0
LINE
  5
36C32
  8
0
 10
125.99820923149809
 20
169.7436887314206
 30
0.0
 11
128.49820923149809
 21
169.7436887314206
 31
0.0
  0
LINE
  5
36C33
  8
0
 10
128.49820923149809
 20
169.7436887314206
 30
0.0
 11
128.49820923149809
 21
182.57759167661879
 31
0.0
  0
LINE
  5
36C35
  8
0
 10
175.99820923149809
 20
232.94368873142139
 30
0.0
 11
175.99820923149809
 21
182.57759167661879
 31
0.0
  0
LINE
  5
36C36
  8
0
 10
173.49820923149809
 20
206.74368873142069
 30
0.0
 11
173.49820923149809
 21
182.57759167661879
 31
0.0
  0
LINE
  5
36C38
  8
0
 10
125.99820923149809
 20
182.57759167661879
 30
0.0
 11
125.99820923149809
 21
232.94368873142139
 31
0.0
  0
LINE
  5
36C39
  8
0
 10
128.49820923149809
 20
182.57759167661879
 30
0.0
 11
128.49820923149809
 21
206.74368873142069
 31
0.0
  0
LINE
  5
36C3A
  8
0
 10
181.2982092314983
 20
182.87285539808821
 30
0.0
 11
181.2982092314983
 21
176.61452206475491
 31
0.0
  0
POLYLINE
  5
36C3B
  8
0
 66
     1
 10
0.0
 20
0.0
 30
0.0
 70
   128
  0
VERTEX
  5
39018
  8
0
 10
181.2982092314983
 20
176.61452206475491
 30
0.0
  0
VERTEX
  5
39019
  8
0
 10
181.22973574694379
 20
178.17910539808781
 30
0.0
  0
VERTEX
  5
3901A
  8
0
 10
181.0387895220824
 20
179.7436887314206
 30
0.0
  0
SEQEND
  5
3901B
  8
0
  0
POLYLINE
  5
36C3C
  8
0
 66
     1
 10
0.0
 20
0.0
 30
0.0
 70
   128
  0
VERTEX
  5
3901C
  8
0
 10
181.0387895220824
 20
179.7436887314206
 30
0.0
  0
VERTEX
  5
3901D
  8
0
 10
181.2291308224635
 20
181.3012372767889
 30
0.0
  0
VERTEX
  5
3901E
  8
0
 10
181.2982092314983
 20
182.87285539808821
 30
0.0
  0
SEQEND
  5
3901F
  8
0
  0
POLYLINE
  5
36C3E
  8
0
 66
     1
 10
0.0
 20
0.0
 30
0.0
 70
   128
  0
VERTEX
  5
39020
  8
0
 10
176.5982092314984
 20
176.61452206475491
 30
0.0
  0
VERTEX
  5
39021
  8
0
 10
176.66668271605289
 20
175.04993873142209
 30
0.0
  0
VERTEX
  5
39022
  8
0
 10
176.8576289409134
 20
173.48535539808739
 30
0.0
  0
SEQEND
  5
39023
  8
0
  0
POLYLINE
  5
36C3F
  8
0
 66
     1
 10
0.0
 20
0.0
 30
0.0
 70
   128
  0
VERTEX
  5
39024
  8
0
 10
176.8576289409134
 20
179.7436887314206
 30
0.0
  0
VERTEX
  5
39025
  8
0
 10
176.6672876405332
 20
178.18614018605419
 30
0.0
  0
VERTEX
  5
39026
  8
0
 10
176.5982092314984
 20
176.61452206475491
 30
0.0
  0
SEQEND
  5
39027
  8
0
  0
LINE
  5
36C40
  8
0
 10
176.8576289409134
 20
179.7436887314206
 30
0.0
 11
181.0387895220824
 21
179.7436887314206
 31
0.0
  0
POLYLINE
  5
36C41
  8
0
 66
     1
 10
0.0
 20
0.0
 30
0.0
 70
   128
  0
VERTEX
  5
39028
  8
0
 10
181.0387895220824
 20
173.48535539808739
 30
0.0
  0
VERTEX
  5
39029
  8
0
 10
181.2291308224635
 20
175.04290394345571
 30
0.0
  0
VERTEX
  5
3902A
  8
0
 10
181.2982092314983
 20
176.61452206475491
 30
0.0
  0
SEQEND
  5
3902B
  8
0
  0
POLYLINE
  5
36C42
  8
0
 66
     1
 10
0.0
 20
0.0
 30
0.0
 70
   128
  0
VERTEX
  5
3902C
  8
0
 10
176.5982092314984
 20
182.87285539808821
 30
0.0
  0
VERTEX
  5
3902D
  8
0
 10
176.66668271605289
 20
181.3082720647553
 30
0.0
  0
VERTEX
  5
3902E
  8
0
 10
176.8576289409134
 20
179.7436887314206
 30
0.0
  0
SEQEND
  5
3902F
  8
0
  0
POLYLINE
  5
36C43
  8
0
 66
     1
 10
0.0
 20
0.0
 30
0.0
 70
   128
  0
VERTEX
  5
39030
  8
0
 10
176.8576289409134
 20
186.00202206475569
 30
0.0
  0
VERTEX
  5
39031
  8
0
 10
176.6672876405332
 20
184.4444735193874
 30
0.0
  0
VERTEX
  5
39032
  8
0
 10
176.5982092314984
 20
182.87285539808821
 30
0.0
  0
SEQEND
  5
39033
  8
0
  0
POLYLINE
  5
36C45
  8
0
 66
     1
 10
0.0
 20
0.0
 30
0.0
 70
   128
  0
VERTEX
  5
39034
  8
0
 10
181.2982092314983
 20
182.87285539808821
 30
0.0
  0
VERTEX
  5
39035
  8
0
 10
181.22973574694379
 20
184.437438731421
 30
0.0
  0
VERTEX
  5
39036
  8
0
 10
181.0387895220824
 20
186.00202206475569
 30
0.0
  0
SEQEND
  5
39037
  8
0
  0
LINE
  5
36C46
  8
0
 10
176.5982092314984
 20
182.87285539808821
 30
0.0
 11
176.5982092314984
 21
176.61452206475491
 31
0.0
  0
POLYLINE
  5
36C47
  8
0
 66
     1
 10
0.0
 20
0.0
 30
0.0
 70
   128
  0
VERTEX
  5
39038
  8
0
 10
125.7387895220831
 20
179.7436887314206
 30
0.0
  0
VERTEX
  5
39039
  8
0
 10
125.92913082246331
 20
178.18614018605419
 30
0.0
  0
VERTEX
  5
3903A
  8
0
 10
125.99820923149809
 20
176.61452206475491
 30
0.0
  0
SEQEND
  5
3903B
  8
0
  0
POLYLINE
  5
36C48
  8
0
 66
     1
 10
0.0
 20
0.0
 30
0.0
 70
   128
  0
VERTEX
  5
3903C
  8
0
 10
125.99820923149809
 20
176.61452206475491
 30
0.0
  0
VERTEX
  5
3903D
  8
0
 10
125.92973574694361
 20
175.04993873142209
 30
0.0
  0
VERTEX
  5
3903E
  8
0
 10
125.7387895220831
 20
173.48535539808739
 30
0.0
  0
SEQEND
  5
3903F
  8
0
  0
POLYLINE
  5
36C4A
  8
0
 66
     1
 10
0.0
 20
0.0
 30
0.0
 70
   128
  0
VERTEX
  5
39040
  8
0
 10
120.75762894091299
 20
173.48535539808739
 30
0.0
  0
VERTEX
  5
39041
  8
0
 10
120.5672876405328
 20
175.04290394345571
 30
0.0
  0
VERTEX
  5
39042
  8
0
 10
120.49820923149809
 20
176.61452206475491
 30
0.0
  0
SEQEND
  5
39043
  8
0
  0
POLYLINE
  5
36C4B
  8
0
 66
     1
 10
0.0
 20
0.0
 30
0.0
 70
   128
  0
VERTEX
  5
39044
  8
0
 10
120.49820923149809
 20
176.61452206475491
 30
0.0
  0
VERTEX
  5
39045
  8
0
 10
120.5666827160525
 20
178.17910539808781
 30
0.0
  0
VERTEX
  5
39046
  8
0
 10
120.75762894091299
 20
179.7436887314206
 30
0.0
  0
SEQEND
  5
39047
  8
0
  0
LINE
  5
36C4C
  8
0
 10
120.75762894091299
 20
179.7436887314206
 30
0.0
 11
125.7387895220831
 21
179.7436887314206
 31
0.0
  0
POLYLINE
  5
36C4D
  8
0
 66
     1
 10
0.0
 20
0.0
 30
0.0
 70
   128
  0
VERTEX
  5
39048
  8
0
 10
125.7387895220831
 20
186.00202206475569
 30
0.0
  0
VERTEX
  5
39049
  8
0
 10
125.92913082246331
 20
184.4444735193874
 30
0.0
  0
VERTEX
  5
3904A
  8
0
 10
125.99820923149809
 20
182.87285539808821
 30
0.0
  0
SEQEND
  5
3904B
  8
0
  0
POLYLINE
  5
36C4E
  8
0
 66
     1
 10
0.0
 20
0.0
 30
0.0
 70
   128
  0
VERTEX
  5
3904C
  8
0
 10
125.99820923149809
 20
182.87285539808821
 30
0.0
  0
VERTEX
  5
3904D
  8
0
 10
125.92973574694361
 20
181.3082720647553
 30
0.0
  0
VERTEX
  5
3904E
  8
0
 10
125.7387895220831
 20
179.7436887314206
 30
0.0
  0
SEQEND
  5
3904F
  8
0
  0
POLYLINE
  5
36C4F
  8
0
 66
     1
 10
0.0
 20
0.0
 30
0.0
 70
   128
  0
VERTEX
  5
39050
  8
0
 10
120.75762894091299
 20
179.7436887314206
 30
0.0
  0
VERTEX
  5
39051
  8
0
 10
120.5672876405328
 20
181.3012372767889
 30
0.0
  0
VERTEX
  5
39052
  8
0
 10
120.49820923149809
 20
182.87285539808821
 30
0.0
  0
SEQEND
  5
39053
  8
0
  0
POLYLINE
  5
36C50
  8
0
 66
     1
 10
0.0
 20
0.0
 30
0.0
 70
   128
  0
VERTEX
  5
39054
  8
0
 10
120.49820923149809
 20
182.87285539808821
 30
0.0
  0
VERTEX
  5
39055
  8
0
 10
120.5666827160525
 20
184.437438731421
 30
0.0
  0
VERTEX
  5
39056
  8
0
 10
120.75762894091299
 20
186.00202206475569
 30
0.0
  0
SEQEND
  5
39057
  8
0
  0
LINE
  5
36C52
  8
0
 10
120.49820923149809
 20
182.87285539808821
 30
0.0
 11
120.49820923149809
 21
176.61452206475491
 31
0.0
  0
LINE
  5
36C53
  8
0
 10
117.99820923149809
 20
185.5586887314212
 30
0.0
 11
117.99820923149809
 21
173.928688731422
 31
0.0
  0
LINE
  5
36C55
  8
0
 10
181.2982092314983
 20
176.61452206475491
 30
0.0
 11
181.2982092314983
 21
173.48535539808739
 31
0.0
  0
LINE
  5
36C57
  8
0
 10
181.2982092314983
 20
186.00202206475569
 30
0.0
 11
181.2982092314983
 21
182.87285539808821
 31
0.0
  0
LINE
  5
36C59
  8
0
 10
176.5982092314984
 20
176.61452206475491
 30
0.0
 11
176.5982092314984
 21
173.48535539808739
 31
0.0
  0
LINE
  5
36C5B
  8
0
 10
176.5982092314984
 20
186.00202206475569
 30
0.0
 11
176.5982092314984
 21
182.87285539808821
 31
0.0
  0
LINE
  5
36C5F
  8
0
 10
120.49820923149809
 20
176.61452206475491
 30
0.0
 11
120.49820923149809
 21
173.48535539808739
 31
0.0
  0
LINE
  5
36C61
  8
0
 10
120.49820923149809
 20
186.00202206475569
 30
0.0
 11
120.49820923149809
 21
182.87285539808821
 31
0.0
  0
LINE
  5
36C62
  8
0
 10
116.76520923149791
 20
183.7436887314206
 30
0.0
 11
116.76520923149791
 21
175.7436887314206
 31
0.0
  0
LINE
  5
36C63
  8
0
 10
115.99820923149809
 20
182.97668873142081
 30
0.0
 11
115.99820923149809
 21
176.51068873142231
 31
0.0
  0
LINE
  5
36C64
  8
0
 10
175.99820923149809
 20
232.94368873142139
 30
0.0
 11
125.99820923149809
 21
232.94368873142139
 31
0.0
  0
LINE
  5
36C67
  8
0
 10
183.49820923149809
 20
239.94368873142139
 30
0.0
 11
118.49820923149809
 21
239.94368873142139
 31
0.0
  0
LINE
  5
36C68
  8
0
 10
114.49820923149809
 20
234.94368873142139
 30
0.0
 11
187.49820923149809
 21
234.94368873142139
 31
0.0
  0
POLYLINE
  5
36C69
  8
0
 10
117.99820923149807
 20
200.82368636537731
 30
0.0
 66
     1
 70
     8
  0
VERTEX
  8
0
  5
3905C
 10
117.998
 20
200.824
 30
0.000000
  70
    32
  0
VERTEX
  8
0
  5
3905D
 10
117.998
 20
200.704
 30
0.000000
  70
    32
  0
VERTEX
  8
0
  5
3905E
 10
117.999
 20
200.584
 30
0.000000
  70
    32
  0
VERTEX
  8
0
  5
3905F
 10
118.000
 20
200.464
 30
0.000000
  70
    32
  0
VERTEX
  8
0
  5
39060
 10
118.001
 20
200.345
 30
0.000000
  70
    32
  0
VERTEX
  8
0
  5
39061
 10
118.003
 20
200.225
 30
0.000000
  70
    32
  0
VERTEX
  8
0
  5
39062
 10
118.006
 20
200.105
 30
0.000000
  70
    32
  0
VERTEX
  8
0
  5
39063
 10
118.008
 20
199.985
 30
0.000000
  70
    32
  0
VERTEX
  8
0
  5
39064
 10
118.011
 20
199.866
 30
0.000000
  70
    32
  0
VERTEX
  8
0
  5
39065
 10
118.015
 20
199.746
 30
0.000000
  70
    32
  0
VERTEX
  8
0
  5
39066
 10
118.019
 20
199.626
 30
0.000000
  70
    32
  0
VERTEX
  8
0
  5
39067
 10
118.023
 20
199.506
 30
0.000000
  70
    32
  0
VERTEX
  8
0
  5
39068
 10
118.027
 20
199.387
 30
0.000000
  70
    32
  0
VERTEX
  8
0
  5
39069
 10
118.033
 20
199.267
 30
0.000000
  70
    32
  0
VERTEX
  8
0
  5
3906A
 10
118.038
 20
199.147
 30
0.000000
  70
    32
  0
VERTEX
  8
0
  5
3906B
 10
118.044
 20
199.028
 30
0.000000
  70
    32
  0
VERTEX
  8
0
  5
3906C
 10
118.050
 20
198.908
 30
0.000000
  70
    32
  0
VERTEX
  8
0
  5
3906D
 10
118.057
 20
198.789
 30
0.000000
  70
    32
  0
VERTEX
  8
0
  5
3906E
 10
118.064
 20
198.669
 30
0.000000
  70
    32
  0
VERTEX
  8
0
  5
3906F
 10
118.072
 20
198.549
 30
0.000000
  70
    32
  0
VERTEX
  8
0
  5
39070
 10
118.080
 20
198.430
 30
0.000000
  70
    32
  0
VERTEX
  8
0
  5
39071
 10
118.088
 20
198.310
 30
0.000000
  70
    32
  0
VERTEX
  8
0
  5
39072
 10
118.097
 20
198.191
 30
0.000000
  70
    32
  0
VERTEX
  8
0
  5
39073
 10
118.106
 20
198.072
 30
0.000000
  70
    32
  0
VERTEX
  8
0
  5
39074
 10
118.115
 20
197.952
 30
0.000000
  70
    32
  0
VERTEX
  8
0
  5
39075
 10
118.125
 20
197.833
 30
0.000000
  70
    32
  0
VERTEX
  8
0
  5
39076
 10
118.136
 20
197.714
 30
0.000000
  70
    32
  0
VERTEX
  8
0
  5
39077
 10
118.146
 20
197.594
 30
0.000000
  70
    32
  0
VERTEX
  8
0
  5
39078
 10
118.158
 20
197.475
 30
0.000000
  70
    32
  0
VERTEX
  8
0
  5
39079
 10
118.169
 20
197.356
 30
0.000000
  70
    32
  0
VERTEX
  8
0
  5
3907A
 10
118.181
 20
197.237
 30
0.000000
  70
    32
  0
VERTEX
  8
0
  5
3907B
 10
118.193
 20
197.118
 30
0.000000
  70
    32
  0
VERTEX
  8
0
  5
3907C
 10
118.206
 20
196.999
 30
0.000000
  70
    32
  0
VERTEX
  8
0
  5
3907D
 10
118.219
 20
196.880
 30
0.000000
  70
    32
  0
VERTEX
  8
0
  5
3907E
 10
118.233
 20
196.761
 30
0.000000
  70
    32
  0
VERTEX
  8
0
  5
3907F
 10
118.247
 20
196.642
 30
0.000000
  70
    32
  0
VERTEX
  8
0
  5
39080
 10
118.261
 20
196.523
 30
0.000000
  70
    32
  0
VERTEX
  8
0
  5
39081
 10
118.276
 20
196.404
 30
0.000000
  70
    32
  0
VERTEX
  8
0
  5
39082
 10
118.291
 20
196.285
 30
0.000000
  70
    32
  0
VERTEX
  8
0
  5
39083
 10
118.307
 20
196.167
 30
0.000000
  70
    32
  0
VERTEX
  8
0
  5
39084
 10
118.323
 20
196.048
 30
0.000000
  70
    32
  0
VERTEX
  8
0
  5
39085
 10
118.339
 20
195.929
 30
0.000000
  70
    32
  0
VERTEX
  8
0
  5
39086
 10
118.356
 20
195.811
 30
0.000000
  70
    32
  0
VERTEX
  8
0
  5
39087
 10
118.374
 20
195.692
 30
0.000000
  70
    32
  0
VERTEX
  8
0
  5
39088
 10
118.391
 20
195.574
 30
0.000000
  70
    32
  0
VERTEX
  8
0
  5
39089
 10
118.409
 20
195.456
 30
0.000000
  70
    32
  0
VERTEX
  8
0
  5
3908A
 10
118.428
 20
195.337
 30
0.000000
  70
    32
  0
VERTEX
  8
0
  5
3908B
 10
118.446
 20
195.219
 30
0.000000
  70
    32
  0
VERTEX
  8
0
  5
3908C
 10
118.466
 20
195.101
 30
0.000000
  70
    32
  0
VERTEX
  8
0
  5
3908D
 10
118.485
 20
194.983
 30
0.000000
  70
    32
  0
VERTEX
  8
0
  5
3908E
 10
118.505
 20
194.865
 30
0.000000
  70
    32
  0
VERTEX
  8
0
  5
3908F
 10
118.526
 20
194.747
 30
0.000000
  70
    32
  0
VERTEX
  8
0
  5
39090
 10
118.547
 20
194.629
 30
0.000000
  70
    32
  0
VERTEX
  8
0
  5
39091
 10
118.568
 20
194.512
 30
0.000000
  70
    32
  0
VERTEX
  8
0
  5
39092
 10
118.589
 20
194.394
 30
0.000000
  70
    32
  0
VERTEX
  8
0
  5
39093
 10
118.611
 20
194.276
 30
0.000000
  70
    32
  0
VERTEX
  8
0
  5
39094
 10
118.634
 20
194.159
 30
0.000000
  70
    32
  0
VERTEX
  8
0
  5
39095
 10
118.657
 20
194.041
 30
0.000000
  70
    32
  0
VERTEX
  8
0
  5
39096
 10
118.680
 20
193.924
 30
0.000000
  70
    32
  0
VERTEX
  8
0
  5
39097
 10
118.704
 20
193.807
 30
0.000000
  70
    32
  0
VERTEX
  8
0
  5
39098
 10
118.728
 20
193.690
 30
0.000000
  70
    32
  0
VERTEX
  8
0
  5
39099
 10
118.752
 20
193.573
 30
0.000000
  70
    32
  0
VERTEX
  8
0
  5
3909A
 10
118.777
 20
193.456
 30
0.000000
  70
    32
  0
VERTEX
  8
0
  5
3909B
 10
118.802
 20
193.339
 30
0.000000
  70
    32
  0
VERTEX
  8
0
  5
3909C
 10
118.828
 20
193.222
 30
0.000000
  70
    32
  0
VERTEX
  8
0
  5
3909D
 10
118.854
 20
193.105
 30
0.000000
  70
    32
  0
VERTEX
  8
0
  5
3909E
 10
118.880
 20
192.988
 30
0.000000
  70
    32
  0
VERTEX
  8
0
  5
3909F
 10
118.907
 20
192.872
 30
0.000000
  70
    32
  0
VERTEX
  8
0
  5
390A0
 10
118.934
 20
192.755
 30
0.000000
  70
    32
  0
VERTEX
  8
0
  5
390A1
 10
118.962
 20
192.639
 30
0.000000
  70
    32
  0
VERTEX
  8
0
  5
390A2
 10
118.990
 20
192.523
 30
0.000000
  70
    32
  0
VERTEX
  8
0
  5
390A3
 10
119.018
 20
192.407
 30
0.000000
  70
    32
  0
VERTEX
  8
0
  5
390A4
 10
119.047
 20
192.291
 30
0.000000
  70
    32
  0
VERTEX
  8
0
  5
390A5
 10
119.076
 20
192.175
 30
0.000000
  70
    32
  0
VERTEX
  8
0
  5
390A6
 10
119.106
 20
192.059
 30
0.000000
  70
    32
  0
VERTEX
  8
0
  5
390A7
 10
119.136
 20
191.943
 30
0.000000
  70
    32
  0
VERTEX
  8
0
  5
390A8
 10
119.166
 20
191.828
 30
0.000000
  70
    32
  0
VERTEX
  8
0
  5
390A9
 10
119.197
 20
191.712
 30
0.000000
  70
    32
  0
VERTEX
  8
0
  5
390AA
 10
119.228
 20
191.597
 30
0.000000
  70
    32
  0
VERTEX
  8
0
  5
390AB
 10
119.259
 20
191.482
 30
0.000000
  70
    32
  0
VERTEX
  8
0
  5
390AC
 10
119.291
 20
191.366
 30
0.000000
  70
    32
  0
VERTEX
  8
0
  5
390AD
 10
119.324
 20
191.251
 30
0.000000
  70
    32
  0
VERTEX
  8
0
  5
390AE
 10
119.356
 20
191.136
 30
0.000000
  70
    32
  0
VERTEX
  8
0
  5
390AF
 10
119.389
 20
191.022
 30
0.000000
  70
    32
  0
VERTEX
  8
0
  5
390B0
 10
119.423
 20
190.907
 30
0.000000
  70
    32
  0
VERTEX
  8
0
  5
390B1
 10
119.457
 20
190.792
 30
0.000000
  70
    32
  0
VERTEX
  8
0
  5
390B2
 10
119.491
 20
190.678
 30
0.000000
  70
    32
  0
VERTEX
  8
0
  5
390B3
 10
119.526
 20
190.564
 30
0.000000
  70
    32
  0
VERTEX
  8
0
  5
390B4
 10
119.561
 20
190.449
 30
0.000000
  70
    32
  0
VERTEX
  8
0
  5
390B5
 10
119.596
 20
190.335
 30
0.000000
  70
    32
  0
VERTEX
  8
0
  5
390B6
 10
119.632
 20
190.222
 30
0.000000
  70
    32
  0
VERTEX
  8
0
  5
390B7
 10
119.668
 20
190.108
 30
0.000000
  70
    32
  0
VERTEX
  8
0
  5
390B8
 10
119.705
 20
189.994
 30
0.000000
  70
    32
  0
VERTEX
  8
0
  5
390B9
 10
119.742
 20
189.881
 30
0.000000
  70
    32
  0
VERTEX
  8
0
  5
390BA
 10
119.779
 20
189.767
 30
0.000000
  70
    32
  0
VERTEX
  8
0
  5
390BB
 10
119.817
 20
189.654
 30
0.000000
  70
    32
  0
VERTEX
  8
0
  5
390BC
 10
119.855
 20
189.541
 30
0.000000
  70
    32
  0
VERTEX
  8
0
  5
390BD
 10
119.893
 20
189.428
 30
0.000000
  70
    32
  0
VERTEX
  8
0
  5
390BE
 10
119.932
 20
189.315
 30
0.000000
  70
    32
  0
VERTEX
  8
0
  5
390BF
 10
119.971
 20
189.202
 30
0.000000
  70
    32
  0
VERTEX
  8
0
  5
390C0
 10
120.011
 20
189.090
 30
0.000000
  70
    32
  0
VERTEX
  8
0
  5
390C1
 10
120.051
 20
188.977
 30
0.000000
  70
    32
  0
VERTEX
  8
0
  5
390C2
 10
120.091
 20
188.865
 30
0.000000
  70
    32
  0
VERTEX
  8
0
  5
390C3
 10
120.132
 20
188.753
 30
0.000000
  70
    32
  0
VERTEX
  8
0
  5
390C4
 10
120.173
 20
188.641
 30
0.000000
  70
    32
  0
VERTEX
  8
0
  5
390C5
 10
120.215
 20
188.529
 30
0.000000
  70
    32
  0
VERTEX
  8
0
  5
390C6
 10
120.257
 20
188.417
 30
0.000000
  70
    32
  0
VERTEX
  8
0
  5
390C7
 10
120.299
 20
188.306
 30
0.000000
  70
    32
  0
VERTEX
  8
0
  5
390C8
 10
120.342
 20
188.195
 30
0.000000
  70
    32
  0
VERTEX
  8
0
  5
390C9
 10
120.385
 20
188.083
 30
0.000000
  70
    32
  0
VERTEX
  8
0
  5
390CA
 10
120.428
 20
187.972
 30
0.000000
  70
    32
  0
VERTEX
  8
0
  5
390CB
 10
120.472
 20
187.862
 30
0.000000
  70
    32
  0
VERTEX
  8
0
  5
390CC
 10
120.516
 20
187.751
 30
0.000000
  70
    32
  0
VERTEX
  8
0
  5
390CD
 10
120.561
 20
187.640
 30
0.000000
  70
    32
  0
VERTEX
  8
0
  5
390CE
 10
120.606
 20
187.530
 30
0.000000
  70
    32
  0
VERTEX
  8
0
  5
390CF
 10
120.651
 20
187.420
 30
0.000000
  70
    32
  0
VERTEX
  8
0
  5
390D0
 10
120.697
 20
187.310
 30
0.000000
  70
    32
  0
VERTEX
  8
0
  5
390D1
 10
120.743
 20
187.200
 30
0.000000
  70
    32
  0
VERTEX
  8
0
  5
390D2
 10
120.790
 20
187.090
 30
0.000000
  70
    32
  0
VERTEX
  8
0
  5
390D3
 10
120.836
 20
186.980
 30
0.000000
  70
    32
  0
VERTEX
  8
0
  5
390D4
 10
120.884
 20
186.871
 30
0.000000
  70
    32
  0
VERTEX
  8
0
  5
390D5
 10
120.931
 20
186.762
 30
0.000000
  70
    32
  0
VERTEX
  8
0
  5
390D6
 10
120.979
 20
186.653
 30
0.000000
  70
    32
  0
VERTEX
  8
0
  5
390D7
 10
121.027
 20
186.544
 30
0.000000
  70
    32
  0
VERTEX
  8
0
  5
390D8
 10
121.076
 20
186.435
 30
0.000000
  70
    32
  0
VERTEX
  8
0
  5
390D9
 10
121.125
 20
186.327
 30
0.000000
  70
    32
  0
VERTEX
  8
0
  5
390DA
 10
121.174
 20
186.218
 30
0.000000
  70
    32
  0
VERTEX
  8
0
  5
390DB
 10
121.224
 20
186.110
 30
0.000000
  70
    32
  0
VERTEX
  8
0
  5
390DC
 10
121.274
 20
186.002
 30
0.000000
  70
    32
  0
SEQEND
  8
0
  5
390DD
  0
POLYLINE
  5
36C6A
  8
0
 10
180.72200165094841
 20
186.00202206475515
 30
0.0
 66
     1
 70
     8
  0
VERTEX
  8
0
  5
390DE
 10
180.722
 20
186.002
 30
0.000000
  70
    32
  0
VERTEX
  8
0
  5
390DF
 10
180.772
 20
186.110
 30
0.000000
  70
    32
  0
VERTEX
  8
0
  5
390E0
 10
180.822
 20
186.218
 30
0.000000
  70
    32
  0
VERTEX
  8
0
  5
390E1
 10
180.871
 20
186.327
 30
0.000000
  70
    32
  0
VERTEX
  8
0
  5
390E2
 10
180.920
 20
186.435
 30
0.000000
  70
    32
  0
VERTEX
  8
0
  5
390E3
 10
180.969
 20
186.544
 30
0.000000
  70
    32
  0
VERTEX
  8
0
  5
390E4
 10
181.017
 20
186.653
 30
0.000000
  70
    32
  0
VERTEX
  8
0
  5
390E5
 10
181.065
 20
186.762
 30
0.000000
  70
    32
  0
VERTEX
  8
0
  5
390E6
 10
181.113
 20
186.871
 30
0.000000
  70
    32
  0
VERTEX
  8
0
  5
390E7
 10
181.160
 20
186.980
 30
0.000000
  70
    32
  0
VERTEX
  8
0
  5
390E8
 10
181.207
 20
187.090
 30
0.000000
  70
    32
  0
VERTEX
  8
0
  5
390E9
 10
181.253
 20
187.200
 30
0.000000
  70
    32
  0
VERTEX
  8
0
  5
390EA
 10
181.299
 20
187.310
 30
0.000000
  70
    32
  0
VERTEX
  8
0
  5
390EB
 10
181.345
 20
187.420
 30
0.000000
  70
    32
  0
VERTEX
  8
0
  5
390EC
 10
181.390
 20
187.530
 30
0.000000
  70
    32
  0
VERTEX
  8
0
  5
390ED
 10
181.435
 20
187.640
 30
0.000000
  70
    32
  0
VERTEX
  8
0
  5
390EE
 10
181.480
 20
187.751
 30
0.000000
  70
    32
  0
VERTEX
  8
0
  5
390EF
 10
181.524
 20
187.862
 30
0.000000
  70
    32
  0
VERTEX
  8
0
  5
390F0
 10
181.568
 20
187.972
 30
0.000000
  70
    32
  0
VERTEX
  8
0
  5
390F1
 10
181.611
 20
188.083
 30
0.000000
  70
    32
  0
VERTEX
  8
0
  5
390F2
 10
181.654
 20
188.195
 30
0.000000
  70
    32
  0
VERTEX
  8
0
  5
390F3
 10
181.697
 20
188.306
 30
0.000000
  70
    32
  0
VERTEX
  8
0
  5
390F4
 10
181.739
 20
188.417
 30
0.000000
  70
    32
  0
VERTEX
  8
0
  5
390F5
 10
181.781
 20
188.529
 30
0.000000
  70
    32
  0
VERTEX
  8
0
  5
390F6
 10
181.823
 20
188.641
 30
0.000000
  70
    32
  0
VERTEX
  8
0
  5
390F7
 10
181.864
 20
188.753
 30
0.000000
  70
    32
  0
VERTEX
  8
0
  5
390F8
 10
181.905
 20
188.865
 30
0.000000
  70
    32
  0
VERTEX
  8
0
  5
390F9
 10
181.945
 20
188.977
 30
0.000000
  70
    32
  0
VERTEX
  8
0
  5
390FA
 10
181.985
 20
189.090
 30
0.000000
  70
    32
  0
VERTEX
  8
0
  5
390FB
 10
182.025
 20
189.202
 30
0.000000
  70
    32
  0
VERTEX
  8
0
  5
390FC
 10
182.064
 20
189.315
 30
0.000000
  70
    32
  0
VERTEX
  8
0
  5
390FD
 10
182.103
 20
189.428
 30
0.000000
  70
    32
  0
VERTEX
  8
0
  5
390FE
 10
182.142
 20
189.541
 30
0.000000
  70
    32
  0
VERTEX
  8
0
  5
390FF
 10
182.180
 20
189.654
 30
0.000000
  70
    32
  0
VERTEX
  8
0
  5
39100
 10
182.218
 20
189.767
 30
0.000000
  70
    32
  0
VERTEX
  8
0
  5
39101
 10
182.255
 20
189.881
 30
0.000000
  70
    32
  0
VERTEX
  8
0
  5
39102
 10
182.292
 20
189.994
 30
0.000000
  70
    32
  0
VERTEX
  8
0
  5
39103
 10
182.328
 20
190.108
 30
0.000000
  70
    32
  0
VERTEX
  8
0
  5
39104
 10
182.365
 20
190.222
 30
0.000000
  70
    32
  0
VERTEX
  8
0
  5
39105
 10
182.400
 20
190.335
 30
0.000000
  70
    32
  0
VERTEX
  8
0
  5
39106
 10
182.436
 20
190.449
 30
0.000000
  70
    32
  0
VERTEX
  8
0
  5
39107
 10
182.471
 20
190.564
 30
0.000000
  70
    32
  0
VERTEX
  8
0
  5
39108
 10
182.506
 20
190.678
 30
0.000000
  70
    32
  0
VERTEX
  8
0
  5
39109
 10
182.540
 20
190.792
 30
0.000000
  70
    32
  0
VERTEX
  8
0
  5
3910A
 10
182.574
 20
190.907
 30
0.000000
  70
    32
  0
VERTEX
  8
0
  5
3910B
 10
182.607
 20
191.022
 30
0.000000
  70
    32
  0
VERTEX
  8
0
  5
3910C
 10
182.640
 20
191.136
 30
0.000000
  70
    32
  0
VERTEX
  8
0
  5
3910D
 10
182.673
 20
191.251
 30
0.000000
  70
    32
  0
VERTEX
  8
0
  5
3910E
 10
182.705
 20
191.366
 30
0.000000
  70
    32
  0
VERTEX
  8
0
  5
3910F
 10
182.737
 20
191.482
 30
0.000000
  70
    32
  0
VERTEX
  8
0
  5
39110
 10
182.769
 20
191.597
 30
0.000000
  70
    32
  0
VERTEX
  8
0
  5
39111
 10
182.800
 20
191.712
 30
0.000000
  70
    32
  0
VERTEX
  8
0
  5
39112
 10
182.831
 20
191.828
 30
0.000000
  70
    32
  0
VERTEX
  8
0
  5
39113
 10
182.861
 20
191.943
 30
0.000000
  70
    32
  0
VERTEX
  8
0
  5
39114
 10
182.891
 20
192.059
 30
0.000000
  70
    32
  0
VERTEX
  8
0
  5
39115
 10
182.920
 20
192.175
 30
0.000000
  70
    32
  0
VERTEX
  8
0
  5
39116
 10
182.950
 20
192.291
 30
0.000000
  70
    32
  0
VERTEX
  8
0
  5
39117
 10
182.978
 20
192.407
 30
0.000000
  70
    32
  0
VERTEX
  8
0
  5
39118
 10
183.007
 20
192.523
 30
0.000000
  70
    32
  0
VERTEX
  8
0
  5
39119
 10
183.035
 20
192.639
 30
0.000000
  70
    32
  0
VERTEX
  8
0
  5
3911A
 10
183.062
 20
192.755
 30
0.000000
  70
    32
  0
VERTEX
  8
0
  5
3911B
 10
183.090
 20
192.872
 30
0.000000
  70
    32
  0
VERTEX
  8
0
  5
3911C
 10
183.116
 20
192.988
 30
0.000000
  70
    32
  0
VERTEX
  8
0
  5
3911D
 10
183.143
 20
193.105
 30
0.000000
  70
    32
  0
VERTEX
  8
0
  5
3911E
 10
183.169
 20
193.222
 30
0.000000
  70
    32
  0
VERTEX
  8
0
  5
3911F
 10
183.194
 20
193.339
 30
0.000000
  70
    32
  0
VERTEX
  8
0
  5
39120
 10
183.220
 20
193.456
 30
0.000000
  70
    32
  0
VERTEX
  8
0
  5
39121
 10
183.244
 20
193.573
 30
0.000000
  70
    32
  0
VERTEX
  8
0
  5
39122
 10
183.269
 20
193.690
 30
0.000000
  70
    32
  0
VERTEX
  8
0
  5
39123
 10
183.293
 20
193.807
 30
0.000000
  70
    32
  0
VERTEX
  8
0
  5
39124
 10
183.316
 20
193.924
 30
0.000000
  70
    32
  0
VERTEX
  8
0
  5
39125
 10
183.340
 20
194.041
 30
0.000000
  70
    32
  0
VERTEX
  8
0
  5
39126
 10
183.363
 20
194.159
 30
0.000000
  70
    32
  0
VERTEX
  8
0
  5
39127
 10
183.385
 20
194.276
 30
0.000000
  70
    32
  0
VERTEX
  8
0
  5
39128
 10
183.407
 20
194.394
 30
0.000000
  70
    32
  0
VERTEX
  8
0
  5
39129
 10
183.429
 20
194.512
 30
0.000000
  70
    32
  0
VERTEX
  8
0
  5
3912A
 10
183.450
 20
194.629
 30
0.000000
  70
    32
  0
VERTEX
  8
0
  5
3912B
 10
183.471
 20
194.747
 30
0.000000
  70
    32
  0
VERTEX
  8
0
  5
3912C
 10
183.491
 20
194.865
 30
0.000000
  70
    32
  0
VERTEX
  8
0
  5
3912D
 10
183.511
 20
194.983
 30
0.000000
  70
    32
  0
VERTEX
  8
0
  5
3912E
 10
183.531
 20
195.101
 30
0.000000
  70
    32
  0
VERTEX
  8
0
  5
3912F
 10
183.550
 20
195.219
 30
0.000000
  70
    32
  0
VERTEX
  8
0
  5
39130
 10
183.569
 20
195.337
 30
0.000000
  70
    32
  0
VERTEX
  8
0
  5
39131
 10
183.587
 20
195.456
 30
0.000000
  70
    32
  0
VERTEX
  8
0
  5
39132
 10
183.605
 20
195.574
 30
0.000000
  70
    32
  0
VERTEX
  8
0
  5
39133
 10
183.623
 20
195.692
 30
0.000000
  70
    32
  0
VERTEX
  8
0
  5
39134
 10
183.640
 20
195.811
 30
0.000000
  70
    32
  0
VERTEX
  8
0
  5
39135
 10
183.657
 20
195.929
 30
0.000000
  70
    32
  0
VERTEX
  8
0
  5
39136
 10
183.673
 20
196.048
 30
0.000000
  70
    32
  0
VERTEX
  8
0
  5
39137
 10
183.689
 20
196.167
 30
0.000000
  70
    32
  0
VERTEX
  8
0
  5
39138
 10
183.705
 20
196.285
 30
0.000000
  70
    32
  0
VERTEX
  8
0
  5
39139
 10
183.720
 20
196.404
 30
0.000000
  70
    32
  0
VERTEX
  8
0
  5
3913A
 10
183.735
 20
196.523
 30
0.000000
  70
    32
  0
VERTEX
  8
0
  5
3913B
 10
183.749
 20
196.642
 30
0.000000
  70
    32
  0
VERTEX
  8
0
  5
3913C
 10
183.763
 20
196.761
 30
0.000000
  70
    32
  0
VERTEX
  8
0
  5
3913D
 10
183.777
 20
196.880
 30
0.000000
  70
    32
  0
VERTEX
  8
0
  5
3913E
 10
183.790
 20
196.999
 30
0.000000
  70
    32
  0
VERTEX
  8
0
  5
3913F
 10
183.803
 20
197.118
 30
0.000000
  70
    32
  0
VERTEX
  8
0
  5
39140
 10
183.815
 20
197.237
 30
0.000000
  70
    32
  0
VERTEX
  8
0
  5
39141
 10
183.827
 20
197.356
 30
0.000000
  70
    32
  0
VERTEX
  8
0
  5
39142
 10
183.839
 20
197.475
 30
0.000000
  70
    32
  0
VERTEX
  8
0
  5
39143
 10
183.850
 20
197.594
 30
0.000000
  70
    32
  0
VERTEX
  8
0
  5
39144
 10
183.861
 20
197.714
 30
0.000000
  70
    32
  0
VERTEX
  8
0
  5
39145
 10
183.871
 20
197.833
 30
0.000000
  70
    32
  0
VERTEX
  8
0
  5
39146
 10
183.881
 20
197.952
 30
0.000000
  70
    32
  0
VERTEX
  8
0
  5
39147
 10
183.891
 20
198.072
 30
0.000000
  70
    32
  0
VERTEX
  8
0
  5
39148
 10
183.900
 20
198.191
 30
0.000000
  70
    32
  0
VERTEX
  8
0
  5
39149
 10
183.909
 20
198.310
 30
0.000000
  70
    32
  0
VERTEX
  8
0
  5
3914A
 10
183.917
 20
198.430
 30
0.000000
  70
    32
  0
VERTEX
  8
0
  5
3914B
 10
183.925
 20
198.549
 30
0.000000
  70
    32
  0
VERTEX
  8
0
  5
3914C
 10
183.932
 20
198.669
 30
0.000000
  70
    32
  0
VERTEX
  8
0
  5
3914D
 10
183.939
 20
198.789
 30
0.000000
  70
    32
  0
VERTEX
  8
0
  5
3914E
 10
183.946
 20
198.908
 30
0.000000
  70
    32
  0
VERTEX
  8
0
  5
3914F
 10
183.952
 20
199.028
 30
0.000000
  70
    32
  0
VERTEX
  8
0
  5
39150
 10
183.958
 20
199.147
 30
0.000000
  70
    32
  0
VERTEX
  8
0
  5
39151
 10
183.964
 20
199.267
 30
0.000000
  70
    32
  0
VERTEX
  8
0
  5
39152
 10
183.969
 20
199.387
 30
0.000000
  70
    32
  0
VERTEX
  8
0
  5
39153
 10
183.974
 20
199.506
 30
0.000000
  70
    32
  0
VERTEX
  8
0
  5
39154
 10
183.978
 20
199.626
 30
0.000000
  70
    32
  0
VERTEX
  8
0
  5
39155
 10
183.982
 20
199.746
 30
0.000000
  70
    32
  0
VERTEX
  8
0
  5
39156
 10
183.985
 20
199.866
 30
0.000000
  70
    32
  0
VERTEX
  8
0
  5
39157
 10
183.988
 20
199.985
 30
0.000000
  70
    32
  0
VERTEX
  8
0
  5
39158
 10
183.991
 20
200.105
 30
0.000000
  70
    32
  0
VERTEX
  8
0
  5
39159
 10
183.993
 20
200.225
 30
0.000000
  70
    32
  0
VERTEX
  8
0
  5
3915A
 10
183.995
 20
200.345
 30
0.000000
  70
    32
  0
VERTEX
  8
0
  5
3915B
 10
183.996
 20
200.464
 30
0.000000
  70
    32
  0
VERTEX
  8
0
  5
3915C
 10
183.997
 20
200.584
 30
0.000000
  70
    32
  0
VERTEX
  8
0
  5
3915D
 10
183.998
 20
200.704
 30
0.000000
  70
    32
  0
VERTEX
  8
0
  5
3915E
 10
183.998
 20
200.824
 30
0.000000
  70
    32
  0
SEQEND
  8
0
  5
3915F
  0
LINE
  5
36C6B
  8
0
 10
122.9732092315012
 20
243.44368873142139
 30
0.0
 11
179.02320923149861
 21
243.44368873142139
 31
0.0
  0
LINE
  5
36C87
  8
1
 10
498.34629531269678
 20
179.7436887314206
 30
0.0
 11
578.22301902004119
 21
179.7436887314206
 31
0.0
  0
LINE
  5
36C88
  8
1
 10
538.28465716636902
 20
129.137334686271
 30
0.0
 11
538.28465716636845
 21
257.35004277657021
 31
0.0
  0
LINE
  5
36D0C
  8
3
 10
115.99820923149809
 20
182.97668873142081
 30
0.0
 11
117.99820923149809
 21
182.97668873142081
 31
0.0
  0
LINE
  5
36D0D
  8
3
 10
115.99820923149809
 20
176.51068873142231
 30
0.0
 11
117.99820923149809
 21
176.51068873142231
 31
0.0
  0
LINE
  5
37195
  8
2
 10
568.78465716636845
 20
200.82368636537649
 30
0.0
 11
568.78465716636845
 21
232.74368873142069
 31
0.0
  0
LINE
  5
37196
  8
2
 10
507.7846571663685
 20
232.74368873142069
 30
0.0
 11
507.7846571663685
 21
200.82368636537649
 31
0.0
  0
LINE
  5
37197
  8
2
 10
544.28465716636845
 20
232.74368873142069
 30
0.0
 11
544.28465716636845
 21
246.74368873142069
 31
0.0
  0
LINE
  5
37198
  8
2
 10
532.28465716636845
 20
246.74368873142069
 30
0.0
 11
532.28465716636845
 21
232.74368873142069
 31
0.0
  0
LINE
  5
37199
  8
2
 10
507.7846571663685
 20
232.74368873142069
 30
0.0
 11
568.78465716636845
 21
232.74368873142069
 31
0.0
  0
LINE
  5
3719A
  8
2
 10
414.1414331989335
 20
232.3588400673261
 30
0.0
 11
414.1414331989335
 21
232.74368873142069
 31
0.0
  0
LINE
  5
3719B
  8
2
 10
389.6414331989335
 20
232.74368873142069
 30
0.0
 11
389.6414331989335
 21
246.74368873142069
 31
0.0
  0
LINE
  5
3719C
  8
2
 10
377.6414331989335
 20
246.74368873142069
 30
0.0
 11
377.6414331989335
 21
232.74368873142069
 31
0.0
  0
LINE
  5
3719D
  8
2
 10
353.1414331989335
 20
232.74368873142069
 30
0.0
 11
414.1414331989335
 21
232.74368873142069
 31
0.0
  0
LINE
  5
3721C
  8
1
 10
111.0598473778259
 20
179.7436887314206
 30
0.0
 11
190.9365710851703
 21
179.7436887314206
 31
0.0
  0
LINE
  5
3721D
  8
1
 10
150.99820923149809
 20
129.137334686271
 30
0.0
 11
150.99820923149761
 21
257.35004277657021
 31
0.0
  0
LINE
  5
37269
  8
0
 10
264.15809369732818
 20
368.05415230361268
 30
0.0
 11
264.15809369732818
 21
400.09719367024621
 31
0.0
  0
LINE
  5
3726A
  8
0
 10
268.70225396135629
 20
365.07567298692811
 30
0.0
 11
268.70225396135629
 21
403.075672986928
 31
0.0
  0
LINE
  5
3726B
  8
0
 10
281.1580936973287
 20
368.07567298692811
 30
0.0
 11
281.15809369732921
 21
400.07567298692811
 31
0.0
  0
LINE
  5
3726C
  8
0
 10
284.1580936973287
 20
365.07567298692811
 30
0.0
 11
265.75220339594438
 21
365.07567298692811
 31
0.0
  0
LINE
  5
3726D
  8
0
 10
281.1580936973287
 20
368.07567298692811
 30
0.0
 11
284.1580936973287
 21
368.07567298692811
 31
0.0
  0
LINE
  5
3726E
  8
0
 10
284.1580936973287
 20
403.075672986928
 30
0.0
 11
265.75220339594438
 21
403.075672986928
 31
0.0
  0
LINE
  5
3726F
  8
0
 10
281.15809369733
 20
400.07567298692811
 30
0.0
 11
284.1580936973296
 21
400.07567298692811
 31
0.0
  0
ARC
  5
37270
  8
0
 10
268.49453309096998
 20
368.45922401337339
 30
0.0
 40
4.3553174057440378
 50
185.33657785306829
 51
230.9756258439001
  0
ARC
  5
37271
  8
0
 10
268.49453309096998
 20
399.69212196048278
 30
0.0
 40
4.3553174057440378
 50
129.0243741560999
 51
174.66342214693171
  0
LINE
  5
37272
  8
0
 10
264.15809369733
 20
220.86604156755311
 30
0.0
 11
267.3720317457628
 21
217.03581935195689
 31
0.0
  0
LINE
  5
37273
  8
0
 10
266.07320480512732
 20
222.47301059176971
 30
0.0
 11
264.15809369733
 21
220.86604156755311
 31
0.0
  0
LINE
  5
37274
  8
0
 10
268.70225396135771
 20
219.3398318147247
 30
0.0
 11
266.07320480512732
 21
222.47301059176971
 31
0.0
  0
LINE
  5
37275
  8
0
 10
284.86766039696113
 20
217.09554975716131
 30
0.0
 11
268.70225396135771
 21
219.3398318147247
 31
0.0
  0
LINE
  5
37276
  8
0
 10
284.18422801038611
 20
219.64615414739819
 30
0.0
 11
283.87868636776011
 21
219.8255228995331
 31
0.0
  0
LINE
  5
37277
  8
0
 10
267.3720317457628
 20
217.03581935195689
 30
0.0
 11
285.58159844539381
 21
214.43109668695431
 31
0.0
  0
LINE
  5
37278
  8
0
 10
281.61247397778112
 20
223.6021496727862
 30
0.0
 11
284.15650767129682
 21
223.25182632734499
 31
0.0
  0
LINE
  5
37279
  8
0
 10
281.16155568568138
 20
220.4917089786741
 30
0.0
 11
281.61247397778112
 21
223.6021496727862
 31
0.0
  0
LINE
  5
3727A
  8
0
 10
283.81293528546081
 20
220.20457816929959
 30
0.0
 11
284.15650767129682
 21
223.25182632734499
 31
0.0
  0
LINE
  5
3727B
  8
0
 10
281.16155568568138
 20
220.4917089786741
 30
0.0
 11
281.89950267823451
 21
217.50762619574019
 31
0.0
  0
LINE
  5
3727C
  8
0
 10
283.81293528546081
 20
220.20457816929959
 30
0.0
 11
283.87868636776011
 21
219.8255228995331
 31
0.0
  0
LINE
  5
372BC
  8
0
 10
176.5982092314984
 20
173.48535539808739
 30
0.0
 11
181.2982092314983
 21
173.48535539808739
 31
0.0
  0
LINE
  5
372BD
  8
0
 10
176.5982092314984
 20
186.00202206475569
 30
0.0
 11
181.2982092314983
 21
186.00202206475569
 31
0.0
  0
LINE
  5
372BE
  8
0
 10
120.49820923149809
 20
173.48535539808739
 30
0.0
 11
125.99820923149809
 21
173.48535539808739
 31
0.0
  0
LINE
  5
372BF
  8
0
 10
120.49820923149809
 20
186.00202206475569
 30
0.0
 11
125.99820923149809
 21
186.00202206475569
 31
0.0
  0
LINE
  5
372FF
  8
0
 10
169.99820923149761
 20
214.43109668695431
 30
0.0
 11
131.99820923149761
 21
214.43109668695431
 31
0.0
  0
LINE
  5
37300
  8
0
 10
169.99820923149761
 20
214.43109668695431
 30
0.0
 11
169.99820923149761
 21
222.47301059176971
 31
0.0
  0
LINE
  5
37301
  8
0
 10
166.99820923149809
 20
222.47301059176971
 30
0.0
 11
166.99820923149809
 21
223.6021496727862
 31
0.0
  0
LINE
  5
37302
  8
0
 10
169.99820923149761
 20
222.47301059176971
 30
0.0
 11
131.99820923149761
 21
222.47301059176971
 31
0.0
  0
LINE
  5
37303
  8
0
 10
131.99820923149761
 20
214.43109668695431
 30
0.0
 11
131.99820923149761
 21
222.47301059176971
 31
0.0
  0
LINE
  5
37304
  8
0
 10
166.99820923149809
 20
223.6021496727862
 30
0.0
 11
134.99820923149721
 21
223.6021496727862
 31
0.0
  0
LINE
  5
37305
  8
0
 10
134.99820923149721
 20
222.47301059176971
 30
0.0
 11
134.99820923149721
 21
223.6021496727862
 31
0.0
  0
LINE
  5
37306
  8
0
 10
131.99820923149761
 20
217.0358193519578
 30
0.0
 11
169.99820923149761
 21
217.0358193519578
 31
0.0
  0
LINE
  5
37309
  8
0
 10
557.28465716636845
 20
214.43109668695621
 30
0.0
 11
547.19670292671879
 21
214.43109668695621
 31
0.0
  0
LINE
  5
3730A
  8
0
 10
557.28465716636845
 20
214.43109668695621
 30
0.0
 11
557.28465716636845
 21
217.32887416569889
 31
0.0
  0
LINE
  5
3730B
  8
0
 10
519.28465716636845
 20
214.43109668695621
 30
0.0
 11
519.28465716636811
 21
217.32887416569889
 31
0.0
  0
LINE
  5
3730C
  8
0
 10
529.37261140601959
 20
214.43109668695621
 30
0.0
 11
519.28465716636845
 21
214.43109668695621
 31
0.0
  0
LINE
  5
3889E
  8
3
 10
560.78465716636902
 20
182.97668873142081
 30
0.0
 11
558.28465716636902
 21
182.97668873142089
 31
0.0
  0
LINE
  5
3889F
  8
3
 10
560.78465716636902
 20
176.51068873142049
 30
0.0
 11
558.28465716636902
 21
176.51068873142049
 31
0.0
  0
LINE
  5
388A0
  8
3
 10
518.28465716636902
 20
176.51068873142049
 30
0.0
 11
515.7846571663689
 21
176.51068873142049
 31
0.0
  0
LINE
  5
388A1
  8
3
 10
518.28465716636902
 20
182.97668873142089
 30
0.0
 11
515.7846571663689
 21
182.97668873142081
 31
0.0
  0
TEXT
  5
38C02
  8
0
 62
     3
 10
0.0
 20
0.0
 30
0.0
 40
10.0
  1
CAE3-080FBF
  7
STANDARD1
  0
LINE
  5
38C24
  8
0
 10
161.9982092314977
 20
243.44368873142051
 30
0.0
 11
161.9982092314977
 21
246.74368873142069
 31
0.0
  0
LINE
  5
38C25
  8
0
 10
139.9982092314977
 20
246.7436887314206
 30
0.0
 11
139.9982092314977
 21
243.44368873142051
 31
0.0
  0
LINE
  5
38C26
  8
0
 10
139.9982092314977
 20
246.7436887314206
 30
0.0
 11
161.9982092314977
 21
246.74368873142069
 31
0.0
  0
LINE
  5
38C27
  8
0
 10
549.28465716636867
 20
243.44368873142051
 30
0.0
 11
549.28465716636867
 21
246.74368873142069
 31
0.0
  0
LINE
  5
38C28
  8
0
 10
527.28465716636856
 20
246.7436887314206
 30
0.0
 11
527.28465716636856
 21
243.44368873142051
 31
0.0
  0
LINE
  5
38C29
  8
0
 10
527.28465716636845
 20
246.7436887314206
 30
0.0
 11
549.28465716636845
 21
246.74368873142069
 31
0.0
  0
ENDSEC
  0
EOF
