  0
SECTION
  2
HEADER
  9
$ACADVER
  1
AC1009
  9
$INSBASE
 10
0.0
 20
0.0
 30
0.0
  9
$EXTMIN
 10
0.0
 20
-2.960436562073669
 30
0.0
  9
$EXTMAX
 10
314.2079956560242
 20
238.80676905592011
 30
0.0
  9
$LIMMIN
 10
0.0
 20
0.0
  9
$LIMMAX
 10
375.0
 20
270.0
  9
$ORTHOMODE
 70
     1
  9
$REGENMODE
 70
     1
  9
$FILLMODE
 70
     1
  9
$QTEXTMODE
 70
     0
  9
$MIRRTEXT
 70
     1
  9
$DRAGMODE
 70
     2
  9
$LTSCALE
 40
10.0
  9
$OSMODE
 70
  3071
  9
$ATTMODE
 70
     1
  9
$TEXTSIZE
 40
5.0
  9
$TRACEWID
 40
0.05
  9
$TEXTSTYLE
  7
STANDARD
  9
$CLAYER
  8
0
  9
$CELTYPE
  6
BYLAYER
  9
$CECOLOR
 62
     6
  9
$DIMSCALE
 40
2.0
  9
$DIMASZ
 40
3.0
  9
$DIMEXO
 40
2.0
  9
$DIMDLI
 40
0.38
  9
$DIMRND
 40
0.0
  9
$DIMDLE
 40
0.0
  9
$DIMEXE
 40
2.0
  9
$DIMTP
 40
0.0
  9
$DIMTM
 40
0.0
  9
$DIMTXT
 40
3.2000000000000002
  9
$DIMCEN
 40
0.0
  9
$DIMTSZ
 40
0.0
  9
$DIMTOL
 70
     0
  9
$DIMLIM
 70
     0
  9
$DIMTIH
 70
     0
  9
$DIMTOH
 70
     0
  9
$DIMSE1
 70
     0
  9
$DIMSE2
 70
     0
  9
$DIMTAD
 70
     1
  9
$DIMZIN
 70
     8
  9
$DIMBLK
  1

  9
$DIMASO
 70
     0
  9
$DIMSHO
 70
     0
  9
$DIMPOST
  1

  9
$DIMAPOST
  1

  9
$DIMALT
 70
     0
  9
$DIMALTD
 70
     2
  9
$DIMALTF
 40
25.399999999999999
  9
$DIMLFAC
 40
1.0
  9
$DIMTOFL
 70
     0
  9
$DIMTVP
 40
1.6000000000000001
  9
$DIMTIX
 70
     1
  9
$DIMSOXD
 70
     0
  9
$DIMSAH
 70
     0
  9
$DIMBLK1
  1

  9
$DIMBLK2
  1

  9
$DIMSTYLE
  2
STANDARD
  9
$DIMCLRD
 70
     0
  9
$DIMCLRE
 70
     0
  9
$DIMCLRT
 70
     0
  9
$DIMTFAC
 40
1.0
  9
$DIMGAP
 40
1.1999999999999991
  9
$LUNITS
 70
     2
  9
$LUPREC
 70
     4
  9
$SKETCHINC
 40
0.1
  9
$FILLETRAD
 40
0.0
  9
$AUNITS
 70
     0
  9
$AUPREC
 70
     4
  9
$MENU
  1
ACAD
  9
$ELEVATION
 40
0.0
  9
$PELEVATION
 40
0.0
  9
$THICKNESS
 40
0.0
  9
$LIMCHECK
 70
     0
  9
$BLIPMODE
 70
     0
  9
$CHAMFERA
 40
0.0
  9
$CHAMFERB
 40
0.0
  9
$SKPOLY
 70
     0
  9
$TDCREATE
 40
2448055.7149187499
  9
$TDUPDATE
 40
2456598.557633217
  9
$TDINDWG
 40
3.3618582754999999
  9
$TDUSRTIMER
 40
3.3618582754999999
  9
$USRTIMER
 70
     1
  9
$ANGBASE
 50
0.0
  9
$ANGDIR
 70
     0
  9
$PDMODE
 70
     0
  9
$PDSIZE
 40
0.0
  9
$PLINEWID
 40
0.0
  9
$COORDS
 70
     1
  9
$SPLFRAME
 70
     0
  9
$SPLINETYPE
 70
     6
  9
$SPLINESEGS
 70
     8
  9
$ATTDIA
 70
     0
  9
$ATTREQ
 70
     1
  9
$HANDLING
 70
     1
  9
$HANDSEED
  5
3465D
  9
$SURFTAB1
 70
     6
  9
$SURFTAB2
 70
     6
  9
$SURFTYPE
 70
     6
  9
$SURFU
 70
     6
  9
$SURFV
 70
     6
  9
$UCSNAME
  2

  9
$UCSORG
 10
0.0
 20
0.0
 30
0.0
  9
$UCSXDIR
 10
1.0
 20
0.0
 30
0.0
  9
$UCSYDIR
 10
0.0
 20
1.0
 30
0.0
  9
$PUCSNAME
  2

  9
$PUCSORG
 10
0.0
 20
0.0
 30
0.0
  9
$PUCSXDIR
 10
1.0
 20
0.0
 30
0.0
  9
$PUCSYDIR
 10
0.0
 20
1.0
 30
0.0
  9
$USERI1
 70
     0
  9
$USERI2
 70
     0
  9
$USERI3
 70
     0
  9
$USERI4
 70
     0
  9
$USERI5
 70
     0
  9
$USERR1
 40
0.0
  9
$USERR2
 40
0.0
  9
$USERR3
 40
0.0
  9
$USERR4
 40
0.0
  9
$USERR5
 40
0.0
  9
$WORLDVIEW
 70
     1
  9
$SHADEDGE
 70
     3
  9
$SHADEDIF
 70
    70
  9
$TILEMODE
 70
     1
  9
$MAXACTVP
 70
    16
  9
$PLIMCHECK
 70
     0
  9
$PEXTMIN
 10
1.0000000000000000E+020
 20
1.0000000000000000E+020
 30
1.0000000000000000E+020
  9
$PEXTMAX
 10
-1.0000000000000000E+020
 20
-1.0000000000000000E+020
 30
-1.0000000000000000E+020
  9
$PLIMMIN
 10
0.0
 20
0.0
  9
$PLIMMAX
 10
12.0
 20
9.0
  9
$UNITMODE
 70
     0
  9
$VISRETAIN
 70
     0
  9
$PLINEGEN
 70
     1
  9
$PSLTSCALE
 70
     0
  0
ENDSEC
  0
SECTION
  2
TABLES
  0
TABLE
  2
VPORT
 70
     1
  0
VPORT
  2
*ACTIVE
 70
     0
 10
0.0
 20
0.0
 11
1.0
 21
1.0
 12
195.0581083320873
 22
133.5127261426681
 13
0.0
 23
0.0
 14
5.0
 24
5.0
 15
10.0
 25
10.0
 16
0.0
 26
0.0
 36
1.0
 17
0.0
 27
0.0
 37
0.0
 40
275.42274993631997
 41
1.831871345029239
 42
50.0
 43
0.0
 44
0.0
 50
0.0
 51
0.0
 71
     0
 72
   500
 73
     1
 74
     1
 75
     0
 76
     0
 77
     0
 78
     2
  0
ENDTAB
  0
TABLE
  2
LTYPE
 70
     4
  0
LTYPE
  2
CONTINUOUS
 70
     0
  3
実線
 72
    65
 73
     0
 40
0.0
  0
LTYPE
  2
CENTER
 70
     0
  3
____ _ ____ _ ____ _ ____ _ ____ _ ____ _ ____
 72
    65
 73
     4
 40
2.0
 49
1.25
 49
-0.25
 49
0.25
 49
-0.25
  0
LTYPE
  2
HIDDEN
 70
     0
  3
_ _ _ _ _ _ _ _ _ _ _ _ _ _ _ _ _ _ _ _ _ _ _
 72
    65
 73
     2
 40
0.375
 49
0.25
 49
-0.125
  0
LTYPE
  2
PHANTOM2
 70
     0
  3
___ _ _ ___ _ _ ___ _ _ ___ _ _
 72
    65
 73
     6
 40
1.25
 49
0.625
 49
-0.125
 49
0.125
 49
-0.125
 49
0.125
 49
-0.125
  0
ENDTAB
  0
TABLE
  2
LAYER
 70
     5
  0
LAYER
  2
0
 70
     0
 62
     7
  6
CONTINUOUS
  0
LAYER
  2
1
 70
     0
 62
     1
  6
CENTER
  0
LAYER
  2
2
 70
     0
 62
     2
  6
HIDDEN
  0
LAYER
  2
DEFPOINTS
 70
     0
 62
     7
  6
CONTINUOUS
  0
LAYER
  2
3
 70
     0
 62
     3
  6
CONTINUOUS
  0
ENDTAB
  0
TABLE
  2
STYLE
 70
     3
  0
STYLE
  2
STANDARD
 70
     0
 40
0.0
 41
1.0
 50
0.0
 71
     0
 42
5.0
  3
simplex.shx
  4
bigfont.shx
  0
STYLE
  2
07500
 70
     0
 40
0.0
 41
0.75
 50
0.0
 71
     0
 42
0.2
  3
simplex.shx
  4
bigfont.shx
  0
STYLE
  2
STANDARD1
 70
     0
 40
0.0
 41
1.0
 50
0.0
 71
     0
 42
3.0
  3
txt
  4

  0
ENDTAB
  0
TABLE
  2
VIEW
 70
     2
  0
VIEW
  2
ALL
 70
     0
 40
270.0
 10
220.99159663865549
 20
135.0
 41
0.0
 11
0.0
 21
0.0
 31
1.0
 12
0.0
 22
0.0
 32
0.0
 42
0.0
 43
0.0
 44
0.0
 50
0.0
 71
     0
  0
VIEW
  2
OLE1
 70
     0
 40
168.2487151179721
 10
2892.3009567448912
 20
702.51600084347126
 41
162.5749581879237
 11
0.0
 21
0.0
 31
1.0
 12
0.0
 22
0.0
 32
0.0
 42
50.0
 43
0.0
 44
0.0
 50
0.0
 71
     0
  0
ENDTAB
  0
TABLE
  2
UCS
 70
     0
  0
ENDTAB
  0
TABLE
  2
APPID
 70
    48
  0
APPID
  2
ACAD
 70
     0
  0
APPID
  2
DCO15
 70
     0
  0
APPID
  2
GENIUS_GENOREF_13
 70
     0
  0
APPID
  2
GENIUS_GENOENT_13
 70
     0
  0
APPID
  2
GENIUS_GENBH_13
 70
     0
  0
APPID
  2
GENIUS_GENOBJ_13
 70
     0
  0
APPID
  2
GENIUS_GENODEF_13
 70
     0
  0
APPID
  2
GENIUS_GENOLIS_13
 70
     0
  0
APPID
  2
GENIUS_GENOBJ-NBEHI-BHF_13
 70
     0
  0
APPID
  2
GENIUS_GENOBJ-NBEHI-BHB_13
 70
     0
  0
APPID
  2
GENIUS_GENOBJ-F-PART_13
 70
     0
  0
APPID
  2
GENIUS_GEFSTDP_13
 70
     0
  0
APPID
  2
GENIUS_GENOBJ-N-RSSYM_13
 70
     0
  0
APPID
  2
GENIUS_GENSYMENT_13
 70
     0
  0
APPID
  2
GENIUS_GENOBJ-N-TIT_13
 70
     0
  0
APPID
  2
GENIUS_GENTITLE_13
 70
     0
  0
APPID
  2
GENIUS_GENZVEED_13
 70
     0
  0
APPID
  2
GENIUS_GENOBJ-N-LEADER_13
 70
     0
  0
APPID
  2
GENIUS_GENOBJ-N-FIL_13
 70
     0
  0
APPID
  2
GENIUS_GENOBJ-N-SEC_13
 70
     0
  0
APPID
  2
GENIUS_GENOBJ-N-CRS_13
 70
     0
  0
APPID
  2
GENIUS_GENOBJ-N-ZOO_13
 70
     0
  0
APPID
  2
GENIUS_GENZOO_13
 70
     0
  0
APPID
  2
GENIUS_GENOBJ-F-TOL_13
 70
     0
  0
APPID
  2
GENIUS_GENFIL_13
 70
     0
  0
APPID
  2
GENIUS_GENOBJ-N-CHA_13
 70
     0
  0
APPID
  2
_CALL_MAC$
 70
     0
  0
APPID
  2
ASM_BASE
 70
     0
  0
APPID
  2
ASM_EXPLO_VER_2_00
 70
     0
  0
APPID
  2
ASM_CADM_VER_12_00
 70
     0
  0
APPID
  2
ASM_BASEFORO
 70
     0
  0
APPID
  2
ASM_BASETRAVI
 70
     0
  0
APPID
  2
ASM_BASETRAVI1
 70
     0
  0
APPID
  2
ASM_GRUPPI
 70
     0
  0
APPID
  2
ASM_CADM_ALBERO
 70
     0
  0
APPID
  2
ASM_GOLE
 70
     0
  0
APPID
  2
ACAD_MLEADERVER
 70
     0
  0
APPID
  2
ACAD_DSTYLE_DIMJAG
 70
     0
  0
APPID
  2
ACAD_DSTYLE_DIMTALN
 70
     0
  0
APPID
  2
ACAD_EXEMPT_FROM_CAD_STANDARDS
 70
     0
  0
APPID
  2
ACAD_DSTYLE_DIMRADIAL_EXTENSION
 70
     0
  0
APPID
  2
ACAD_PSEXT
 70
     0
  0
APPID
  2
ACAD_DSTYLE_DIMBREAK
 70
     0
  0
APPID
  2
ACAECLAYERSTANDARD
 70
     0
  0
APPID
  2
ACCMTRANSPARENCY
 70
     0
  0
APPID
  2
GRADIENTCOLOR1ACI
 70
     0
  0
APPID
  2
GRADIENTCOLOR2ACI
 70
     0
  0
APPID
  2
ACAD_NAV_VCDISPLAY
 70
     0
  0
ENDTAB
  0
TABLE
  2
DIMSTYLE
 70
     1
  0
DIMSTYLE
  2
STANDARD
 70
     0
  3

  4

  5

  6

  7

 40
1.0
 41
0.18
 42
0.0625
 43
0.38
 44
0.18
 45
0.0
 46
0.0
 47
0.0
 48
0.0
140
0.18
141
0.09
142
0.0
143
25.399999999999999
144
1.0
145
0.0
146
1.0
147
0.09
 71
     0
 72
     0
 73
     1
 74
     1
 75
     0
 76
     0
 77
     0
 78
     0
170
     0
171
     2
172
     0
173
     0
174
     0
175
     0
176
     0
177
     0
178
     0
  0
ENDTAB
  0
ENDSEC
  0
SECTION
  2
BLOCKS
  0
BLOCK
  8
0
  2
$MODEL_SPACE
 70
     0
 10
0.0
 20
0.0
 30
0.0
  3
$MODEL_SPACE
  1

  0
ENDBLK
  5
36
  8
0
  0
BLOCK
 67
     1
  8
0
  2
$PAPER_SPACE
 70
     0
 10
0.0
 20
0.0
 30
0.0
  3
$PAPER_SPACE
  1

  0
ENDBLK
  5
34
 67
     1
  8
0
  0
ENDSEC
  0
SECTION
  2
ENTITIES
  0
LINE
  5
33E36
  8
0
 10
186.14901346987219
 20
126.81309916727361
 30
0.0
 11
186.14901346987219
 21
125.81309916727361
 31
0.0
  0
LINE
  5
33E37
  8
0
 10
221.14901346987219
 20
125.81309916727361
 30
0.0
 11
221.14901346987219
 21
126.81309916727361
 31
0.0
  0
LINE
  5
33E38
  8
0
 10
221.14901346987219
 20
126.81309916727361
 30
0.0
 11
219.4808854237105
 21
130.61653073412629
 31
0.0
  0
LINE
  5
33E39
  8
0
 10
187.81714151603401
 20
130.61653073412629
 30
0.0
 11
186.14901346987219
 21
126.81309916727361
 31
0.0
  0
ARC
  5
33E3A
  8
0
 10
189.64901346987219
 20
129.81309916727329
 30
0.0
 40
2.0003142597789472
 50
90.0
 51
156.3184642990536
  0
ARC
  5
33E3B
  8
0
 10
217.64901346987219
 20
129.81309916727329
 30
0.0
 40
2.0003142597789729
 50
23.68153570094541
 51
90.0
  0
LINE
  5
33E3C
  8
0
 10
217.64901346987219
 20
131.81341342705221
 30
0.0
 11
189.64901346987219
 21
131.81341342705221
 31
0.0
  0
LINE
  5
33E3D
  8
0
 10
188.14901346987219
 20
125.81309916727361
 30
0.0
 11
188.14901346987219
 21
123.81309916727361
 31
0.0
  0
LINE
  5
33E3E
  8
0
 10
219.14901346987219
 20
119.31309916727361
 30
0.0
 11
219.14901346987219
 21
125.81309916727361
 31
0.0
  0
ARC
  5
33E40
  8
0
 10
179.64901346986829
 20
90.813099167273592
 30
0.0
 40
25.000000000003912
 50
94.078055738254221
 51
35.819246123055677
  0
LINE
  5
33E54
  8
0
 10
186.14901346987219
 20
125.81309916727361
 30
0.0
 11
221.14901346987219
 21
125.81309916727361
 31
0.0
  0
LINE
  5
33E56
  8
0
 10
186.14901346987219
 20
126.81309916727361
 30
0.0
 11
221.14901346987219
 21
126.81309916727361
 31
0.0
  0
LINE
  5
33E57
  8
0
 10
195.20804196180521
 20
99.394658368191955
 30
0.0
 11
195.20804196180521
 21
121.81309916727361
 31
0.0
  0
ARC
  5
33E58
  8
0
 10
192.85076204050239
 20
121.42762272998171
 30
0.0
 40
2.3885896908184412
 50
9.2871472050215811
 51
92.925642661322215
  0
LINE
  5
33E59
  8
0
 10
219.14901346987219
 20
119.31309916727361
 30
0.0
 11
213.14901346987219
 21
119.31309916727361
 31
0.0
  0
ARC
  5
33E5A
  8
0
 10
213.1490134698725
 20
114.3530991672759
 30
0.0
 40
4.9599999999977342
 50
90.000000000006509
 51
142.0794508313675
  0
LINE
  5
33E5C
  8
0
 10
195.20804196180521
 20
121.81309916727361
 30
0.0
 11
178.64901346987199
 21
121.81309916727361
 31
0.0
  0
LINE
  5
33E5E
  8
0
 10
178.64901346987199
 20
123.81309916727361
 30
0.0
 11
192.72884863595149
 21
123.81309916727361
 31
0.0
  0
ARC
  5
33E5F
  8
0
 10
179.64901346987219
 20
90.813099167273592
 30
0.0
 40
7.0000000000001981
 50
167.8178510299565
 51
322.07945083137417
  0
LINE
  5
33E60
  8
0
 10
172.80664166058409
 20
92.290241009975546
 30
0.0
 11
178.64901346987199
 21
119.3530991672732
 31
0.0
  0
LINE
  5
33E61
  8
0
 10
178.64901346987199
 20
119.3530991672732
 30
0.0
 11
178.64901346987199
 21
123.81309916727361
 31
0.0
  0
LINE
  5
33E62
  8
0
 10
209.2362494171748
 20
117.4013572711598
 30
0.0
 11
185.171059511989
 21
86.511122004532766
 31
0.0
  0
ARC
  5
33E64
  8
0
 10
179.64901346987219
 20
90.813099167273592
 30
0.0
 40
8.0000000000000142
 50
138.8628266580991
 51
351.03447520323118
  0
ARC
  5
33E66
  8
0
 10
179.64901346987219
 20
90.813099167273592
 30
0.0
 40
13.00000000000003
 50
110.39682142276099
 51
19.500480438567379
  0
LINE
  5
33E68
  8
0
 10
187.81714151603401
 20
130.61653073412629
 30
0.0
 11
219.4808854237105
 21
130.61653073412629
 31
0.0
  0
ARC
  5
33E69
  8
0
 10
179.64901346987219
 20
90.813099167273592
 30
0.0
 40
21.56385865284804
 50
96.760237453580885
 51
33.137064407744582
  0
ARC
  5
33E6B
  8
0
 10
179.64901346987219
 20
90.813099167273592
 30
0.0
 40
23.438976796574021
 50
95.194258916823657
 51
34.703042944507793
  0
LINE
  5
33E6D
  8
0
 10
54.934457776526521
 20
83.813099167273421
 30
0.0
 11
56.434457776526529
 21
83.813099167273421
 31
0.0
  0
LINE
  5
33E6E
  8
0
 10
79.434457776526529
 20
83.813099167273421
 30
0.0
 11
80.934457776526514
 21
83.813099167273421
 31
0.0
  0
LINE
  5
33E7B
  8
0
 10
50.434457776526422
 20
126.81309916727351
 30
0.0
 11
50.434457776526422
 21
125.81309916727351
 31
0.0
  0
LINE
  5
33E7C
  8
0
 10
85.434457776526415
 20
125.81309916727351
 30
0.0
 11
85.434457776526415
 21
126.81309916727351
 31
0.0
  0
LINE
  5
33E7D
  8
0
 10
85.434457776526415
 20
126.81309916727351
 30
0.0
 11
83.766329730364646
 21
130.61653073412629
 31
0.0
  0
LINE
  5
33E7E
  8
0
 10
52.102585822688177
 20
130.61653073412629
 30
0.0
 11
50.434457776526422
 21
126.81309916727351
 31
0.0
  0
ARC
  5
33E7F
  8
0
 10
53.934457776526408
 20
129.81309916727321
 30
0.0
 40
2.0003142597789618
 50
90.0
 51
156.31846429905531
  0
ARC
  5
33E80
  8
0
 10
81.934457776526415
 20
129.81309916727321
 30
0.0
 40
2.0003142597789458
 50
23.681535700945648
 51
90.0
  0
LINE
  5
33E81
  8
0
 10
81.934457776526415
 20
131.81341342705221
 30
0.0
 11
53.934457776526408
 21
131.81341342705221
 31
0.0
  0
LINE
  5
33E82
  8
0
 10
52.434457776526422
 20
125.81309916727351
 30
0.0
 11
52.434457776526422
 21
110.2295446412855
 31
0.0
  0
LINE
  5
33E83
  8
0
 10
83.434457776526415
 20
110.2295446412854
 30
0.0
 11
83.434457776526415
 21
125.81309916727351
 31
0.0
  0
ARC
  5
33E84
  8
0
 10
67.934457776526529
 20
90.813099167273592
 30
0.0
 40
25.000000000002078
 50
249.64559360176401
 51
290.35440639823599
  0
ARC
  5
33E85
  8
0
 10
67.934457776526529
 20
90.813099167273592
 30
0.0
 40
25.000000000002078
 50
69.645593601764006
 51
110.35440639823599
  0
ARC
  5
33E86
  8
0
 10
59.934457776527438
 20
69.249240514426148
 30
0.0
 40
2.0000000000009659
 50
180.0000000000081
 51
249.6455936017432
  0
ARC
  5
33E87
  8
0
 10
59.934457776527438
 20
112.37695782012101
 30
0.0
 40
2.0000000000009659
 50
110.3544063982568
 51
179.99999999999179
  0
ARC
  5
33E88
  8
0
 10
75.934457776525505
 20
69.249240514426148
 30
0.0
 40
2.0000000000009628
 50
290.3544063982568
 51
359.99999999999352
  0
ARC
  5
33E89
  8
0
 10
75.934457776525505
 20
112.37695782012101
 30
0.0
 40
2.000000000000937
 50
0.0000000000089564
 51
69.645593601743158
  0
LINE
  5
33E8A
  8
0
 10
57.934457776526529
 20
103.81309916727361
 30
0.0
 11
56.434457776526529
 21
98.813099167273563
 31
0.0
  0
LINE
  5
33E8B
  8
0
 10
56.434457776526529
 20
82.813099167273592
 30
0.0
 11
57.934457776526529
 21
77.813099167273592
 31
0.0
  0
LINE
  5
33E8C
  8
0
 10
77.934457776526415
 20
77.813099167273592
 30
0.0
 11
79.434457776526529
 21
82.813099167273592
 31
0.0
  0
LINE
  5
33E8D
  8
0
 10
79.434457776526529
 20
98.813099167273563
 30
0.0
 11
77.934457776526415
 21
103.81309916727361
 31
0.0
  0
LINE
  5
33E8F
  8
0
 10
56.434457776526529
 20
92.290241009975546
 30
0.0
 11
54.934457776526521
 21
92.290241009975546
 31
0.0
  0
LINE
  5
33E90
  8
0
 10
80.934457776526514
 20
92.290241009975546
 30
0.0
 11
79.434457776526529
 21
92.290241009975546
 31
0.0
  0
LINE
  5
33E92
  8
0
 10
56.434457776526529
 20
119.3530991672731
 30
0.0
 11
54.934457776526521
 21
119.3530991672731
 31
0.0
  0
LINE
  5
33E93
  8
0
 10
56.434457776526529
 20
82.813099167273592
 30
0.0
 11
56.434457776526529
 21
122.31309916727351
 31
0.0
  0
LINE
  5
33E94
  8
0
 10
54.934457776526521
 20
121.81309916727351
 30
0.0
 11
54.934457776526521
 21
83.813099167273421
 31
0.0
  0
LINE
  5
33E95
  8
0
 10
80.934457776526514
 20
119.3530991672731
 30
0.0
 11
79.434457776526529
 21
119.3530991672731
 31
0.0
  0
LINE
  5
33E96
  8
0
 10
80.934457776526514
 20
83.813099167273421
 30
0.0
 11
80.934457776526514
 21
121.81309916727351
 31
0.0
  0
LINE
  5
33E97
  8
0
 10
79.434457776526529
 20
122.31309916727351
 30
0.0
 11
79.434457776526529
 21
82.813099167273592
 31
0.0
  0
ARC
  5
33EBF
  8
0
 10
78.934457776526529
 20
121.81309916727351
 30
0.0
 40
2.000000000000028
 50
0.0
 51
90.0
  0
LINE
  5
33EC0
  8
0
 10
56.434457776526529
 20
122.31309916727351
 30
0.0
 11
79.434457776526529
 21
122.31309916727351
 31
0.0
  0
ARC
  5
33EC1
  8
0
 10
56.934457776526529
 20
121.81309916727351
 30
0.0
 40
2.0
 50
90.0
 51
180.0
  0
LINE
  5
33EC2
  8
0
 10
78.934457776526529
 20
123.81309916727351
 30
0.0
 11
56.934457776526529
 21
123.81309916727351
 31
0.0
  0
LINE
  5
33EC7
  8
0
 10
50.434457776526422
 20
125.81309916727351
 30
0.0
 11
85.434457776526415
 21
125.81309916727351
 31
0.0
  0
LINE
  5
33EC8
  8
0
 10
50.434457776526422
 20
126.81309916727351
 30
0.0
 11
85.434457776526415
 21
126.81309916727351
 31
0.0
  0
POLYLINE
  5
33EC9
  8
0
 10
80.934457776526571
 20
99.394658368192069
 30
0.0
 66
     1
 70
     8
  0
VERTEX
  8
0
  5
34351
 10
80.9345
 20
99.3947
 30
0.000000
  70
    32
  0
VERTEX
  8
0
  5
34352
 10
80.9723
 20
99.4698
 30
0.000000
  70
    32
  0
VERTEX
  8
0
  5
34353
 10
81.0099
 20
99.5452
 30
0.000000
  70
    32
  0
VERTEX
  8
0
  5
34354
 10
81.0472
 20
99.6209
 30
0.000000
  70
    32
  0
VERTEX
  8
0
  5
34355
 10
81.0843
 20
99.6967
 30
0.000000
  70
    32
  0
VERTEX
  8
0
  5
34356
 10
81.1210
 20
99.7727
 30
0.000000
  70
    32
  0
VERTEX
  8
0
  5
34357
 10
81.1576
 20
99.8490
 30
0.000000
  70
    32
  0
VERTEX
  8
0
  5
34358
 10
81.1938
 20
99.9255
 30
0.000000
  70
    32
  0
VERTEX
  8
0
  5
34359
 10
81.2298
 20
100.002
 30
0.000000
  70
    32
  0
VERTEX
  8
0
  5
3435A
 10
81.2655
 20
100.079
 30
0.000000
  70
    32
  0
VERTEX
  8
0
  5
3435B
 10
81.3009
 20
100.156
 30
0.000000
  70
    32
  0
VERTEX
  8
0
  5
3435C
 10
81.3361
 20
100.233
 30
0.000000
  70
    32
  0
VERTEX
  8
0
  5
3435D
 10
81.3710
 20
100.311
 30
0.000000
  70
    32
  0
VERTEX
  8
0
  5
3435E
 10
81.4056
 20
100.389
 30
0.000000
  70
    32
  0
VERTEX
  8
0
  5
3435F
 10
81.4400
 20
100.467
 30
0.000000
  70
    32
  0
VERTEX
  8
0
  5
34360
 10
81.4741
 20
100.545
 30
0.000000
  70
    32
  0
VERTEX
  8
0
  5
34361
 10
81.5079
 20
100.623
 30
0.000000
  70
    32
  0
VERTEX
  8
0
  5
34362
 10
81.5414
 20
100.701
 30
0.000000
  70
    32
  0
VERTEX
  8
0
  5
34363
 10
81.5747
 20
100.780
 30
0.000000
  70
    32
  0
VERTEX
  8
0
  5
34364
 10
81.6077
 20
100.859
 30
0.000000
  70
    32
  0
VERTEX
  8
0
  5
34365
 10
81.6404
 20
100.938
 30
0.000000
  70
    32
  0
VERTEX
  8
0
  5
34366
 10
81.6728
 20
101.017
 30
0.000000
  70
    32
  0
VERTEX
  8
0
  5
34367
 10
81.7050
 20
101.097
 30
0.000000
  70
    32
  0
VERTEX
  8
0
  5
34368
 10
81.7368
 20
101.176
 30
0.000000
  70
    32
  0
VERTEX
  8
0
  5
34369
 10
81.7684
 20
101.256
 30
0.000000
  70
    32
  0
VERTEX
  8
0
  5
3436A
 10
81.7997
 20
101.336
 30
0.000000
  70
    32
  0
VERTEX
  8
0
  5
3436B
 10
81.8308
 20
101.416
 30
0.000000
  70
    32
  0
VERTEX
  8
0
  5
3436C
 10
81.8615
 20
101.497
 30
0.000000
  70
    32
  0
VERTEX
  8
0
  5
3436D
 10
81.8920
 20
101.577
 30
0.000000
  70
    32
  0
VERTEX
  8
0
  5
3436E
 10
81.9222
 20
101.658
 30
0.000000
  70
    32
  0
VERTEX
  8
0
  5
3436F
 10
81.9521
 20
101.739
 30
0.000000
  70
    32
  0
VERTEX
  8
0
  5
34370
 10
81.9817
 20
101.820
 30
0.000000
  70
    32
  0
VERTEX
  8
0
  5
34371
 10
82.0110
 20
101.901
 30
0.000000
  70
    32
  0
VERTEX
  8
0
  5
34372
 10
82.0401
 20
101.982
 30
0.000000
  70
    32
  0
VERTEX
  8
0
  5
34373
 10
82.0688
 20
102.064
 30
0.000000
  70
    32
  0
VERTEX
  8
0
  5
34374
 10
82.0973
 20
102.146
 30
0.000000
  70
    32
  0
VERTEX
  8
0
  5
34375
 10
82.1255
 20
102.227
 30
0.000000
  70
    32
  0
VERTEX
  8
0
  5
34376
 10
82.1534
 20
102.309
 30
0.000000
  70
    32
  0
VERTEX
  8
0
  5
34377
 10
82.1810
 20
102.392
 30
0.000000
  70
    32
  0
VERTEX
  8
0
  5
34378
 10
82.2084
 20
102.474
 30
0.000000
  70
    32
  0
VERTEX
  8
0
  5
34379
 10
82.2354
 20
102.557
 30
0.000000
  70
    32
  0
VERTEX
  8
0
  5
3437A
 10
82.2621
 20
102.639
 30
0.000000
  70
    32
  0
VERTEX
  8
0
  5
3437B
 10
82.2886
 20
102.722
 30
0.000000
  70
    32
  0
VERTEX
  8
0
  5
3437C
 10
82.3148
 20
102.805
 30
0.000000
  70
    32
  0
VERTEX
  8
0
  5
3437D
 10
82.3407
 20
102.888
 30
0.000000
  70
    32
  0
VERTEX
  8
0
  5
3437E
 10
82.3662
 20
102.971
 30
0.000000
  70
    32
  0
VERTEX
  8
0
  5
3437F
 10
82.3915
 20
103.055
 30
0.000000
  70
    32
  0
VERTEX
  8
0
  5
34380
 10
82.4165
 20
103.138
 30
0.000000
  70
    32
  0
VERTEX
  8
0
  5
34381
 10
82.4412
 20
103.222
 30
0.000000
  70
    32
  0
VERTEX
  8
0
  5
34382
 10
82.4657
 20
103.306
 30
0.000000
  70
    32
  0
VERTEX
  8
0
  5
34383
 10
82.4898
 20
103.390
 30
0.000000
  70
    32
  0
VERTEX
  8
0
  5
34384
 10
82.5136
 20
103.474
 30
0.000000
  70
    32
  0
VERTEX
  8
0
  5
34385
 10
82.5371
 20
103.558
 30
0.000000
  70
    32
  0
VERTEX
  8
0
  5
34386
 10
82.5604
 20
103.643
 30
0.000000
  70
    32
  0
VERTEX
  8
0
  5
34387
 10
82.5833
 20
103.727
 30
0.000000
  70
    32
  0
VERTEX
  8
0
  5
34388
 10
82.6060
 20
103.812
 30
0.000000
  70
    32
  0
VERTEX
  8
0
  5
34389
 10
82.6283
 20
103.897
 30
0.000000
  70
    32
  0
VERTEX
  8
0
  5
3438A
 10
82.6503
 20
103.982
 30
0.000000
  70
    32
  0
VERTEX
  8
0
  5
3438B
 10
82.6721
 20
104.067
 30
0.000000
  70
    32
  0
VERTEX
  8
0
  5
3438C
 10
82.6936
 20
104.152
 30
0.000000
  70
    32
  0
VERTEX
  8
0
  5
3438D
 10
82.7147
 20
104.237
 30
0.000000
  70
    32
  0
VERTEX
  8
0
  5
3438E
 10
82.7356
 20
104.323
 30
0.000000
  70
    32
  0
VERTEX
  8
0
  5
3438F
 10
82.7561
 20
104.408
 30
0.000000
  70
    32
  0
VERTEX
  8
0
  5
34390
 10
82.7764
 20
104.494
 30
0.000000
  70
    32
  0
VERTEX
  8
0
  5
34391
 10
82.7963
 20
104.579
 30
0.000000
  70
    32
  0
VERTEX
  8
0
  5
34392
 10
82.8160
 20
104.665
 30
0.000000
  70
    32
  0
VERTEX
  8
0
  5
34393
 10
82.8353
 20
104.751
 30
0.000000
  70
    32
  0
VERTEX
  8
0
  5
34394
 10
82.8544
 20
104.837
 30
0.000000
  70
    32
  0
VERTEX
  8
0
  5
34395
 10
82.8731
 20
104.924
 30
0.000000
  70
    32
  0
VERTEX
  8
0
  5
34396
 10
82.8916
 20
105.010
 30
0.000000
  70
    32
  0
VERTEX
  8
0
  5
34397
 10
82.9097
 20
105.096
 30
0.000000
  70
    32
  0
VERTEX
  8
0
  5
34398
 10
82.9276
 20
105.183
 30
0.000000
  70
    32
  0
VERTEX
  8
0
  5
34399
 10
82.9451
 20
105.270
 30
0.000000
  70
    32
  0
VERTEX
  8
0
  5
3439A
 10
82.9623
 20
105.356
 30
0.000000
  70
    32
  0
VERTEX
  8
0
  5
3439B
 10
82.9793
 20
105.443
 30
0.000000
  70
    32
  0
VERTEX
  8
0
  5
3439C
 10
82.9959
 20
105.530
 30
0.000000
  70
    32
  0
VERTEX
  8
0
  5
3439D
 10
83.0122
 20
105.617
 30
0.000000
  70
    32
  0
VERTEX
  8
0
  5
3439E
 10
83.0282
 20
105.704
 30
0.000000
  70
    32
  0
VERTEX
  8
0
  5
3439F
 10
83.0439
 20
105.791
 30
0.000000
  70
    32
  0
VERTEX
  8
0
  5
343A0
 10
83.0593
 20
105.879
 30
0.000000
  70
    32
  0
VERTEX
  8
0
  5
343A1
 10
83.0744
 20
105.966
 30
0.000000
  70
    32
  0
VERTEX
  8
0
  5
343A2
 10
83.0892
 20
106.054
 30
0.000000
  70
    32
  0
VERTEX
  8
0
  5
343A3
 10
83.1037
 20
106.141
 30
0.000000
  70
    32
  0
VERTEX
  8
0
  5
343A4
 10
83.1179
 20
106.229
 30
0.000000
  70
    32
  0
VERTEX
  8
0
  5
343A5
 10
83.1317
 20
106.317
 30
0.000000
  70
    32
  0
VERTEX
  8
0
  5
343A6
 10
83.1453
 20
106.404
 30
0.000000
  70
    32
  0
VERTEX
  8
0
  5
343A7
 10
83.1586
 20
106.492
 30
0.000000
  70
    32
  0
VERTEX
  8
0
  5
343A8
 10
83.1715
 20
106.580
 30
0.000000
  70
    32
  0
VERTEX
  8
0
  5
343A9
 10
83.1841
 20
106.668
 30
0.000000
  70
    32
  0
VERTEX
  8
0
  5
343AA
 10
83.1965
 20
106.756
 30
0.000000
  70
    32
  0
VERTEX
  8
0
  5
343AB
 10
83.2085
 20
106.845
 30
0.000000
  70
    32
  0
VERTEX
  8
0
  5
343AC
 10
83.2202
 20
106.933
 30
0.000000
  70
    32
  0
VERTEX
  8
0
  5
343AD
 10
83.2316
 20
107.021
 30
0.000000
  70
    32
  0
VERTEX
  8
0
  5
343AE
 10
83.2427
 20
107.109
 30
0.000000
  70
    32
  0
VERTEX
  8
0
  5
343AF
 10
83.2535
 20
107.198
 30
0.000000
  70
    32
  0
VERTEX
  8
0
  5
343B0
 10
83.2639
 20
107.286
 30
0.000000
  70
    32
  0
VERTEX
  8
0
  5
343B1
 10
83.2741
 20
107.375
 30
0.000000
  70
    32
  0
VERTEX
  8
0
  5
343B2
 10
83.2839
 20
107.464
 30
0.000000
  70
    32
  0
VERTEX
  8
0
  5
343B3
 10
83.2935
 20
107.552
 30
0.000000
  70
    32
  0
VERTEX
  8
0
  5
343B4
 10
83.3027
 20
107.641
 30
0.000000
  70
    32
  0
VERTEX
  8
0
  5
343B5
 10
83.3116
 20
107.730
 30
0.000000
  70
    32
  0
VERTEX
  8
0
  5
343B6
 10
83.3202
 20
107.819
 30
0.000000
  70
    32
  0
VERTEX
  8
0
  5
343B7
 10
83.3285
 20
107.907
 30
0.000000
  70
    32
  0
VERTEX
  8
0
  5
343B8
 10
83.3365
 20
107.996
 30
0.000000
  70
    32
  0
VERTEX
  8
0
  5
343B9
 10
83.3442
 20
108.085
 30
0.000000
  70
    32
  0
VERTEX
  8
0
  5
343BA
 10
83.3515
 20
108.174
 30
0.000000
  70
    32
  0
VERTEX
  8
0
  5
343BB
 10
83.3586
 20
108.263
 30
0.000000
  70
    32
  0
VERTEX
  8
0
  5
343BC
 10
83.3653
 20
108.353
 30
0.000000
  70
    32
  0
VERTEX
  8
0
  5
343BD
 10
83.3717
 20
108.442
 30
0.000000
  70
    32
  0
VERTEX
  8
0
  5
343BE
 10
83.3779
 20
108.531
 30
0.000000
  70
    32
  0
VERTEX
  8
0
  5
343BF
 10
83.3837
 20
108.620
 30
0.000000
  70
    32
  0
VERTEX
  8
0
  5
343C0
 10
83.3891
 20
108.709
 30
0.000000
  70
    32
  0
VERTEX
  8
0
  5
343C1
 10
83.3943
 20
108.799
 30
0.000000
  70
    32
  0
VERTEX
  8
0
  5
343C2
 10
83.3992
 20
108.888
 30
0.000000
  70
    32
  0
VERTEX
  8
0
  5
343C3
 10
83.4037
 20
108.977
 30
0.000000
  70
    32
  0
VERTEX
  8
0
  5
343C4
 10
83.4080
 20
109.067
 30
0.000000
  70
    32
  0
VERTEX
  8
0
  5
343C5
 10
83.4119
 20
109.156
 30
0.000000
  70
    32
  0
VERTEX
  8
0
  5
343C6
 10
83.4155
 20
109.245
 30
0.000000
  70
    32
  0
VERTEX
  8
0
  5
343C7
 10
83.4188
 20
109.335
 30
0.000000
  70
    32
  0
VERTEX
  8
0
  5
343C8
 10
83.4218
 20
109.424
 30
0.000000
  70
    32
  0
VERTEX
  8
0
  5
343C9
 10
83.4244
 20
109.514
 30
0.000000
  70
    32
  0
VERTEX
  8
0
  5
343CA
 10
83.4268
 20
109.603
 30
0.000000
  70
    32
  0
VERTEX
  8
0
  5
343CB
 10
83.4288
 20
109.693
 30
0.000000
  70
    32
  0
VERTEX
  8
0
  5
343CC
 10
83.4305
 20
109.782
 30
0.000000
  70
    32
  0
VERTEX
  8
0
  5
343CD
 10
83.4319
 20
109.872
 30
0.000000
  70
    32
  0
VERTEX
  8
0
  5
343CE
 10
83.4330
 20
109.961
 30
0.000000
  70
    32
  0
VERTEX
  8
0
  5
343CF
 10
83.4338
 20
110.051
 30
0.000000
  70
    32
  0
VERTEX
  8
0
  5
343D0
 10
83.4343
 20
110.140
 30
0.000000
  70
    32
  0
VERTEX
  8
0
  5
343D1
 10
83.4345
 20
110.230
 30
0.000000
  70
    32
  0
SEQEND
  8
0
  5
343D2
  0
POLYLINE
  5
33ECA
  8
0
 10
52.434457776526415
 20
110.22954464128546
 30
0.0
 66
     1
 70
     8
  0
VERTEX
  8
0
  5
343D3
 10
52.4345
 20
110.230
 30
0.000000
  70
    32
  0
VERTEX
  8
0
  5
343D4
 10
52.4346
 20
110.140
 30
0.000000
  70
    32
  0
VERTEX
  8
0
  5
343D5
 10
52.4351
 20
110.051
 30
0.000000
  70
    32
  0
VERTEX
  8
0
  5
343D6
 10
52.4359
 20
109.961
 30
0.000000
  70
    32
  0
VERTEX
  8
0
  5
343D7
 10
52.4370
 20
109.872
 30
0.000000
  70
    32
  0
VERTEX
  8
0
  5
343D8
 10
52.4384
 20
109.782
 30
0.000000
  70
    32
  0
VERTEX
  8
0
  5
343D9
 10
52.4401
 20
109.693
 30
0.000000
  70
    32
  0
VERTEX
  8
0
  5
343DA
 10
52.4421
 20
109.603
 30
0.000000
  70
    32
  0
VERTEX
  8
0
  5
343DB
 10
52.4445
 20
109.514
 30
0.000000
  70
    32
  0
VERTEX
  8
0
  5
343DC
 10
52.4472
 20
109.424
 30
0.000000
  70
    32
  0
VERTEX
  8
0
  5
343DD
 10
52.4501
 20
109.335
 30
0.000000
  70
    32
  0
VERTEX
  8
0
  5
343DE
 10
52.4534
 20
109.245
 30
0.000000
  70
    32
  0
VERTEX
  8
0
  5
343DF
 10
52.4570
 20
109.156
 30
0.000000
  70
    32
  0
VERTEX
  8
0
  5
343E0
 10
52.4610
 20
109.067
 30
0.000000
  70
    32
  0
VERTEX
  8
0
  5
343E1
 10
52.4652
 20
108.977
 30
0.000000
  70
    32
  0
VERTEX
  8
0
  5
343E2
 10
52.4697
 20
108.888
 30
0.000000
  70
    32
  0
VERTEX
  8
0
  5
343E3
 10
52.4746
 20
108.799
 30
0.000000
  70
    32
  0
VERTEX
  8
0
  5
343E4
 10
52.4798
 20
108.709
 30
0.000000
  70
    32
  0
VERTEX
  8
0
  5
343E5
 10
52.4853
 20
108.620
 30
0.000000
  70
    32
  0
VERTEX
  8
0
  5
343E6
 10
52.4911
 20
108.531
 30
0.000000
  70
    32
  0
VERTEX
  8
0
  5
343E7
 10
52.4972
 20
108.442
 30
0.000000
  70
    32
  0
VERTEX
  8
0
  5
343E8
 10
52.5036
 20
108.353
 30
0.000000
  70
    32
  0
VERTEX
  8
0
  5
343E9
 10
52.5103
 20
108.263
 30
0.000000
  70
    32
  0
VERTEX
  8
0
  5
343EA
 10
52.5174
 20
108.174
 30
0.000000
  70
    32
  0
VERTEX
  8
0
  5
343EB
 10
52.5247
 20
108.085
 30
0.000000
  70
    32
  0
VERTEX
  8
0
  5
343EC
 10
52.5324
 20
107.996
 30
0.000000
  70
    32
  0
VERTEX
  8
0
  5
343ED
 10
52.5404
 20
107.907
 30
0.000000
  70
    32
  0
VERTEX
  8
0
  5
343EE
 10
52.5487
 20
107.819
 30
0.000000
  70
    32
  0
VERTEX
  8
0
  5
343EF
 10
52.5573
 20
107.730
 30
0.000000
  70
    32
  0
VERTEX
  8
0
  5
343F0
 10
52.5662
 20
107.641
 30
0.000000
  70
    32
  0
VERTEX
  8
0
  5
343F1
 10
52.5754
 20
107.552
 30
0.000000
  70
    32
  0
VERTEX
  8
0
  5
343F2
 10
52.5850
 20
107.464
 30
0.000000
  70
    32
  0
VERTEX
  8
0
  5
343F3
 10
52.5948
 20
107.375
 30
0.000000
  70
    32
  0
VERTEX
  8
0
  5
343F4
 10
52.6050
 20
107.286
 30
0.000000
  70
    32
  0
VERTEX
  8
0
  5
343F5
 10
52.6155
 20
107.198
 30
0.000000
  70
    32
  0
VERTEX
  8
0
  5
343F6
 10
52.6262
 20
107.109
 30
0.000000
  70
    32
  0
VERTEX
  8
0
  5
343F7
 10
52.6373
 20
107.021
 30
0.000000
  70
    32
  0
VERTEX
  8
0
  5
343F8
 10
52.6487
 20
106.933
 30
0.000000
  70
    32
  0
VERTEX
  8
0
  5
343F9
 10
52.6604
 20
106.845
 30
0.000000
  70
    32
  0
VERTEX
  8
0
  5
343FA
 10
52.6725
 20
106.756
 30
0.000000
  70
    32
  0
VERTEX
  8
0
  5
343FB
 10
52.6848
 20
106.668
 30
0.000000
  70
    32
  0
VERTEX
  8
0
  5
343FC
 10
52.6974
 20
106.580
 30
0.000000
  70
    32
  0
VERTEX
  8
0
  5
343FD
 10
52.7104
 20
106.492
 30
0.000000
  70
    32
  0
VERTEX
  8
0
  5
343FE
 10
52.7236
 20
106.404
 30
0.000000
  70
    32
  0
VERTEX
  8
0
  5
343FF
 10
52.7372
 20
106.317
 30
0.000000
  70
    32
  0
VERTEX
  8
0
  5
34400
 10
52.7510
 20
106.229
 30
0.000000
  70
    32
  0
VERTEX
  8
0
  5
34401
 10
52.7652
 20
106.141
 30
0.000000
  70
    32
  0
VERTEX
  8
0
  5
34402
 10
52.7797
 20
106.054
 30
0.000000
  70
    32
  0
VERTEX
  8
0
  5
34403
 10
52.7945
 20
105.966
 30
0.000000
  70
    32
  0
VERTEX
  8
0
  5
34404
 10
52.8096
 20
105.879
 30
0.000000
  70
    32
  0
VERTEX
  8
0
  5
34405
 10
52.8250
 20
105.791
 30
0.000000
  70
    32
  0
VERTEX
  8
0
  5
34406
 10
52.8407
 20
105.704
 30
0.000000
  70
    32
  0
VERTEX
  8
0
  5
34407
 10
52.8567
 20
105.617
 30
0.000000
  70
    32
  0
VERTEX
  8
0
  5
34408
 10
52.8730
 20
105.530
 30
0.000000
  70
    32
  0
VERTEX
  8
0
  5
34409
 10
52.8897
 20
105.443
 30
0.000000
  70
    32
  0
VERTEX
  8
0
  5
3440A
 10
52.9066
 20
105.356
 30
0.000000
  70
    32
  0
VERTEX
  8
0
  5
3440B
 10
52.9238
 20
105.270
 30
0.000000
  70
    32
  0
VERTEX
  8
0
  5
3440C
 10
52.9414
 20
105.183
 30
0.000000
  70
    32
  0
VERTEX
  8
0
  5
3440D
 10
52.9592
 20
105.096
 30
0.000000
  70
    32
  0
VERTEX
  8
0
  5
3440E
 10
52.9773
 20
105.010
 30
0.000000
  70
    32
  0
VERTEX
  8
0
  5
3440F
 10
52.9958
 20
104.924
 30
0.000000
  70
    32
  0
VERTEX
  8
0
  5
34410
 10
53.0145
 20
104.837
 30
0.000000
  70
    32
  0
VERTEX
  8
0
  5
34411
 10
53.0336
 20
104.751
 30
0.000000
  70
    32
  0
VERTEX
  8
0
  5
34412
 10
53.0529
 20
104.665
 30
0.000000
  70
    32
  0
VERTEX
  8
0
  5
34413
 10
53.0726
 20
104.579
 30
0.000000
  70
    32
  0
VERTEX
  8
0
  5
34414
 10
53.0925
 20
104.494
 30
0.000000
  70
    32
  0
VERTEX
  8
0
  5
34415
 10
53.1128
 20
104.408
 30
0.000000
  70
    32
  0
VERTEX
  8
0
  5
34416
 10
53.1334
 20
104.323
 30
0.000000
  70
    32
  0
VERTEX
  8
0
  5
34417
 10
53.1542
 20
104.237
 30
0.000000
  70
    32
  0
VERTEX
  8
0
  5
34418
 10
53.1754
 20
104.152
 30
0.000000
  70
    32
  0
VERTEX
  8
0
  5
34419
 10
53.1968
 20
104.067
 30
0.000000
  70
    32
  0
VERTEX
  8
0
  5
3441A
 10
53.2186
 20
103.982
 30
0.000000
  70
    32
  0
VERTEX
  8
0
  5
3441B
 10
53.2406
 20
103.897
 30
0.000000
  70
    32
  0
VERTEX
  8
0
  5
3441C
 10
53.2630
 20
103.812
 30
0.000000
  70
    32
  0
VERTEX
  8
0
  5
3441D
 10
53.2856
 20
103.727
 30
0.000000
  70
    32
  0
VERTEX
  8
0
  5
3441E
 10
53.3085
 20
103.643
 30
0.000000
  70
    32
  0
VERTEX
  8
0
  5
3441F
 10
53.3318
 20
103.558
 30
0.000000
  70
    32
  0
VERTEX
  8
0
  5
34420
 10
53.3553
 20
103.474
 30
0.000000
  70
    32
  0
VERTEX
  8
0
  5
34421
 10
53.3791
 20
103.390
 30
0.000000
  70
    32
  0
VERTEX
  8
0
  5
34422
 10
53.4033
 20
103.306
 30
0.000000
  70
    32
  0
VERTEX
  8
0
  5
34423
 10
53.4277
 20
103.222
 30
0.000000
  70
    32
  0
VERTEX
  8
0
  5
34424
 10
53.4524
 20
103.138
 30
0.000000
  70
    32
  0
VERTEX
  8
0
  5
34425
 10
53.4774
 20
103.055
 30
0.000000
  70
    32
  0
VERTEX
  8
0
  5
34426
 10
53.5027
 20
102.971
 30
0.000000
  70
    32
  0
VERTEX
  8
0
  5
34427
 10
53.5283
 20
102.888
 30
0.000000
  70
    32
  0
VERTEX
  8
0
  5
34428
 10
53.5541
 20
102.805
 30
0.000000
  70
    32
  0
VERTEX
  8
0
  5
34429
 10
53.5803
 20
102.722
 30
0.000000
  70
    32
  0
VERTEX
  8
0
  5
3442A
 10
53.6068
 20
102.639
 30
0.000000
  70
    32
  0
VERTEX
  8
0
  5
3442B
 10
53.6335
 20
102.557
 30
0.000000
  70
    32
  0
VERTEX
  8
0
  5
3442C
 10
53.6606
 20
102.474
 30
0.000000
  70
    32
  0
VERTEX
  8
0
  5
3442D
 10
53.6879
 20
102.392
 30
0.000000
  70
    32
  0
VERTEX
  8
0
  5
3442E
 10
53.7155
 20
102.309
 30
0.000000
  70
    32
  0
VERTEX
  8
0
  5
3442F
 10
53.7434
 20
102.227
 30
0.000000
  70
    32
  0
VERTEX
  8
0
  5
34430
 10
53.7716
 20
102.146
 30
0.000000
  70
    32
  0
VERTEX
  8
0
  5
34431
 10
53.8001
 20
102.064
 30
0.000000
  70
    32
  0
VERTEX
  8
0
  5
34432
 10
53.8288
 20
101.982
 30
0.000000
  70
    32
  0
VERTEX
  8
0
  5
34433
 10
53.8579
 20
101.901
 30
0.000000
  70
    32
  0
VERTEX
  8
0
  5
34434
 10
53.8872
 20
101.820
 30
0.000000
  70
    32
  0
VERTEX
  8
0
  5
34435
 10
53.9168
 20
101.739
 30
0.000000
  70
    32
  0
VERTEX
  8
0
  5
34436
 10
53.9467
 20
101.658
 30
0.000000
  70
    32
  0
VERTEX
  8
0
  5
34437
 10
53.9769
 20
101.577
 30
0.000000
  70
    32
  0
VERTEX
  8
0
  5
34438
 10
54.0074
 20
101.497
 30
0.000000
  70
    32
  0
VERTEX
  8
0
  5
34439
 10
54.0382
 20
101.416
 30
0.000000
  70
    32
  0
VERTEX
  8
0
  5
3443A
 10
54.0692
 20
101.336
 30
0.000000
  70
    32
  0
VERTEX
  8
0
  5
3443B
 10
54.1005
 20
101.256
 30
0.000000
  70
    32
  0
VERTEX
  8
0
  5
3443C
 10
54.1321
 20
101.176
 30
0.000000
  70
    32
  0
VERTEX
  8
0
  5
3443D
 10
54.1640
 20
101.097
 30
0.000000
  70
    32
  0
VERTEX
  8
0
  5
3443E
 10
54.1961
 20
101.017
 30
0.000000
  70
    32
  0
VERTEX
  8
0
  5
3443F
 10
54.2285
 20
100.938
 30
0.000000
  70
    32
  0
VERTEX
  8
0
  5
34440
 10
54.2612
 20
100.859
 30
0.000000
  70
    32
  0
VERTEX
  8
0
  5
34441
 10
54.2942
 20
100.780
 30
0.000000
  70
    32
  0
VERTEX
  8
0
  5
34442
 10
54.3275
 20
100.701
 30
0.000000
  70
    32
  0
VERTEX
  8
0
  5
34443
 10
54.3610
 20
100.623
 30
0.000000
  70
    32
  0
VERTEX
  8
0
  5
34444
 10
54.3948
 20
100.545
 30
0.000000
  70
    32
  0
VERTEX
  8
0
  5
34445
 10
54.4289
 20
100.467
 30
0.000000
  70
    32
  0
VERTEX
  8
0
  5
34446
 10
54.4633
 20
100.389
 30
0.000000
  70
    32
  0
VERTEX
  8
0
  5
34447
 10
54.4979
 20
100.311
 30
0.000000
  70
    32
  0
VERTEX
  8
0
  5
34448
 10
54.5328
 20
100.233
 30
0.000000
  70
    32
  0
VERTEX
  8
0
  5
34449
 10
54.5680
 20
100.156
 30
0.000000
  70
    32
  0
VERTEX
  8
0
  5
3444A
 10
54.6034
 20
100.079
 30
0.000000
  70
    32
  0
VERTEX
  8
0
  5
3444B
 10
54.6391
 20
100.002
 30
0.000000
  70
    32
  0
VERTEX
  8
0
  5
3444C
 10
54.6751
 20
99.9255
 30
0.000000
  70
    32
  0
VERTEX
  8
0
  5
3444D
 10
54.7114
 20
99.8490
 30
0.000000
  70
    32
  0
VERTEX
  8
0
  5
3444E
 10
54.7479
 20
99.7727
 30
0.000000
  70
    32
  0
VERTEX
  8
0
  5
3444F
 10
54.7847
 20
99.6967
 30
0.000000
  70
    32
  0
VERTEX
  8
0
  5
34450
 10
54.8217
 20
99.6209
 30
0.000000
  70
    32
  0
VERTEX
  8
0
  5
34451
 10
54.8590
 20
99.5452
 30
0.000000
  70
    32
  0
VERTEX
  8
0
  5
34452
 10
54.8966
 20
99.4698
 30
0.000000
  70
    32
  0
VERTEX
  8
0
  5
34453
 10
54.9345
 20
99.3947
 30
0.000000
  70
    32
  0
SEQEND
  8
0
  5
34454
  0
LINE
  5
33ECB
  8
0
 10
79.434457776526415
 20
119.81309916727361
 30
0.0
 11
56.434457776526408
 21
119.81309916727361
 31
0.0
  0
LINE
  5
33ECC
  8
0
 10
79.434457776526415
 20
119.31309916727361
 30
0.0
 11
56.434457776526408
 21
119.31309916727361
 31
0.0
  0
LINE
  5
33ECD
  8
0
 10
57.934457776526813
 20
69.249240514426134
 30
0.0
 11
57.934457776526529
 21
112.3769578201216
 31
0.0
  0
LINE
  5
33ECF
  8
0
 10
77.934457776526472
 20
69.249240514425921
 30
0.0
 11
77.934457776526415
 21
112.3769578201216
 31
0.0
  0
LINE
  5
33ED5
  8
0
 10
52.102585822688177
 20
130.61653073412629
 30
0.0
 11
83.766329730364646
 21
130.61653073412629
 31
0.0
  0
LINE
  5
33ED6
  8
0
 10
76.630109950439746
 20
67.374122370697734
 30
0.0
 11
76.630109950439532
 21
114.2520759638475
 31
0.0
  0
LINE
  5
33ED8
  8
0
 10
59.238805602613517
 20
67.374122370697606
 30
0.0
 11
59.238805602613517
 21
114.2520759638475
 31
0.0
  0
LINE
  5
33EDA
  8
0
 10
273.86356916321029
 20
126.81309916727351
 30
0.0
 11
273.86356916321029
 21
125.81309916727351
 31
0.0
  0
LINE
  5
33EDB
  8
0
 10
308.86356916321029
 20
125.81309916727351
 30
0.0
 11
308.86356916321029
 21
126.81309916727351
 31
0.0
  0
LINE
  5
33EDC
  8
0
 10
308.86356916321029
 20
126.81309916727351
 30
0.0
 11
307.19544111704852
 21
130.61653073412629
 31
0.0
  0
LINE
  5
33EDD
  8
0
 10
275.53169720937211
 20
130.61653073412629
 30
0.0
 11
273.86356916321029
 21
126.81309916727351
 31
0.0
  0
ARC
  5
33EDE
  8
0
 10
277.36356916321029
 20
129.81309916727321
 30
0.0
 40
2.0003142597789489
 50
90.0
 51
156.31846429905531
  0
ARC
  5
33EDF
  8
0
 10
305.36356916321029
 20
129.81309916727321
 30
0.0
 40
2.0003142597789489
 50
23.681535700944568
 51
90.0
  0
LINE
  5
33EE0
  8
0
 10
305.36356916321029
 20
131.81341342705221
 30
0.0
 11
277.36356916321029
 21
131.81341342705221
 31
0.0
  0
LINE
  5
33EE1
  8
0
 10
275.86356916321029
 20
125.81309916727351
 30
0.0
 11
275.86356916321029
 21
110.2295446412855
 31
0.0
  0
LINE
  5
33EE2
  8
0
 10
306.86356916321029
 20
110.2295446412854
 30
0.0
 11
306.86356916321029
 21
125.81309916727351
 31
0.0
  0
LINE
  5
33EE3
  8
0
 10
302.8635691632104
 20
83.813099167273421
 30
0.0
 11
304.3635691632104
 21
83.813099167273421
 31
0.0
  0
LINE
  5
33EE4
  8
0
 10
278.3635691632104
 20
83.813099167273421
 30
0.0
 11
279.8635691632104
 21
83.813099167273421
 31
0.0
  0
ARC
  5
33EF1
  8
0
 10
291.3635691632104
 20
90.813099167273592
 30
0.0
 40
25.000000000002078
 50
249.64559360176401
 51
290.35440639823599
  0
ARC
  5
33EF2
  8
0
 10
291.3635691632104
 20
90.813099167273592
 30
0.0
 40
25.000000000002078
 50
69.645593601764006
 51
110.35440639823599
  0
ARC
  5
33EF3
  8
0
 10
299.36356916320938
 20
112.37695782012101
 30
0.0
 40
2.0000000000009521
 50
0.0000000000081422
 51
69.645593601743158
  0
ARC
  5
33EF4
  8
0
 10
299.36356916320938
 20
69.249240514426148
 30
0.0
 40
2.0000000000009579
 50
290.3544063982568
 51
359.99999999999352
  0
ARC
  5
33EF5
  8
0
 10
283.36356916321131
 20
112.37695782012101
 30
0.0
 40
2.0000000000009588
 50
110.3544063982568
 51
179.99999999999099
  0
ARC
  5
33EF6
  8
0
 10
283.36356916321131
 20
69.249240514426148
 30
0.0
 40
2.0000000000009588
 50
180.0000000000081
 51
249.64559360175011
  0
LINE
  5
33EF7
  8
0
 10
301.3635691632104
 20
77.813099167273592
 30
0.0
 11
302.8635691632104
 21
82.813099167273592
 31
0.0
  0
LINE
  5
33EF8
  8
0
 10
302.8635691632104
 20
98.813099167273563
 30
0.0
 11
301.3635691632104
 21
103.81309916727361
 31
0.0
  0
LINE
  5
33EF9
  8
0
 10
281.3635691632104
 20
103.81309916727361
 30
0.0
 11
279.8635691632104
 21
98.813099167273563
 31
0.0
  0
LINE
  5
33EFA
  8
0
 10
279.8635691632104
 20
82.813099167273592
 30
0.0
 11
281.3635691632104
 21
77.813099167273592
 31
0.0
  0
LINE
  5
33EFB
  8
0
 10
273.86356916321029
 20
125.81309916727351
 30
0.0
 11
308.86356916321029
 21
125.81309916727351
 31
0.0
  0
LINE
  5
33EFC
  8
0
 10
273.86356916321029
 20
126.81309916727351
 30
0.0
 11
308.86356916321029
 21
126.81309916727351
 31
0.0
  0
POLYLINE
  5
33EFD
  8
0
 10
304.3635691632104
 20
99.394658368192012
 30
0.0
 66
     1
 70
     8
  0
VERTEX
  8
0
  5
34455
 10
304.364
 20
99.3947
 30
0.000000
  70
    32
  0
VERTEX
  8
0
  5
34456
 10
304.426
 20
99.5181
 30
0.000000
  70
    32
  0
VERTEX
  8
0
  5
34457
 10
304.487
 20
99.6421
 30
0.000000
  70
    32
  0
VERTEX
  8
0
  5
34458
 10
304.547
 20
99.7667
 30
0.000000
  70
    32
  0
VERTEX
  8
0
  5
34459
 10
304.607
 20
99.8919
 30
0.000000
  70
    32
  0
VERTEX
  8
0
  5
3445A
 10
304.666
 20
100.018
 30
0.000000
  70
    32
  0
VERTEX
  8
0
  5
3445B
 10
304.724
 20
100.144
 30
0.000000
  70
    32
  0
VERTEX
  8
0
  5
3445C
 10
304.782
 20
100.271
 30
0.000000
  70
    32
  0
VERTEX
  8
0
  5
3445D
 10
304.839
 20
100.398
 30
0.000000
  70
    32
  0
VERTEX
  8
0
  5
3445E
 10
304.895
 20
100.526
 30
0.000000
  70
    32
  0
VERTEX
  8
0
  5
3445F
 10
304.951
 20
100.655
 30
0.000000
  70
    32
  0
VERTEX
  8
0
  5
34460
 10
305.005
 20
100.784
 30
0.000000
  70
    32
  0
VERTEX
  8
0
  5
34461
 10
305.059
 20
100.913
 30
0.000000
  70
    32
  0
VERTEX
  8
0
  5
34462
 10
305.112
 20
101.043
 30
0.000000
  70
    32
  0
VERTEX
  8
0
  5
34463
 10
305.165
 20
101.173
 30
0.000000
  70
    32
  0
VERTEX
  8
0
  5
34464
 10
305.217
 20
101.304
 30
0.000000
  70
    32
  0
VERTEX
  8
0
  5
34465
 10
305.267
 20
101.436
 30
0.000000
  70
    32
  0
VERTEX
  8
0
  5
34466
 10
305.318
 20
101.568
 30
0.000000
  70
    32
  0
VERTEX
  8
0
  5
34467
 10
305.367
 20
101.700
 30
0.000000
  70
    32
  0
VERTEX
  8
0
  5
34468
 10
305.416
 20
101.833
 30
0.000000
  70
    32
  0
VERTEX
  8
0
  5
34469
 10
305.464
 20
101.967
 30
0.000000
  70
    32
  0
VERTEX
  8
0
  5
3446A
 10
305.511
 20
102.100
 30
0.000000
  70
    32
  0
VERTEX
  8
0
  5
3446B
 10
305.557
 20
102.235
 30
0.000000
  70
    32
  0
VERTEX
  8
0
  5
3446C
 10
305.603
 20
102.369
 30
0.000000
  70
    32
  0
VERTEX
  8
0
  5
3446D
 10
305.647
 20
102.504
 30
0.000000
  70
    32
  0
VERTEX
  8
0
  5
3446E
 10
305.691
 20
102.640
 30
0.000000
  70
    32
  0
VERTEX
  8
0
  5
3446F
 10
305.735
 20
102.776
 30
0.000000
  70
    32
  0
VERTEX
  8
0
  5
34470
 10
305.777
 20
102.912
 30
0.000000
  70
    32
  0
VERTEX
  8
0
  5
34471
 10
305.819
 20
103.049
 30
0.000000
  70
    32
  0
VERTEX
  8
0
  5
34472
 10
305.860
 20
103.186
 30
0.000000
  70
    32
  0
VERTEX
  8
0
  5
34473
 10
305.900
 20
103.324
 30
0.000000
  70
    32
  0
VERTEX
  8
0
  5
34474
 10
305.939
 20
103.461
 30
0.000000
  70
    32
  0
VERTEX
  8
0
  5
34475
 10
305.978
 20
103.600
 30
0.000000
  70
    32
  0
VERTEX
  8
0
  5
34476
 10
306.015
 20
103.738
 30
0.000000
  70
    32
  0
VERTEX
  8
0
  5
34477
 10
306.052
 20
103.877
 30
0.000000
  70
    32
  0
VERTEX
  8
0
  5
34478
 10
306.088
 20
104.017
 30
0.000000
  70
    32
  0
VERTEX
  8
0
  5
34479
 10
306.124
 20
104.156
 30
0.000000
  70
    32
  0
VERTEX
  8
0
  5
3447A
 10
306.158
 20
104.296
 30
0.000000
  70
    32
  0
VERTEX
  8
0
  5
3447B
 10
306.192
 20
104.437
 30
0.000000
  70
    32
  0
VERTEX
  8
0
  5
3447C
 10
306.225
 20
104.577
 30
0.000000
  70
    32
  0
VERTEX
  8
0
  5
3447D
 10
306.257
 20
104.718
 30
0.000000
  70
    32
  0
VERTEX
  8
0
  5
3447E
 10
306.288
 20
104.859
 30
0.000000
  70
    32
  0
VERTEX
  8
0
  5
3447F
 10
306.319
 20
105.001
 30
0.000000
  70
    32
  0
VERTEX
  8
0
  5
34480
 10
306.348
 20
105.143
 30
0.000000
  70
    32
  0
VERTEX
  8
0
  5
34481
 10
306.377
 20
105.285
 30
0.000000
  70
    32
  0
VERTEX
  8
0
  5
34482
 10
306.405
 20
105.427
 30
0.000000
  70
    32
  0
VERTEX
  8
0
  5
34483
 10
306.432
 20
105.570
 30
0.000000
  70
    32
  0
VERTEX
  8
0
  5
34484
 10
306.459
 20
105.713
 30
0.000000
  70
    32
  0
VERTEX
  8
0
  5
34485
 10
306.484
 20
105.856
 30
0.000000
  70
    32
  0
VERTEX
  8
0
  5
34486
 10
306.509
 20
105.999
 30
0.000000
  70
    32
  0
VERTEX
  8
0
  5
34487
 10
306.533
 20
106.143
 30
0.000000
  70
    32
  0
VERTEX
  8
0
  5
34488
 10
306.556
 20
106.287
 30
0.000000
  70
    32
  0
VERTEX
  8
0
  5
34489
 10
306.578
 20
106.431
 30
0.000000
  70
    32
  0
VERTEX
  8
0
  5
3448A
 10
306.600
 20
106.575
 30
0.000000
  70
    32
  0
VERTEX
  8
0
  5
3448B
 10
306.620
 20
106.719
 30
0.000000
  70
    32
  0
VERTEX
  8
0
  5
3448C
 10
306.640
 20
106.864
 30
0.000000
  70
    32
  0
VERTEX
  8
0
  5
3448D
 10
306.659
 20
107.009
 30
0.000000
  70
    32
  0
VERTEX
  8
0
  5
3448E
 10
306.677
 20
107.154
 30
0.000000
  70
    32
  0
VERTEX
  8
0
  5
3448F
 10
306.694
 20
107.299
 30
0.000000
  70
    32
  0
VERTEX
  8
0
  5
34490
 10
306.711
 20
107.444
 30
0.000000
  70
    32
  0
VERTEX
  8
0
  5
34491
 10
306.727
 20
107.590
 30
0.000000
  70
    32
  0
VERTEX
  8
0
  5
34492
 10
306.741
 20
107.735
 30
0.000000
  70
    32
  0
VERTEX
  8
0
  5
34493
 10
306.755
 20
107.881
 30
0.000000
  70
    32
  0
VERTEX
  8
0
  5
34494
 10
306.768
 20
108.027
 30
0.000000
  70
    32
  0
VERTEX
  8
0
  5
34495
 10
306.781
 20
108.173
 30
0.000000
  70
    32
  0
VERTEX
  8
0
  5
34496
 10
306.792
 20
108.319
 30
0.000000
  70
    32
  0
VERTEX
  8
0
  5
34497
 10
306.802
 20
108.465
 30
0.000000
  70
    32
  0
VERTEX
  8
0
  5
34498
 10
306.812
 20
108.611
 30
0.000000
  70
    32
  0
VERTEX
  8
0
  5
34499
 10
306.821
 20
108.758
 30
0.000000
  70
    32
  0
VERTEX
  8
0
  5
3449A
 10
306.829
 20
108.904
 30
0.000000
  70
    32
  0
VERTEX
  8
0
  5
3449B
 10
306.836
 20
109.051
 30
0.000000
  70
    32
  0
VERTEX
  8
0
  5
3449C
 10
306.843
 20
109.197
 30
0.000000
  70
    32
  0
VERTEX
  8
0
  5
3449D
 10
306.848
 20
109.344
 30
0.000000
  70
    32
  0
VERTEX
  8
0
  5
3449E
 10
306.853
 20
109.491
 30
0.000000
  70
    32
  0
VERTEX
  8
0
  5
3449F
 10
306.857
 20
109.638
 30
0.000000
  70
    32
  0
VERTEX
  8
0
  5
344A0
 10
306.860
 20
109.784
 30
0.000000
  70
    32
  0
VERTEX
  8
0
  5
344A1
 10
306.862
 20
109.931
 30
0.000000
  70
    32
  0
VERTEX
  8
0
  5
344A2
 10
306.863
 20
110.078
 30
0.000000
  70
    32
  0
VERTEX
  8
0
  5
344A3
 10
306.864
 20
110.225
 30
0.000000
  70
    32
  0
VERTEX
  8
0
  5
344A4
 10
306.863
 20
110.372
 30
0.000000
  70
    32
  0
VERTEX
  8
0
  5
344A5
 10
306.862
 20
110.518
 30
0.000000
  70
    32
  0
VERTEX
  8
0
  5
344A6
 10
306.860
 20
110.665
 30
0.000000
  70
    32
  0
VERTEX
  8
0
  5
344A7
 10
306.857
 20
110.812
 30
0.000000
  70
    32
  0
VERTEX
  8
0
  5
344A8
 10
306.853
 20
110.959
 30
0.000000
  70
    32
  0
VERTEX
  8
0
  5
344A9
 10
306.849
 20
111.106
 30
0.000000
  70
    32
  0
VERTEX
  8
0
  5
344AA
 10
306.843
 20
111.252
 30
0.000000
  70
    32
  0
VERTEX
  8
0
  5
344AB
 10
306.837
 20
111.399
 30
0.000000
  70
    32
  0
VERTEX
  8
0
  5
344AC
 10
306.830
 20
111.545
 30
0.000000
  70
    32
  0
VERTEX
  8
0
  5
344AD
 10
306.822
 20
111.692
 30
0.000000
  70
    32
  0
VERTEX
  8
0
  5
344AE
 10
306.813
 20
111.838
 30
0.000000
  70
    32
  0
VERTEX
  8
0
  5
344AF
 10
306.803
 20
111.985
 30
0.000000
  70
    32
  0
VERTEX
  8
0
  5
344B0
 10
306.793
 20
112.131
 30
0.000000
  70
    32
  0
VERTEX
  8
0
  5
344B1
 10
306.781
 20
112.277
 30
0.000000
  70
    32
  0
VERTEX
  8
0
  5
344B2
 10
306.769
 20
112.423
 30
0.000000
  70
    32
  0
VERTEX
  8
0
  5
344B3
 10
306.756
 20
112.569
 30
0.000000
  70
    32
  0
VERTEX
  8
0
  5
344B4
 10
306.742
 20
112.714
 30
0.000000
  70
    32
  0
VERTEX
  8
0
  5
344B5
 10
306.727
 20
112.860
 30
0.000000
  70
    32
  0
VERTEX
  8
0
  5
344B6
 10
306.712
 20
113.006
 30
0.000000
  70
    32
  0
VERTEX
  8
0
  5
344B7
 10
306.696
 20
113.151
 30
0.000000
  70
    32
  0
VERTEX
  8
0
  5
344B8
 10
306.678
 20
113.296
 30
0.000000
  70
    32
  0
VERTEX
  8
0
  5
344B9
 10
306.660
 20
113.441
 30
0.000000
  70
    32
  0
VERTEX
  8
0
  5
344BA
 10
306.641
 20
113.586
 30
0.000000
  70
    32
  0
VERTEX
  8
0
  5
344BB
 10
306.622
 20
113.731
 30
0.000000
  70
    32
  0
VERTEX
  8
0
  5
344BC
 10
306.601
 20
113.875
 30
0.000000
  70
    32
  0
VERTEX
  8
0
  5
344BD
 10
306.580
 20
114.019
 30
0.000000
  70
    32
  0
VERTEX
  8
0
  5
344BE
 10
306.558
 20
114.163
 30
0.000000
  70
    32
  0
VERTEX
  8
0
  5
344BF
 10
306.535
 20
114.307
 30
0.000000
  70
    32
  0
VERTEX
  8
0
  5
344C0
 10
306.511
 20
114.451
 30
0.000000
  70
    32
  0
VERTEX
  8
0
  5
344C1
 10
306.486
 20
114.594
 30
0.000000
  70
    32
  0
VERTEX
  8
0
  5
344C2
 10
306.461
 20
114.737
 30
0.000000
  70
    32
  0
VERTEX
  8
0
  5
344C3
 10
306.434
 20
114.880
 30
0.000000
  70
    32
  0
VERTEX
  8
0
  5
344C4
 10
306.407
 20
115.023
 30
0.000000
  70
    32
  0
VERTEX
  8
0
  5
344C5
 10
306.379
 20
115.165
 30
0.000000
  70
    32
  0
VERTEX
  8
0
  5
344C6
 10
306.350
 20
115.307
 30
0.000000
  70
    32
  0
VERTEX
  8
0
  5
344C7
 10
306.321
 20
115.449
 30
0.000000
  70
    32
  0
VERTEX
  8
0
  5
344C8
 10
306.290
 20
115.591
 30
0.000000
  70
    32
  0
VERTEX
  8
0
  5
344C9
 10
306.259
 20
115.732
 30
0.000000
  70
    32
  0
VERTEX
  8
0
  5
344CA
 10
306.227
 20
115.873
 30
0.000000
  70
    32
  0
VERTEX
  8
0
  5
344CB
 10
306.194
 20
116.013
 30
0.000000
  70
    32
  0
VERTEX
  8
0
  5
344CC
 10
306.160
 20
116.154
 30
0.000000
  70
    32
  0
VERTEX
  8
0
  5
344CD
 10
306.126
 20
116.294
 30
0.000000
  70
    32
  0
VERTEX
  8
0
  5
344CE
 10
306.091
 20
116.433
 30
0.000000
  70
    32
  0
VERTEX
  8
0
  5
344CF
 10
306.055
 20
116.573
 30
0.000000
  70
    32
  0
VERTEX
  8
0
  5
344D0
 10
306.018
 20
116.712
 30
0.000000
  70
    32
  0
VERTEX
  8
0
  5
344D1
 10
305.980
 20
116.850
 30
0.000000
  70
    32
  0
VERTEX
  8
0
  5
344D2
 10
305.942
 20
116.989
 30
0.000000
  70
    32
  0
VERTEX
  8
0
  5
344D3
 10
305.902
 20
117.127
 30
0.000000
  70
    32
  0
VERTEX
  8
0
  5
344D4
 10
305.862
 20
117.264
 30
0.000000
  70
    32
  0
VERTEX
  8
0
  5
344D5
 10
305.822
 20
117.401
 30
0.000000
  70
    32
  0
SEQEND
  8
0
  5
344D6
  0
ARC
  5
33EFE
  8
0
 10
303.55599801075942
 20
117.0156157487138
 30
0.0
 40
2.2981421288189008
 50
9.6627956542227942
 51
88.628149531861396
  0
LINE
  5
33EFF
  8
0
 10
303.61101787712619
 20
119.31309916727361
 30
0.0
 11
279.11612044929439
 21
119.31309916727361
 31
0.0
  0
ARC
  5
33F00
  8
0
 10
279.13206785114659
 20
117.0607946385983
 30
0.0
 40
2.252360985614168
 50
90.405674960886927
 51
171.3033798530324
  0
POLYLINE
  5
33F01
  8
0
 10
276.90560269246583
 20
117.40135727115957
 30
0.0
 66
     1
 70
     8
  0
VERTEX
  8
0
  5
344D7
 10
276.906
 20
117.401
 30
0.000000
  70
    32
  0
VERTEX
  8
0
  5
344D8
 10
276.865
 20
117.264
 30
0.000000
  70
    32
  0
VERTEX
  8
0
  5
344D9
 10
276.825
 20
117.127
 30
0.000000
  70
    32
  0
VERTEX
  8
0
  5
344DA
 10
276.785
 20
116.989
 30
0.000000
  70
    32
  0
VERTEX
  8
0
  5
344DB
 10
276.747
 20
116.850
 30
0.000000
  70
    32
  0
VERTEX
  8
0
  5
344DC
 10
276.709
 20
116.712
 30
0.000000
  70
    32
  0
VERTEX
  8
0
  5
344DD
 10
276.672
 20
116.573
 30
0.000000
  70
    32
  0
VERTEX
  8
0
  5
344DE
 10
276.636
 20
116.433
 30
0.000000
  70
    32
  0
VERTEX
  8
0
  5
344DF
 10
276.601
 20
116.294
 30
0.000000
  70
    32
  0
VERTEX
  8
0
  5
344E0
 10
276.567
 20
116.154
 30
0.000000
  70
    32
  0
VERTEX
  8
0
  5
344E1
 10
276.533
 20
116.013
 30
0.000000
  70
    32
  0
VERTEX
  8
0
  5
344E2
 10
276.500
 20
115.873
 30
0.000000
  70
    32
  0
VERTEX
  8
0
  5
344E3
 10
276.468
 20
115.732
 30
0.000000
  70
    32
  0
VERTEX
  8
0
  5
344E4
 10
276.437
 20
115.591
 30
0.000000
  70
    32
  0
VERTEX
  8
0
  5
344E5
 10
276.406
 20
115.449
 30
0.000000
  70
    32
  0
VERTEX
  8
0
  5
344E6
 10
276.377
 20
115.307
 30
0.000000
  70
    32
  0
VERTEX
  8
0
  5
344E7
 10
276.348
 20
115.165
 30
0.000000
  70
    32
  0
VERTEX
  8
0
  5
344E8
 10
276.320
 20
115.023
 30
0.000000
  70
    32
  0
VERTEX
  8
0
  5
344E9
 10
276.293
 20
114.880
 30
0.000000
  70
    32
  0
VERTEX
  8
0
  5
344EA
 10
276.267
 20
114.737
 30
0.000000
  70
    32
  0
VERTEX
  8
0
  5
344EB
 10
276.241
 20
114.594
 30
0.000000
  70
    32
  0
VERTEX
  8
0
  5
344EC
 10
276.216
 20
114.451
 30
0.000000
  70
    32
  0
VERTEX
  8
0
  5
344ED
 10
276.193
 20
114.307
 30
0.000000
  70
    32
  0
VERTEX
  8
0
  5
344EE
 10
276.170
 20
114.163
 30
0.000000
  70
    32
  0
VERTEX
  8
0
  5
344EF
 10
276.147
 20
114.019
 30
0.000000
  70
    32
  0
VERTEX
  8
0
  5
344F0
 10
276.126
 20
113.875
 30
0.000000
  70
    32
  0
VERTEX
  8
0
  5
344F1
 10
276.105
 20
113.731
 30
0.000000
  70
    32
  0
VERTEX
  8
0
  5
344F2
 10
276.086
 20
113.586
 30
0.000000
  70
    32
  0
VERTEX
  8
0
  5
344F3
 10
276.067
 20
113.441
 30
0.000000
  70
    32
  0
VERTEX
  8
0
  5
344F4
 10
276.049
 20
113.296
 30
0.000000
  70
    32
  0
VERTEX
  8
0
  5
344F5
 10
276.032
 20
113.151
 30
0.000000
  70
    32
  0
VERTEX
  8
0
  5
344F6
 10
276.015
 20
113.006
 30
0.000000
  70
    32
  0
VERTEX
  8
0
  5
344F7
 10
276.000
 20
112.860
 30
0.000000
  70
    32
  0
VERTEX
  8
0
  5
344F8
 10
275.985
 20
112.714
 30
0.000000
  70
    32
  0
VERTEX
  8
0
  5
344F9
 10
275.971
 20
112.569
 30
0.000000
  70
    32
  0
VERTEX
  8
0
  5
344FA
 10
275.958
 20
112.423
 30
0.000000
  70
    32
  0
VERTEX
  8
0
  5
344FB
 10
275.946
 20
112.277
 30
0.000000
  70
    32
  0
VERTEX
  8
0
  5
344FC
 10
275.934
 20
112.131
 30
0.000000
  70
    32
  0
VERTEX
  8
0
  5
344FD
 10
275.924
 20
111.985
 30
0.000000
  70
    32
  0
VERTEX
  8
0
  5
344FE
 10
275.914
 20
111.838
 30
0.000000
  70
    32
  0
VERTEX
  8
0
  5
344FF
 10
275.905
 20
111.692
 30
0.000000
  70
    32
  0
VERTEX
  8
0
  5
34500
 10
275.898
 20
111.545
 30
0.000000
  70
    32
  0
VERTEX
  8
0
  5
34501
 10
275.890
 20
111.399
 30
0.000000
  70
    32
  0
VERTEX
  8
0
  5
34502
 10
275.884
 20
111.252
 30
0.000000
  70
    32
  0
VERTEX
  8
0
  5
34503
 10
275.879
 20
111.106
 30
0.000000
  70
    32
  0
VERTEX
  8
0
  5
34504
 10
275.874
 20
110.959
 30
0.000000
  70
    32
  0
VERTEX
  8
0
  5
34505
 10
275.870
 20
110.812
 30
0.000000
  70
    32
  0
VERTEX
  8
0
  5
34506
 10
275.867
 20
110.665
 30
0.000000
  70
    32
  0
VERTEX
  8
0
  5
34507
 10
275.865
 20
110.518
 30
0.000000
  70
    32
  0
VERTEX
  8
0
  5
34508
 10
275.864
 20
110.372
 30
0.000000
  70
    32
  0
VERTEX
  8
0
  5
34509
 10
275.864
 20
110.225
 30
0.000000
  70
    32
  0
VERTEX
  8
0
  5
3450A
 10
275.864
 20
110.078
 30
0.000000
  70
    32
  0
VERTEX
  8
0
  5
3450B
 10
275.865
 20
109.931
 30
0.000000
  70
    32
  0
VERTEX
  8
0
  5
3450C
 10
275.867
 20
109.784
 30
0.000000
  70
    32
  0
VERTEX
  8
0
  5
3450D
 10
275.870
 20
109.638
 30
0.000000
  70
    32
  0
VERTEX
  8
0
  5
3450E
 10
275.874
 20
109.491
 30
0.000000
  70
    32
  0
VERTEX
  8
0
  5
3450F
 10
275.879
 20
109.344
 30
0.000000
  70
    32
  0
VERTEX
  8
0
  5
34510
 10
275.884
 20
109.197
 30
0.000000
  70
    32
  0
VERTEX
  8
0
  5
34511
 10
275.891
 20
109.051
 30
0.000000
  70
    32
  0
VERTEX
  8
0
  5
34512
 10
275.898
 20
108.904
 30
0.000000
  70
    32
  0
VERTEX
  8
0
  5
34513
 10
275.906
 20
108.758
 30
0.000000
  70
    32
  0
VERTEX
  8
0
  5
34514
 10
275.915
 20
108.611
 30
0.000000
  70
    32
  0
VERTEX
  8
0
  5
34515
 10
275.925
 20
108.465
 30
0.000000
  70
    32
  0
VERTEX
  8
0
  5
34516
 10
275.935
 20
108.319
 30
0.000000
  70
    32
  0
VERTEX
  8
0
  5
34517
 10
275.947
 20
108.173
 30
0.000000
  70
    32
  0
VERTEX
  8
0
  5
34518
 10
275.959
 20
108.027
 30
0.000000
  70
    32
  0
VERTEX
  8
0
  5
34519
 10
275.972
 20
107.881
 30
0.000000
  70
    32
  0
VERTEX
  8
0
  5
3451A
 10
275.986
 20
107.735
 30
0.000000
  70
    32
  0
VERTEX
  8
0
  5
3451B
 10
276.001
 20
107.590
 30
0.000000
  70
    32
  0
VERTEX
  8
0
  5
3451C
 10
276.016
 20
107.444
 30
0.000000
  70
    32
  0
VERTEX
  8
0
  5
3451D
 10
276.033
 20
107.299
 30
0.000000
  70
    32
  0
VERTEX
  8
0
  5
3451E
 10
276.050
 20
107.154
 30
0.000000
  70
    32
  0
VERTEX
  8
0
  5
3451F
 10
276.068
 20
107.009
 30
0.000000
  70
    32
  0
VERTEX
  8
0
  5
34520
 10
276.087
 20
106.864
 30
0.000000
  70
    32
  0
VERTEX
  8
0
  5
34521
 10
276.107
 20
106.719
 30
0.000000
  70
    32
  0
VERTEX
  8
0
  5
34522
 10
276.127
 20
106.575
 30
0.000000
  70
    32
  0
VERTEX
  8
0
  5
34523
 10
276.149
 20
106.431
 30
0.000000
  70
    32
  0
VERTEX
  8
0
  5
34524
 10
276.171
 20
106.287
 30
0.000000
  70
    32
  0
VERTEX
  8
0
  5
34525
 10
276.194
 20
106.143
 30
0.000000
  70
    32
  0
VERTEX
  8
0
  5
34526
 10
276.218
 20
105.999
 30
0.000000
  70
    32
  0
VERTEX
  8
0
  5
34527
 10
276.243
 20
105.856
 30
0.000000
  70
    32
  0
VERTEX
  8
0
  5
34528
 10
276.268
 20
105.713
 30
0.000000
  70
    32
  0
VERTEX
  8
0
  5
34529
 10
276.295
 20
105.570
 30
0.000000
  70
    32
  0
VERTEX
  8
0
  5
3452A
 10
276.322
 20
105.427
 30
0.000000
  70
    32
  0
VERTEX
  8
0
  5
3452B
 10
276.350
 20
105.285
 30
0.000000
  70
    32
  0
VERTEX
  8
0
  5
3452C
 10
276.379
 20
105.143
 30
0.000000
  70
    32
  0
VERTEX
  8
0
  5
3452D
 10
276.408
 20
105.001
 30
0.000000
  70
    32
  0
VERTEX
  8
0
  5
3452E
 10
276.439
 20
104.859
 30
0.000000
  70
    32
  0
VERTEX
  8
0
  5
3452F
 10
276.470
 20
104.718
 30
0.000000
  70
    32
  0
VERTEX
  8
0
  5
34530
 10
276.502
 20
104.577
 30
0.000000
  70
    32
  0
VERTEX
  8
0
  5
34531
 10
276.535
 20
104.437
 30
0.000000
  70
    32
  0
VERTEX
  8
0
  5
34532
 10
276.569
 20
104.296
 30
0.000000
  70
    32
  0
VERTEX
  8
0
  5
34533
 10
276.603
 20
104.156
 30
0.000000
  70
    32
  0
VERTEX
  8
0
  5
34534
 10
276.639
 20
104.017
 30
0.000000
  70
    32
  0
VERTEX
  8
0
  5
34535
 10
276.675
 20
103.877
 30
0.000000
  70
    32
  0
VERTEX
  8
0
  5
34536
 10
276.712
 20
103.738
 30
0.000000
  70
    32
  0
VERTEX
  8
0
  5
34537
 10
276.749
 20
103.600
 30
0.000000
  70
    32
  0
VERTEX
  8
0
  5
34538
 10
276.788
 20
103.461
 30
0.000000
  70
    32
  0
VERTEX
  8
0
  5
34539
 10
276.827
 20
103.324
 30
0.000000
  70
    32
  0
VERTEX
  8
0
  5
3453A
 10
276.867
 20
103.186
 30
0.000000
  70
    32
  0
VERTEX
  8
0
  5
3453B
 10
276.908
 20
103.049
 30
0.000000
  70
    32
  0
VERTEX
  8
0
  5
3453C
 10
276.950
 20
102.912
 30
0.000000
  70
    32
  0
VERTEX
  8
0
  5
3453D
 10
276.992
 20
102.776
 30
0.000000
  70
    32
  0
VERTEX
  8
0
  5
3453E
 10
277.036
 20
102.640
 30
0.000000
  70
    32
  0
VERTEX
  8
0
  5
3453F
 10
277.080
 20
102.504
 30
0.000000
  70
    32
  0
VERTEX
  8
0
  5
34540
 10
277.124
 20
102.369
 30
0.000000
  70
    32
  0
VERTEX
  8
0
  5
34541
 10
277.170
 20
102.235
 30
0.000000
  70
    32
  0
VERTEX
  8
0
  5
34542
 10
277.216
 20
102.100
 30
0.000000
  70
    32
  0
VERTEX
  8
0
  5
34543
 10
277.264
 20
101.967
 30
0.000000
  70
    32
  0
VERTEX
  8
0
  5
34544
 10
277.311
 20
101.833
 30
0.000000
  70
    32
  0
VERTEX
  8
0
  5
34545
 10
277.360
 20
101.700
 30
0.000000
  70
    32
  0
VERTEX
  8
0
  5
34546
 10
277.410
 20
101.568
 30
0.000000
  70
    32
  0
VERTEX
  8
0
  5
34547
 10
277.460
 20
101.436
 30
0.000000
  70
    32
  0
VERTEX
  8
0
  5
34548
 10
277.511
 20
101.304
 30
0.000000
  70
    32
  0
VERTEX
  8
0
  5
34549
 10
277.562
 20
101.173
 30
0.000000
  70
    32
  0
VERTEX
  8
0
  5
3454A
 10
277.615
 20
101.043
 30
0.000000
  70
    32
  0
VERTEX
  8
0
  5
3454B
 10
277.668
 20
100.913
 30
0.000000
  70
    32
  0
VERTEX
  8
0
  5
3454C
 10
277.722
 20
100.784
 30
0.000000
  70
    32
  0
VERTEX
  8
0
  5
3454D
 10
277.777
 20
100.655
 30
0.000000
  70
    32
  0
VERTEX
  8
0
  5
3454E
 10
277.832
 20
100.526
 30
0.000000
  70
    32
  0
VERTEX
  8
0
  5
3454F
 10
277.888
 20
100.398
 30
0.000000
  70
    32
  0
VERTEX
  8
0
  5
34550
 10
277.945
 20
100.271
 30
0.000000
  70
    32
  0
VERTEX
  8
0
  5
34551
 10
278.003
 20
100.144
 30
0.000000
  70
    32
  0
VERTEX
  8
0
  5
34552
 10
278.061
 20
100.018
 30
0.000000
  70
    32
  0
VERTEX
  8
0
  5
34553
 10
278.120
 20
99.8919
 30
0.000000
  70
    32
  0
VERTEX
  8
0
  5
34554
 10
278.180
 20
99.7667
 30
0.000000
  70
    32
  0
VERTEX
  8
0
  5
34555
 10
278.240
 20
99.6421
 30
0.000000
  70
    32
  0
VERTEX
  8
0
  5
34556
 10
278.302
 20
99.5181
 30
0.000000
  70
    32
  0
VERTEX
  8
0
  5
34557
 10
278.364
 20
99.3947
 30
0.000000
  70
    32
  0
SEQEND
  8
0
  5
34558
  0
LINE
  5
33F02
  8
0
 10
279.86356916321029
 20
119.31309916727361
 30
0.0
 11
279.8635691632104
 21
82.813099167273592
 31
0.0
  0
POLYLINE
  5
33F03
  8
0
 10
278.52679408263919
 20
117.40135727115957
 30
0.0
 66
     1
 70
     8
  0
VERTEX
  8
0
  5
34559
 10
278.527
 20
117.401
 30
0.000000
  70
    32
  0
VERTEX
  8
0
  5
3455A
 10
278.483
 20
117.270
 30
0.000000
  70
    32
  0
VERTEX
  8
0
  5
3455B
 10
278.440
 20
117.139
 30
0.000000
  70
    32
  0
VERTEX
  8
0
  5
3455C
 10
278.397
 20
117.006
 30
0.000000
  70
    32
  0
VERTEX
  8
0
  5
3455D
 10
278.356
 20
116.874
 30
0.000000
  70
    32
  0
VERTEX
  8
0
  5
3455E
 10
278.315
 20
116.741
 30
0.000000
  70
    32
  0
VERTEX
  8
0
  5
3455F
 10
278.275
 20
116.608
 30
0.000000
  70
    32
  0
VERTEX
  8
0
  5
34560
 10
278.236
 20
116.474
 30
0.000000
  70
    32
  0
VERTEX
  8
0
  5
34561
 10
278.198
 20
116.340
 30
0.000000
  70
    32
  0
VERTEX
  8
0
  5
34562
 10
278.160
 20
116.205
 30
0.000000
  70
    32
  0
VERTEX
  8
0
  5
34563
 10
278.124
 20
116.070
 30
0.000000
  70
    32
  0
VERTEX
  8
0
  5
34564
 10
278.088
 20
115.935
 30
0.000000
  70
    32
  0
VERTEX
  8
0
  5
34565
 10
278.053
 20
115.799
 30
0.000000
  70
    32
  0
VERTEX
  8
0
  5
34566
 10
278.019
 20
115.664
 30
0.000000
  70
    32
  0
VERTEX
  8
0
  5
34567
 10
277.986
 20
115.527
 30
0.000000
  70
    32
  0
VERTEX
  8
0
  5
34568
 10
277.953
 20
115.391
 30
0.000000
  70
    32
  0
VERTEX
  8
0
  5
34569
 10
277.922
 20
115.254
 30
0.000000
  70
    32
  0
VERTEX
  8
0
  5
3456A
 10
277.891
 20
115.116
 30
0.000000
  70
    32
  0
VERTEX
  8
0
  5
3456B
 10
277.861
 20
114.979
 30
0.000000
  70
    32
  0
VERTEX
  8
0
  5
3456C
 10
277.832
 20
114.841
 30
0.000000
  70
    32
  0
VERTEX
  8
0
  5
3456D
 10
277.804
 20
114.703
 30
0.000000
  70
    32
  0
VERTEX
  8
0
  5
3456E
 10
277.777
 20
114.564
 30
0.000000
  70
    32
  0
VERTEX
  8
0
  5
3456F
 10
277.751
 20
114.425
 30
0.000000
  70
    32
  0
VERTEX
  8
0
  5
34570
 10
277.725
 20
114.286
 30
0.000000
  70
    32
  0
VERTEX
  8
0
  5
34571
 10
277.700
 20
114.147
 30
0.000000
  70
    32
  0
VERTEX
  8
0
  5
34572
 10
277.676
 20
114.007
 30
0.000000
  70
    32
  0
VERTEX
  8
0
  5
34573
 10
277.653
 20
113.868
 30
0.000000
  70
    32
  0
VERTEX
  8
0
  5
34574
 10
277.631
 20
113.728
 30
0.000000
  70
    32
  0
VERTEX
  8
0
  5
34575
 10
277.610
 20
113.588
 30
0.000000
  70
    32
  0
VERTEX
  8
0
  5
34576
 10
277.590
 20
113.447
 30
0.000000
  70
    32
  0
VERTEX
  8
0
  5
34577
 10
277.570
 20
113.306
 30
0.000000
  70
    32
  0
VERTEX
  8
0
  5
34578
 10
277.552
 20
113.166
 30
0.000000
  70
    32
  0
VERTEX
  8
0
  5
34579
 10
277.534
 20
113.025
 30
0.000000
  70
    32
  0
VERTEX
  8
0
  5
3457A
 10
277.517
 20
112.883
 30
0.000000
  70
    32
  0
VERTEX
  8
0
  5
3457B
 10
277.501
 20
112.742
 30
0.000000
  70
    32
  0
VERTEX
  8
0
  5
3457C
 10
277.486
 20
112.601
 30
0.000000
  70
    32
  0
VERTEX
  8
0
  5
3457D
 10
277.472
 20
112.459
 30
0.000000
  70
    32
  0
VERTEX
  8
0
  5
3457E
 10
277.458
 20
112.317
 30
0.000000
  70
    32
  0
VERTEX
  8
0
  5
3457F
 10
277.446
 20
112.175
 30
0.000000
  70
    32
  0
VERTEX
  8
0
  5
34580
 10
277.434
 20
112.033
 30
0.000000
  70
    32
  0
VERTEX
  8
0
  5
34581
 10
277.424
 20
111.891
 30
0.000000
  70
    32
  0
VERTEX
  8
0
  5
34582
 10
277.414
 20
111.749
 30
0.000000
  70
    32
  0
VERTEX
  8
0
  5
34583
 10
277.405
 20
111.606
 30
0.000000
  70
    32
  0
VERTEX
  8
0
  5
34584
 10
277.397
 20
111.464
 30
0.000000
  70
    32
  0
VERTEX
  8
0
  5
34585
 10
277.389
 20
111.321
 30
0.000000
  70
    32
  0
VERTEX
  8
0
  5
34586
 10
277.383
 20
111.179
 30
0.000000
  70
    32
  0
VERTEX
  8
0
  5
34587
 10
277.378
 20
111.036
 30
0.000000
  70
    32
  0
VERTEX
  8
0
  5
34588
 10
277.373
 20
110.893
 30
0.000000
  70
    32
  0
VERTEX
  8
0
  5
34589
 10
277.369
 20
110.751
 30
0.000000
  70
    32
  0
VERTEX
  8
0
  5
3458A
 10
277.367
 20
110.608
 30
0.000000
  70
    32
  0
VERTEX
  8
0
  5
3458B
 10
277.365
 20
110.465
 30
0.000000
  70
    32
  0
VERTEX
  8
0
  5
3458C
 10
277.364
 20
110.322
 30
0.000000
  70
    32
  0
VERTEX
  8
0
  5
3458D
 10
277.364
 20
110.179
 30
0.000000
  70
    32
  0
VERTEX
  8
0
  5
3458E
 10
277.364
 20
110.036
 30
0.000000
  70
    32
  0
VERTEX
  8
0
  5
3458F
 10
277.366
 20
109.894
 30
0.000000
  70
    32
  0
VERTEX
  8
0
  5
34590
 10
277.369
 20
109.751
 30
0.000000
  70
    32
  0
VERTEX
  8
0
  5
34591
 10
277.372
 20
109.608
 30
0.000000
  70
    32
  0
VERTEX
  8
0
  5
34592
 10
277.376
 20
109.465
 30
0.000000
  70
    32
  0
VERTEX
  8
0
  5
34593
 10
277.381
 20
109.323
 30
0.000000
  70
    32
  0
VERTEX
  8
0
  5
34594
 10
277.387
 20
109.180
 30
0.000000
  70
    32
  0
VERTEX
  8
0
  5
34595
 10
277.394
 20
109.037
 30
0.000000
  70
    32
  0
VERTEX
  8
0
  5
34596
 10
277.402
 20
108.895
 30
0.000000
  70
    32
  0
VERTEX
  8
0
  5
34597
 10
277.411
 20
108.753
 30
0.000000
  70
    32
  0
VERTEX
  8
0
  5
34598
 10
277.421
 20
108.610
 30
0.000000
  70
    32
  0
VERTEX
  8
0
  5
34599
 10
277.431
 20
108.468
 30
0.000000
  70
    32
  0
VERTEX
  8
0
  5
3459A
 10
277.442
 20
108.326
 30
0.000000
  70
    32
  0
VERTEX
  8
0
  5
3459B
 10
277.455
 20
108.184
 30
0.000000
  70
    32
  0
VERTEX
  8
0
  5
3459C
 10
277.468
 20
108.042
 30
0.000000
  70
    32
  0
VERTEX
  8
0
  5
3459D
 10
277.482
 20
107.900
 30
0.000000
  70
    32
  0
VERTEX
  8
0
  5
3459E
 10
277.497
 20
107.759
 30
0.000000
  70
    32
  0
VERTEX
  8
0
  5
3459F
 10
277.512
 20
107.617
 30
0.000000
  70
    32
  0
VERTEX
  8
0
  5
345A0
 10
277.529
 20
107.476
 30
0.000000
  70
    32
  0
VERTEX
  8
0
  5
345A1
 10
277.546
 20
107.335
 30
0.000000
  70
    32
  0
VERTEX
  8
0
  5
345A2
 10
277.565
 20
107.194
 30
0.000000
  70
    32
  0
VERTEX
  8
0
  5
345A3
 10
277.584
 20
107.054
 30
0.000000
  70
    32
  0
VERTEX
  8
0
  5
345A4
 10
277.604
 20
106.913
 30
0.000000
  70
    32
  0
VERTEX
  8
0
  5
345A5
 10
277.625
 20
106.773
 30
0.000000
  70
    32
  0
VERTEX
  8
0
  5
345A6
 10
277.647
 20
106.633
 30
0.000000
  70
    32
  0
VERTEX
  8
0
  5
345A7
 10
277.670
 20
106.493
 30
0.000000
  70
    32
  0
VERTEX
  8
0
  5
345A8
 10
277.693
 20
106.353
 30
0.000000
  70
    32
  0
VERTEX
  8
0
  5
345A9
 10
277.718
 20
106.214
 30
0.000000
  70
    32
  0
VERTEX
  8
0
  5
345AA
 10
277.743
 20
106.075
 30
0.000000
  70
    32
  0
VERTEX
  8
0
  5
345AB
 10
277.769
 20
105.936
 30
0.000000
  70
    32
  0
VERTEX
  8
0
  5
345AC
 10
277.796
 20
105.797
 30
0.000000
  70
    32
  0
VERTEX
  8
0
  5
345AD
 10
277.824
 20
105.659
 30
0.000000
  70
    32
  0
VERTEX
  8
0
  5
345AE
 10
277.853
 20
105.521
 30
0.000000
  70
    32
  0
VERTEX
  8
0
  5
345AF
 10
277.882
 20
105.383
 30
0.000000
  70
    32
  0
VERTEX
  8
0
  5
345B0
 10
277.913
 20
105.246
 30
0.000000
  70
    32
  0
VERTEX
  8
0
  5
345B1
 10
277.944
 20
105.109
 30
0.000000
  70
    32
  0
VERTEX
  8
0
  5
345B2
 10
277.976
 20
104.972
 30
0.000000
  70
    32
  0
VERTEX
  8
0
  5
345B3
 10
278.009
 20
104.836
 30
0.000000
  70
    32
  0
VERTEX
  8
0
  5
345B4
 10
278.043
 20
104.700
 30
0.000000
  70
    32
  0
VERTEX
  8
0
  5
345B5
 10
278.078
 20
104.564
 30
0.000000
  70
    32
  0
VERTEX
  8
0
  5
345B6
 10
278.113
 20
104.429
 30
0.000000
  70
    32
  0
VERTEX
  8
0
  5
345B7
 10
278.149
 20
104.294
 30
0.000000
  70
    32
  0
VERTEX
  8
0
  5
345B8
 10
278.187
 20
104.159
 30
0.000000
  70
    32
  0
VERTEX
  8
0
  5
345B9
 10
278.225
 20
104.025
 30
0.000000
  70
    32
  0
VERTEX
  8
0
  5
345BA
 10
278.263
 20
103.891
 30
0.000000
  70
    32
  0
VERTEX
  8
0
  5
345BB
 10
278.303
 20
103.757
 30
0.000000
  70
    32
  0
VERTEX
  8
0
  5
345BC
 10
278.344
 20
103.624
 30
0.000000
  70
    32
  0
VERTEX
  8
0
  5
345BD
 10
278.385
 20
103.492
 30
0.000000
  70
    32
  0
VERTEX
  8
0
  5
345BE
 10
278.427
 20
103.360
 30
0.000000
  70
    32
  0
VERTEX
  8
0
  5
345BF
 10
278.470
 20
103.228
 30
0.000000
  70
    32
  0
VERTEX
  8
0
  5
345C0
 10
278.514
 20
103.096
 30
0.000000
  70
    32
  0
VERTEX
  8
0
  5
345C1
 10
278.558
 20
102.966
 30
0.000000
  70
    32
  0
VERTEX
  8
0
  5
345C2
 10
278.604
 20
102.835
 30
0.000000
  70
    32
  0
VERTEX
  8
0
  5
345C3
 10
278.650
 20
102.705
 30
0.000000
  70
    32
  0
VERTEX
  8
0
  5
345C4
 10
278.697
 20
102.576
 30
0.000000
  70
    32
  0
VERTEX
  8
0
  5
345C5
 10
278.745
 20
102.447
 30
0.000000
  70
    32
  0
VERTEX
  8
0
  5
345C6
 10
278.793
 20
102.318
 30
0.000000
  70
    32
  0
VERTEX
  8
0
  5
345C7
 10
278.843
 20
102.190
 30
0.000000
  70
    32
  0
VERTEX
  8
0
  5
345C8
 10
278.893
 20
102.063
 30
0.000000
  70
    32
  0
VERTEX
  8
0
  5
345C9
 10
278.944
 20
101.936
 30
0.000000
  70
    32
  0
VERTEX
  8
0
  5
345CA
 10
278.996
 20
101.809
 30
0.000000
  70
    32
  0
VERTEX
  8
0
  5
345CB
 10
279.048
 20
101.683
 30
0.000000
  70
    32
  0
VERTEX
  8
0
  5
345CC
 10
279.101
 20
101.558
 30
0.000000
  70
    32
  0
VERTEX
  8
0
  5
345CD
 10
279.155
 20
101.433
 30
0.000000
  70
    32
  0
VERTEX
  8
0
  5
345CE
 10
279.210
 20
101.309
 30
0.000000
  70
    32
  0
VERTEX
  8
0
  5
345CF
 10
279.266
 20
101.185
 30
0.000000
  70
    32
  0
VERTEX
  8
0
  5
345D0
 10
279.322
 20
101.062
 30
0.000000
  70
    32
  0
VERTEX
  8
0
  5
345D1
 10
279.379
 20
100.940
 30
0.000000
  70
    32
  0
VERTEX
  8
0
  5
345D2
 10
279.437
 20
100.818
 30
0.000000
  70
    32
  0
VERTEX
  8
0
  5
345D3
 10
279.496
 20
100.696
 30
0.000000
  70
    32
  0
VERTEX
  8
0
  5
345D4
 10
279.555
 20
100.575
 30
0.000000
  70
    32
  0
VERTEX
  8
0
  5
345D5
 10
279.616
 20
100.455
 30
0.000000
  70
    32
  0
VERTEX
  8
0
  5
345D6
 10
279.676
 20
100.336
 30
0.000000
  70
    32
  0
VERTEX
  8
0
  5
345D7
 10
279.738
 20
100.217
 30
0.000000
  70
    32
  0
VERTEX
  8
0
  5
345D8
 10
279.800
 20
100.098
 30
0.000000
  70
    32
  0
VERTEX
  8
0
  5
345D9
 10
279.864
 20
99.9808
 30
0.000000
  70
    32
  0
SEQEND
  8
0
  5
345DA
  0
ARC
  5
33F04
  8
0
 10
281.05852096772128
 20
116.7510778810648
 30
0.0
 40
2.6139059481606348
 50
117.2034704069018
 51
165.5948534112085
  0
ARC
  5
33F05
  8
0
 10
301.57729854007658
 20
116.67817683886889
 30
0.0
 40
2.7209113733034309
 50
15.413668429066551
 51
61.788007752825351
  0
POLYLINE
  5
33F06
  8
0
 10
302.8635691632104
 20
99.980768258956317
 30
0.0
 66
     1
 70
     8
  0
VERTEX
  8
0
  5
345DB
 10
302.864
 20
99.9808
 30
0.000000
  70
    32
  0
VERTEX
  8
0
  5
345DC
 10
302.927
 20
100.098
 30
0.000000
  70
    32
  0
VERTEX
  8
0
  5
345DD
 10
302.989
 20
100.217
 30
0.000000
  70
    32
  0
VERTEX
  8
0
  5
345DE
 10
303.051
 20
100.336
 30
0.000000
  70
    32
  0
VERTEX
  8
0
  5
345DF
 10
303.112
 20
100.455
 30
0.000000
  70
    32
  0
VERTEX
  8
0
  5
345E0
 10
303.172
 20
100.575
 30
0.000000
  70
    32
  0
VERTEX
  8
0
  5
345E1
 10
303.231
 20
100.696
 30
0.000000
  70
    32
  0
VERTEX
  8
0
  5
345E2
 10
303.290
 20
100.818
 30
0.000000
  70
    32
  0
VERTEX
  8
0
  5
345E3
 10
303.348
 20
100.940
 30
0.000000
  70
    32
  0
VERTEX
  8
0
  5
345E4
 10
303.405
 20
101.062
 30
0.000000
  70
    32
  0
VERTEX
  8
0
  5
345E5
 10
303.461
 20
101.185
 30
0.000000
  70
    32
  0
VERTEX
  8
0
  5
345E6
 10
303.517
 20
101.309
 30
0.000000
  70
    32
  0
VERTEX
  8
0
  5
345E7
 10
303.572
 20
101.433
 30
0.000000
  70
    32
  0
VERTEX
  8
0
  5
345E8
 10
303.626
 20
101.558
 30
0.000000
  70
    32
  0
VERTEX
  8
0
  5
345E9
 10
303.679
 20
101.683
 30
0.000000
  70
    32
  0
VERTEX
  8
0
  5
345EA
 10
303.732
 20
101.809
 30
0.000000
  70
    32
  0
VERTEX
  8
0
  5
345EB
 10
303.783
 20
101.936
 30
0.000000
  70
    32
  0
VERTEX
  8
0
  5
345EC
 10
303.834
 20
102.063
 30
0.000000
  70
    32
  0
VERTEX
  8
0
  5
345ED
 10
303.885
 20
102.190
 30
0.000000
  70
    32
  0
VERTEX
  8
0
  5
345EE
 10
303.934
 20
102.318
 30
0.000000
  70
    32
  0
VERTEX
  8
0
  5
345EF
 10
303.982
 20
102.447
 30
0.000000
  70
    32
  0
VERTEX
  8
0
  5
345F0
 10
304.030
 20
102.576
 30
0.000000
  70
    32
  0
VERTEX
  8
0
  5
345F1
 10
304.077
 20
102.705
 30
0.000000
  70
    32
  0
VERTEX
  8
0
  5
345F2
 10
304.123
 20
102.835
 30
0.000000
  70
    32
  0
VERTEX
  8
0
  5
345F3
 10
304.169
 20
102.966
 30
0.000000
  70
    32
  0
VERTEX
  8
0
  5
345F4
 10
304.213
 20
103.096
 30
0.000000
  70
    32
  0
VERTEX
  8
0
  5
345F5
 10
304.257
 20
103.228
 30
0.000000
  70
    32
  0
VERTEX
  8
0
  5
345F6
 10
304.300
 20
103.360
 30
0.000000
  70
    32
  0
VERTEX
  8
0
  5
345F7
 10
304.342
 20
103.492
 30
0.000000
  70
    32
  0
VERTEX
  8
0
  5
345F8
 10
304.384
 20
103.624
 30
0.000000
  70
    32
  0
VERTEX
  8
0
  5
345F9
 10
304.424
 20
103.757
 30
0.000000
  70
    32
  0
VERTEX
  8
0
  5
345FA
 10
304.464
 20
103.891
 30
0.000000
  70
    32
  0
VERTEX
  8
0
  5
345FB
 10
304.503
 20
104.025
 30
0.000000
  70
    32
  0
VERTEX
  8
0
  5
345FC
 10
304.541
 20
104.159
 30
0.000000
  70
    32
  0
VERTEX
  8
0
  5
345FD
 10
304.578
 20
104.294
 30
0.000000
  70
    32
  0
VERTEX
  8
0
  5
345FE
 10
304.614
 20
104.429
 30
0.000000
  70
    32
  0
VERTEX
  8
0
  5
345FF
 10
304.650
 20
104.564
 30
0.000000
  70
    32
  0
VERTEX
  8
0
  5
34600
 10
304.684
 20
104.700
 30
0.000000
  70
    32
  0
VERTEX
  8
0
  5
34601
 10
304.718
 20
104.836
 30
0.000000
  70
    32
  0
VERTEX
  8
0
  5
34602
 10
304.751
 20
104.972
 30
0.000000
  70
    32
  0
VERTEX
  8
0
  5
34603
 10
304.783
 20
105.109
 30
0.000000
  70
    32
  0
VERTEX
  8
0
  5
34604
 10
304.814
 20
105.246
 30
0.000000
  70
    32
  0
VERTEX
  8
0
  5
34605
 10
304.845
 20
105.383
 30
0.000000
  70
    32
  0
VERTEX
  8
0
  5
34606
 10
304.874
 20
105.521
 30
0.000000
  70
    32
  0
VERTEX
  8
0
  5
34607
 10
304.903
 20
105.659
 30
0.000000
  70
    32
  0
VERTEX
  8
0
  5
34608
 10
304.931
 20
105.797
 30
0.000000
  70
    32
  0
VERTEX
  8
0
  5
34609
 10
304.958
 20
105.936
 30
0.000000
  70
    32
  0
VERTEX
  8
0
  5
3460A
 10
304.984
 20
106.075
 30
0.000000
  70
    32
  0
VERTEX
  8
0
  5
3460B
 10
305.010
 20
106.214
 30
0.000000
  70
    32
  0
VERTEX
  8
0
  5
3460C
 10
305.034
 20
106.353
 30
0.000000
  70
    32
  0
VERTEX
  8
0
  5
3460D
 10
305.058
 20
106.493
 30
0.000000
  70
    32
  0
VERTEX
  8
0
  5
3460E
 10
305.080
 20
106.633
 30
0.000000
  70
    32
  0
VERTEX
  8
0
  5
3460F
 10
305.102
 20
106.773
 30
0.000000
  70
    32
  0
VERTEX
  8
0
  5
34610
 10
305.123
 20
106.913
 30
0.000000
  70
    32
  0
VERTEX
  8
0
  5
34611
 10
305.143
 20
107.054
 30
0.000000
  70
    32
  0
VERTEX
  8
0
  5
34612
 10
305.162
 20
107.194
 30
0.000000
  70
    32
  0
VERTEX
  8
0
  5
34613
 10
305.181
 20
107.335
 30
0.000000
  70
    32
  0
VERTEX
  8
0
  5
34614
 10
305.198
 20
107.476
 30
0.000000
  70
    32
  0
VERTEX
  8
0
  5
34615
 10
305.215
 20
107.617
 30
0.000000
  70
    32
  0
VERTEX
  8
0
  5
34616
 10
305.231
 20
107.759
 30
0.000000
  70
    32
  0
VERTEX
  8
0
  5
34617
 10
305.245
 20
107.900
 30
0.000000
  70
    32
  0
VERTEX
  8
0
  5
34618
 10
305.259
 20
108.042
 30
0.000000
  70
    32
  0
VERTEX
  8
0
  5
34619
 10
305.273
 20
108.184
 30
0.000000
  70
    32
  0
VERTEX
  8
0
  5
3461A
 10
305.285
 20
108.326
 30
0.000000
  70
    32
  0
VERTEX
  8
0
  5
3461B
 10
305.296
 20
108.468
 30
0.000000
  70
    32
  0
VERTEX
  8
0
  5
3461C
 10
305.307
 20
108.610
 30
0.000000
  70
    32
  0
VERTEX
  8
0
  5
3461D
 10
305.316
 20
108.753
 30
0.000000
  70
    32
  0
VERTEX
  8
0
  5
3461E
 10
305.325
 20
108.895
 30
0.000000
  70
    32
  0
VERTEX
  8
0
  5
3461F
 10
305.333
 20
109.037
 30
0.000000
  70
    32
  0
VERTEX
  8
0
  5
34620
 10
305.340
 20
109.180
 30
0.000000
  70
    32
  0
VERTEX
  8
0
  5
34621
 10
305.346
 20
109.323
 30
0.000000
  70
    32
  0
VERTEX
  8
0
  5
34622
 10
305.351
 20
109.465
 30
0.000000
  70
    32
  0
VERTEX
  8
0
  5
34623
 10
305.355
 20
109.608
 30
0.000000
  70
    32
  0
VERTEX
  8
0
  5
34624
 10
305.359
 20
109.751
 30
0.000000
  70
    32
  0
VERTEX
  8
0
  5
34625
 10
305.361
 20
109.894
 30
0.000000
  70
    32
  0
VERTEX
  8
0
  5
34626
 10
305.363
 20
110.036
 30
0.000000
  70
    32
  0
VERTEX
  8
0
  5
34627
 10
305.364
 20
110.179
 30
0.000000
  70
    32
  0
VERTEX
  8
0
  5
34628
 10
305.363
 20
110.322
 30
0.000000
  70
    32
  0
VERTEX
  8
0
  5
34629
 10
305.362
 20
110.465
 30
0.000000
  70
    32
  0
VERTEX
  8
0
  5
3462A
 10
305.360
 20
110.608
 30
0.000000
  70
    32
  0
VERTEX
  8
0
  5
3462B
 10
305.358
 20
110.751
 30
0.000000
  70
    32
  0
VERTEX
  8
0
  5
3462C
 10
305.354
 20
110.893
 30
0.000000
  70
    32
  0
VERTEX
  8
0
  5
3462D
 10
305.349
 20
111.036
 30
0.000000
  70
    32
  0
VERTEX
  8
0
  5
3462E
 10
305.344
 20
111.179
 30
0.000000
  70
    32
  0
VERTEX
  8
0
  5
3462F
 10
305.338
 20
111.321
 30
0.000000
  70
    32
  0
VERTEX
  8
0
  5
34630
 10
305.331
 20
111.464
 30
0.000000
  70
    32
  0
VERTEX
  8
0
  5
34631
 10
305.322
 20
111.606
 30
0.000000
  70
    32
  0
VERTEX
  8
0
  5
34632
 10
305.313
 20
111.749
 30
0.000000
  70
    32
  0
VERTEX
  8
0
  5
34633
 10
305.304
 20
111.891
 30
0.000000
  70
    32
  0
VERTEX
  8
0
  5
34634
 10
305.293
 20
112.033
 30
0.000000
  70
    32
  0
VERTEX
  8
0
  5
34635
 10
305.281
 20
112.175
 30
0.000000
  70
    32
  0
VERTEX
  8
0
  5
34636
 10
305.269
 20
112.317
 30
0.000000
  70
    32
  0
VERTEX
  8
0
  5
34637
 10
305.255
 20
112.459
 30
0.000000
  70
    32
  0
VERTEX
  8
0
  5
34638
 10
305.241
 20
112.601
 30
0.000000
  70
    32
  0
VERTEX
  8
0
  5
34639
 10
305.226
 20
112.742
 30
0.000000
  70
    32
  0
VERTEX
  8
0
  5
3463A
 10
305.210
 20
112.883
 30
0.000000
  70
    32
  0
VERTEX
  8
0
  5
3463B
 10
305.193
 20
113.025
 30
0.000000
  70
    32
  0
VERTEX
  8
0
  5
3463C
 10
305.175
 20
113.166
 30
0.000000
  70
    32
  0
VERTEX
  8
0
  5
3463D
 10
305.157
 20
113.306
 30
0.000000
  70
    32
  0
VERTEX
  8
0
  5
3463E
 10
305.137
 20
113.447
 30
0.000000
  70
    32
  0
VERTEX
  8
0
  5
3463F
 10
305.117
 20
113.588
 30
0.000000
  70
    32
  0
VERTEX
  8
0
  5
34640
 10
305.096
 20
113.728
 30
0.000000
  70
    32
  0
VERTEX
  8
0
  5
34641
 10
305.074
 20
113.868
 30
0.000000
  70
    32
  0
VERTEX
  8
0
  5
34642
 10
305.051
 20
114.007
 30
0.000000
  70
    32
  0
VERTEX
  8
0
  5
34643
 10
305.027
 20
114.147
 30
0.000000
  70
    32
  0
VERTEX
  8
0
  5
34644
 10
305.002
 20
114.286
 30
0.000000
  70
    32
  0
VERTEX
  8
0
  5
34645
 10
304.977
 20
114.425
 30
0.000000
  70
    32
  0
VERTEX
  8
0
  5
34646
 10
304.950
 20
114.564
 30
0.000000
  70
    32
  0
VERTEX
  8
0
  5
34647
 10
304.923
 20
114.703
 30
0.000000
  70
    32
  0
VERTEX
  8
0
  5
34648
 10
304.895
 20
114.841
 30
0.000000
  70
    32
  0
VERTEX
  8
0
  5
34649
 10
304.866
 20
114.979
 30
0.000000
  70
    32
  0
VERTEX
  8
0
  5
3464A
 10
304.836
 20
115.116
 30
0.000000
  70
    32
  0
VERTEX
  8
0
  5
3464B
 10
304.805
 20
115.254
 30
0.000000
  70
    32
  0
VERTEX
  8
0
  5
3464C
 10
304.774
 20
115.391
 30
0.000000
  70
    32
  0
VERTEX
  8
0
  5
3464D
 10
304.741
 20
115.527
 30
0.000000
  70
    32
  0
VERTEX
  8
0
  5
3464E
 10
304.708
 20
115.664
 30
0.000000
  70
    32
  0
VERTEX
  8
0
  5
3464F
 10
304.674
 20
115.799
 30
0.000000
  70
    32
  0
VERTEX
  8
0
  5
34650
 10
304.639
 20
115.935
 30
0.000000
  70
    32
  0
VERTEX
  8
0
  5
34651
 10
304.603
 20
116.070
 30
0.000000
  70
    32
  0
VERTEX
  8
0
  5
34652
 10
304.567
 20
116.205
 30
0.000000
  70
    32
  0
VERTEX
  8
0
  5
34653
 10
304.529
 20
116.340
 30
0.000000
  70
    32
  0
VERTEX
  8
0
  5
34654
 10
304.491
 20
116.474
 30
0.000000
  70
    32
  0
VERTEX
  8
0
  5
34655
 10
304.452
 20
116.608
 30
0.000000
  70
    32
  0
VERTEX
  8
0
  5
34656
 10
304.412
 20
116.741
 30
0.000000
  70
    32
  0
VERTEX
  8
0
  5
34657
 10
304.371
 20
116.874
 30
0.000000
  70
    32
  0
VERTEX
  8
0
  5
34658
 10
304.330
 20
117.006
 30
0.000000
  70
    32
  0
VERTEX
  8
0
  5
34659
 10
304.288
 20
117.139
 30
0.000000
  70
    32
  0
VERTEX
  8
0
  5
3465A
 10
304.244
 20
117.270
 30
0.000000
  70
    32
  0
VERTEX
  8
0
  5
3465B
 10
304.200
 20
117.401
 30
0.000000
  70
    32
  0
SEQEND
  8
0
  5
3465C
  0
LINE
  5
33F07
  8
0
 10
302.8635691632104
 20
82.813099167273592
 30
0.0
 11
302.86356916321029
 21
119.31309916727361
 31
0.0
  0
LINE
  5
33F09
  8
0
 10
304.20034424378127
 20
117.4013572711596
 30
0.0
 11
305.82153563395468
 21
117.4013572711596
 31
0.0
  0
LINE
  5
33F0A
  8
0
 10
276.90560269246589
 20
117.4013572711596
 30
0.0
 11
278.52679408263919
 21
117.4013572711596
 31
0.0
  0
LINE
  5
33F0C
  8
0
 10
304.3635691632104
 20
83.813099167273421
 30
0.0
 11
304.36356916321029
 21
99.394658368191884
 31
0.0
  0
LINE
  5
33F0D
  8
0
 10
302.86356916321029
 20
86.511122004532709
 30
0.0
 11
304.36356916321029
 21
86.511122004532709
 31
0.0
  0
LINE
  5
33F10
  8
0
 10
278.36356916321029
 20
86.511122004532709
 30
0.0
 11
279.86356916321029
 21
86.511122004532709
 31
0.0
  0
LINE
  5
33F11
  8
0
 10
278.36356916321029
 20
99.394658368191912
 30
0.0
 11
278.3635691632104
 21
83.813099167273421
 31
0.0
  0
LINE
  5
33F3D
  8
0
 10
301.3635691632104
 20
112.3769578201216
 30
0.0
 11
301.3635691632104
 21
69.24924051442558
 31
0.0
  0
LINE
  5
33F3E
  8
0
 10
281.3635691632104
 20
112.3769578201216
 30
0.0
 11
281.3635691632104
 21
69.24924051442558
 31
0.0
  0
LINE
  5
33F41
  8
0
 10
275.53169720937211
 20
130.61653073412629
 30
0.0
 11
307.19544111704852
 21
130.61653073412629
 31
0.0
  0
LINE
  5
33F42
  8
0
 10
282.6679169892974
 20
114.2520759638475
 30
0.0
 11
282.6679169892974
 21
67.374122370697634
 31
0.0
  0
LINE
  5
33F43
  8
0
 10
300.0592213371234
 20
114.2520759638475
 30
0.0
 11
300.0592213371234
 21
67.374122370697634
 31
0.0
  0
LINE
  5
33F4A
  8
0
 10
172.6490134698721
 20
227.70496389038101
 30
0.0
 11
172.6490134698721
 21
226.20496389038101
 31
0.0
  0
LINE
  5
33F4B
  8
0
 10
172.6490134698721
 20
203.20496389038101
 30
0.0
 11
172.6490134698721
 21
201.70496389038101
 31
0.0
  0
ARC
  5
33F4C
  8
0
 10
179.64901346986829
 20
214.70496389038101
 30
0.0
 40
25.000000000000242
 50
159.64559360176369
 51
200.35440639823921
  0
ARC
  5
33F4D
  8
0
 10
179.64901346986829
 20
214.70496389038101
 30
0.0
 40
25.000000000003901
 50
348.52165904546911
 51
11.478340954530941
  0
ARC
  5
33F4E
  8
0
 10
158.0851548170248
 20
222.7049638903801
 30
0.0
 40
2.0000000000009579
 50
90.000000000006509
 51
159.6455936017463
  0
ARC
  5
33F4F
  8
0
 10
158.0851548170248
 20
206.704963890382
 30
0.0
 40
2.0000000000009579
 50
200.3544063982566
 51
269.99999999999352
  0
LINE
  5
33F50
  8
0
 10
171.64901346987219
 20
226.20496389038101
 30
0.0
 11
166.64901346987219
 21
224.70496389038101
 31
0.0
  0
LINE
  5
33F51
  8
0
 10
166.64901346987219
 20
204.70496389038101
 30
0.0
 11
171.64901346987219
 21
203.20496389038101
 31
0.0
  0
CIRCLE
  5
33F52
  8
0
 10
203.64901346987219
 20
214.7049638903809
 30
0.0
 40
15.83187195383824
  0
CIRCLE
  5
33F53
  8
0
 10
203.64901346987219
 20
214.70496389038081
 30
0.0
 40
13.964543859858001
  0
CIRCLE
  5
33F56
  8
0
 10
203.64901346987219
 20
214.7049638903809
 30
0.0
 40
17.5
  0
CIRCLE
  5
33F57
  8
0
 10
203.64901346987219
 20
214.7049638903809
 30
0.0
 40
4.9999999999999849
  0
LINE
  5
33F59
  8
0
 10
172.6490134698721
 20
227.7049638903809
 30
0.0
 11
191.9336389560122
 21
227.7049638903809
 31
0.0
  0
LINE
  5
33F5A
  8
0
 10
178.64901346987179
 20
201.7049638903809
 30
0.0
 11
178.6490134698723
 21
227.7049638903809
 31
0.0
  0
LINE
  5
33F5B
  8
0
 10
191.9336389560122
 20
201.7049638903809
 30
0.0
 11
172.6490134698721
 21
201.70496389038101
 31
0.0
  0
LINE
  5
33F62
  8
0
 10
178.64901346987199
 20
203.2049638903809
 30
0.0
 11
171.64901346987219
 21
203.20496389038101
 31
0.0
  0
LINE
  5
33F87
  8
0
 10
158.0851548170242
 20
224.70496389038101
 30
0.0
 11
178.64901346987199
 21
224.7049638903809
 31
0.0
  0
LINE
  5
33F88
  8
0
 10
158.0851548170242
 20
204.70496389038101
 30
0.0
 11
178.64901346987199
 21
204.70496389038101
 31
0.0
  0
LINE
  5
33F89
  8
0
 10
171.64901346987219
 20
226.20496389038101
 30
0.0
 11
178.64901346987199
 21
226.20496389038101
 31
0.0
  0
LINE
  5
33F8B
  8
0
 10
190.03835588105599
 20
225.7049638903809
 30
0.0
 11
178.64901346987199
 21
225.7049638903809
 31
0.0
  0
LINE
  5
33F8C
  8
0
 10
178.64901346987199
 20
203.7049638903809
 30
0.0
 11
190.03835588105599
 21
203.7049638903809
 31
0.0
  0
LINE
  5
33F8D
  8
0
 10
156.21003667329819
 20
206.00931171646801
 30
0.0
 11
178.64901346987199
 21
206.00931171646789
 31
0.0
  0
LINE
  5
33F8E
  8
0
 10
156.21003667329819
 20
223.40061606429401
 30
0.0
 11
178.64901346987199
 21
223.4006160642939
 31
0.0
  0
LINE
  5
33FD1
  8
1
 10
203.64901346986829
 20
140.26692226528121
 30
0.0
 11
203.64901346986829
 21
115.600660635404
 31
0.0
  0
LINE
  5
33FD2
  8
1
 10
149.22050795225411
 20
90.813099167269698
 30
0.0
 11
210.07751898748259
 21
90.813099167269698
 31
0.0
  0
LINE
  5
33FD3
  8
1
 10
179.64901346986829
 20
60.384593649655471
 30
0.0
 11
179.64901346986829
 21
118.0550996781985
 31
0.0
  0
LINE
  5
33FD4
  8
1
 10
179.64901346986829
 20
193.87996389038079
 30
0.0
 11
179.64901346986829
 21
235.52996389038091
 31
0.0
  0
LINE
  5
33FD5
  8
1
 10
147.24611972898629
 20
214.7049638903809
 30
0.0
 11
228.25081863540751
 21
214.7049638903809
 31
0.0
  0
LINE
  5
33FD6
  8
1
 10
203.64901346986829
 20
190.60315872484171
 30
0.0
 11
203.64901346986829
 21
238.80676905592011
 31
0.0
  0
LINE
  5
33FD7
  8
1
 10
90.778884269340324
 20
90.813099167269698
 30
0.0
 11
45.090031283713408
 21
90.813099167269698
 31
0.0
  0
LINE
  5
33FD8
  8
1
 10
67.934457776526415
 20
58.778784586977068
 30
0.0
 11
67.934457776526415
 21
140.26692226528121
 31
0.0
  0
LINE
  5
33FD9
  8
1
 10
314.2079956560242
 20
90.813099167269726
 30
0.0
 11
268.51914267039729
 21
90.813099167269726
 31
0.0
  0
LINE
  5
33FDA
  8
1
 10
291.36356916321029
 20
58.778784586977082
 30
0.0
 11
291.36356916321029
 21
140.26692226528121
 31
0.0
  0
LINE
  5
34062
  8
0
 10
175.2090134698683
 20
201.7049638903809
 30
0.0
 11
175.2090134698683
 21
201.2049638903809
 31
0.0
  0
LINE
  5
34063
  8
0
 10
184.08901346986841
 20
201.2049638903809
 30
0.0
 11
184.08901346986841
 21
201.7049638903809
 31
0.0
  0
LINE
  5
34064
  8
0
 10
177.2625134698682
 20
233.7049638903809
 30
0.0
 11
176.64901346986829
 21
233.09146389038079
 31
0.0
  0
LINE
  5
34065
  8
0
 10
182.64901346986829
 20
233.09146389038079
 30
0.0
 11
182.03551346986839
 21
233.7049638903809
 31
0.0
  0
LINE
  5
34066
  8
0
 10
176.64901346986829
 20
233.09146389038079
 30
0.0
 11
176.64901346986829
 21
232.7049638903809
 31
0.0
  0
LINE
  5
34067
  8
0
 10
182.64901346986829
 20
232.7049638903809
 30
0.0
 11
182.64901346986829
 21
233.09146389038079
 31
0.0
  0
LINE
  5
34068
  8
0
 10
182.03551346986839
 20
233.7049638903809
 30
0.0
 11
177.2625134698682
 21
233.7049638903809
 31
0.0
  0
LINE
  5
34069
  8
0
 10
182.64901346986829
 20
233.09146389038079
 30
0.0
 11
176.64901346986829
 21
233.09146389038079
 31
0.0
  0
LINE
  5
3406A
  8
0
 10
184.4656801365349
 20
197.2049638903809
 30
0.0
 11
174.83234680320169
 21
197.2049638903809
 31
0.0
  0
POLYLINE
  5
3406B
  8
0
 66
     1
 10
0.0
 20
0.0
 30
0.0
  0
VERTEX
  5
341F1
  8
0
 10
179.64901346986829
 20
197.40462379937551
 30
0.0
  0
VERTEX
  5
341F2
  8
0
 10
179.21633815658009
 20
197.34240248166279
 30
0.0
  0
VERTEX
  5
341F3
  8
0
 10
178.40375952001111
 20
197.25419372591509
 30
0.0
  0
VERTEX
  5
341F4
  8
0
 10
177.6273765719852
 20
197.21049770825081
 30
0.0
  0
VERTEX
  5
341F5
  8
0
 10
177.24068013736809
 20
197.2049638903809
 30
0.0
  0
SEQEND
  5
341F6
  8
0
  0
POLYLINE
  5
3406C
  8
0
 66
     1
 10
0.0
 20
0.0
 30
0.0
  0
VERTEX
  5
341F7
  8
0
 10
177.24068013736809
 20
197.2049638903809
 30
0.0
  0
VERTEX
  5
341F8
  8
0
 10
176.85398370275149
 20
197.21049770825081
 30
0.0
  0
VERTEX
  5
341F9
  8
0
 10
176.07760075472561
 20
197.25419372591509
 30
0.0
  0
VERTEX
  5
341FA
  8
0
 10
175.26502211815659
 20
197.34240248166279
 30
0.0
  0
VERTEX
  5
341FB
  8
0
 10
174.83234680486839
 20
197.40462379937551
 30
0.0
  0
SEQEND
  5
341FC
  8
0
  0
LINE
  5
3406D
  8
0
 10
174.83234680486839
 20
201.2049638903809
 30
0.0
 11
184.46568013486831
 21
201.2049638903809
 31
0.0
  0
POLYLINE
  5
3406E
  8
0
 66
     1
 10
0.0
 20
0.0
 30
0.0
  0
VERTEX
  5
341FD
  8
0
 10
184.46568013486831
 20
197.40462379937551
 30
0.0
  0
VERTEX
  5
341FE
  8
0
 10
184.03300482158011
 20
197.34240248166279
 30
0.0
  0
VERTEX
  5
341FF
  8
0
 10
183.22042618501109
 20
197.25419372591509
 30
0.0
  0
VERTEX
  5
34200
  8
0
 10
182.4440432369851
 20
197.21049770825081
 30
0.0
  0
VERTEX
  5
34201
  8
0
 10
182.0573468023685
 20
197.2049638903809
 30
0.0
  0
SEQEND
  5
34202
  8
0
  0
POLYLINE
  5
3406F
  8
0
 66
     1
 10
0.0
 20
0.0
 30
0.0
  0
VERTEX
  5
34203
  8
0
 10
182.0573468023685
 20
197.2049638903809
 30
0.0
  0
VERTEX
  5
34204
  8
0
 10
181.67065036775139
 20
197.21049770825081
 30
0.0
  0
VERTEX
  5
34205
  8
0
 10
180.89426741972551
 20
197.25419372591509
 30
0.0
  0
VERTEX
  5
34206
  8
0
 10
180.08168878315649
 20
197.34240248166279
 30
0.0
  0
VERTEX
  5
34207
  8
0
 10
179.64901346986829
 20
197.40462379937551
 30
0.0
  0
SEQEND
  5
34208
  8
0
  0
LINE
  5
34070
  8
0
 10
179.64901346986829
 20
201.2049638903809
 30
0.0
 11
179.64901346986829
 21
197.40462379937551
 31
0.0
  0
LINE
  5
34071
  8
0
 10
174.83234680486839
 20
201.2049638903809
 30
0.0
 11
174.83234680486839
 21
197.2049638903809
 31
0.0
  0
LINE
  5
34072
  8
0
 10
184.46568013486831
 20
197.2049638903809
 30
0.0
 11
184.46568013486831
 21
201.2049638903809
 31
0.0
  0
LINE
  5
34073
  8
0
 10
184.4656801398682
 20
232.7049638903809
 30
0.0
 11
174.83234679986839
 21
232.7049638903809
 31
0.0
  0
LINE
  5
34074
  8
0
 10
184.46568013486831
 20
227.7049638903809
 30
0.0
 11
184.46568013486831
 21
232.7049638903809
 31
0.0
  0
POLYLINE
  5
34075
  8
0
 66
     1
 10
0.0
 20
0.0
 30
0.0
  0
VERTEX
  5
34209
  8
0
 10
184.46568013486831
 20
227.90462379848231
 30
0.0
  0
VERTEX
  5
3420A
  8
0
 10
184.03300482143999
 20
227.84240248067201
 30
0.0
  0
VERTEX
  5
3420B
  8
0
 10
183.2204261894303
 20
227.75419372548291
 30
0.0
  0
VERTEX
  5
3420C
  8
0
 10
182.4440432419924
 20
227.71049770822191
 30
0.0
  0
VERTEX
  5
3420D
  8
0
 10
182.0573468023685
 20
227.7049638903809
 30
0.0
  0
SEQEND
  5
3420E
  8
0
  0
POLYLINE
  5
34076
  8
0
 66
     1
 10
0.0
 20
0.0
 30
0.0
  0
VERTEX
  5
3420F
  8
0
 10
182.0573468023685
 20
227.7049638903809
 30
0.0
  0
VERTEX
  5
34210
  8
0
 10
181.67065036274471
 20
227.71049770822191
 30
0.0
  0
VERTEX
  5
34211
  8
0
 10
180.8942674153063
 20
227.75419372548291
 30
0.0
  0
VERTEX
  5
34212
  8
0
 10
180.08168878329661
 20
227.84240248067201
 30
0.0
  0
VERTEX
  5
34213
  8
0
 10
179.64901346986829
 20
227.90462379848231
 30
0.0
  0
SEQEND
  5
34214
  8
0
  0
POLYLINE
  5
34077
  8
0
 66
     1
 10
0.0
 20
0.0
 30
0.0
  0
VERTEX
  5
34215
  8
0
 10
179.64901346986829
 20
232.50530398227949
 30
0.0
  0
VERTEX
  5
34216
  8
0
 10
180.08168878329661
 20
232.5675253000897
 30
0.0
  0
VERTEX
  5
34217
  8
0
 10
180.8942674153063
 20
232.65573405527891
 30
0.0
  0
VERTEX
  5
34218
  8
0
 10
181.67065036274471
 20
232.69943007253991
 30
0.0
  0
VERTEX
  5
34219
  8
0
 10
182.0573468023685
 20
232.7049638903809
 30
0.0
  0
SEQEND
  5
3421A
  8
0
  0
POLYLINE
  5
34078
  8
0
 66
     1
 10
0.0
 20
0.0
 30
0.0
  0
VERTEX
  5
3421B
  8
0
 10
182.0573468023685
 20
232.7049638903809
 30
0.0
  0
VERTEX
  5
3421C
  8
0
 10
182.4440432419924
 20
232.69943007253991
 30
0.0
  0
VERTEX
  5
3421D
  8
0
 10
183.2204261894303
 20
232.65573405527891
 30
0.0
  0
VERTEX
  5
3421E
  8
0
 10
184.03300482143999
 20
232.5675253000897
 30
0.0
  0
VERTEX
  5
3421F
  8
0
 10
184.46568013486831
 20
232.50530398227949
 30
0.0
  0
SEQEND
  5
34220
  8
0
  0
LINE
  5
34079
  8
0
 10
174.83234680486839
 20
232.7049638903809
 30
0.0
 11
174.83234680486839
 21
227.7049638903809
 31
0.0
  0
POLYLINE
  5
3407A
  8
0
 66
     1
 10
0.0
 20
0.0
 30
0.0
  0
VERTEX
  5
34221
  8
0
 10
177.24068013736809
 20
232.7049638903809
 30
0.0
  0
VERTEX
  5
34222
  8
0
 10
177.62737657699199
 20
232.69943007253991
 30
0.0
  0
VERTEX
  5
34223
  8
0
 10
178.40375952443031
 20
232.65573405527891
 30
0.0
  0
VERTEX
  5
34224
  8
0
 10
179.21633815644009
 20
232.5675253000897
 30
0.0
  0
VERTEX
  5
34225
  8
0
 10
179.64901346986829
 20
232.50530398227949
 30
0.0
  0
SEQEND
  5
34226
  8
0
  0
LINE
  5
3407B
  8
0
 10
179.64901346986829
 20
227.90462379848231
 30
0.0
 11
179.64901346986829
 21
232.50530398227949
 31
0.0
  0
POLYLINE
  5
3407C
  8
0
 66
     1
 10
0.0
 20
0.0
 30
0.0
  0
VERTEX
  5
34227
  8
0
 10
179.64901346986829
 20
227.90462379848231
 30
0.0
  0
VERTEX
  5
34228
  8
0
 10
179.21633815644009
 20
227.84240248067201
 30
0.0
  0
VERTEX
  5
34229
  8
0
 10
178.40375952443031
 20
227.75419372548291
 30
0.0
  0
VERTEX
  5
3422A
  8
0
 10
177.62737657699199
 20
227.71049770822191
 30
0.0
  0
VERTEX
  5
3422B
  8
0
 10
177.24068013736809
 20
227.7049638903809
 30
0.0
  0
SEQEND
  5
3422C
  8
0
  0
POLYLINE
  5
3407D
  8
0
 66
     1
 10
0.0
 20
0.0
 30
0.0
  0
VERTEX
  5
3422D
  8
0
 10
177.24068013736809
 20
227.7049638903809
 30
0.0
  0
VERTEX
  5
3422E
  8
0
 10
176.8539836977443
 20
227.71049770822191
 30
0.0
  0
VERTEX
  5
3422F
  8
0
 10
176.0776007503064
 20
227.75419372548291
 30
0.0
  0
VERTEX
  5
34230
  8
0
 10
175.2650221182966
 20
227.84240248067201
 30
0.0
  0
VERTEX
  5
34231
  8
0
 10
174.83234680486839
 20
227.90462379848231
 30
0.0
  0
SEQEND
  5
34232
  8
0
  0
POLYLINE
  5
3407E
  8
0
 66
     1
 10
0.0
 20
0.0
 30
0.0
  0
VERTEX
  5
34233
  8
0
 10
174.83234680486839
 20
232.50530398227949
 30
0.0
  0
VERTEX
  5
34234
  8
0
 10
175.2650221182966
 20
232.5675253000897
 30
0.0
  0
VERTEX
  5
34235
  8
0
 10
176.0776007503064
 20
232.65573405527891
 30
0.0
  0
VERTEX
  5
34236
  8
0
 10
176.8539836977443
 20
232.69943007253991
 30
0.0
  0
VERTEX
  5
34237
  8
0
 10
177.24068013736809
 20
232.7049638903809
 30
0.0
  0
SEQEND
  5
34238
  8
0
  0
LINE
  5
3407F
  8
3
 10
177.2625134698682
 20
233.7049638903809
 30
0.0
 11
177.26251346986871
 21
232.7049638903809
 31
0.0
  0
LINE
  5
34080
  8
3
 10
182.03551346986839
 20
233.7049638903809
 30
0.0
 11
182.03551346986791
 21
232.7049638903809
 31
0.0
  0
LINE
  5
34081
  8
0
 10
179.64901346986829
 20
96.374906758538614
 30
0.0
 11
174.83234680486839
 21
93.594002962904156
 31
0.0
  0
LINE
  5
34082
  8
0
 10
184.46568013486831
 20
93.594002962904156
 30
0.0
 11
179.64901346986829
 21
96.374906758538614
 31
0.0
  0
LINE
  5
34083
  8
0
 10
174.83234680486839
 20
93.594002962904156
 30
0.0
 11
174.83234680486839
 21
88.03219537163524
 31
0.0
  0
LINE
  5
34084
  8
0
 10
174.83234680486839
 20
88.03219537163524
 30
0.0
 11
179.64901346986829
 21
85.251291576000781
 31
0.0
  0
LINE
  5
34085
  8
0
 10
179.64901346986829
 20
85.251291576000781
 30
0.0
 11
184.46568013486831
 21
88.03219537163524
 31
0.0
  0
LINE
  5
34086
  8
0
 10
184.46568013486831
 20
88.03219537163524
 30
0.0
 11
184.46568013486831
 21
93.594002962904156
 31
0.0
  0
CIRCLE
  5
34087
  8
0
 10
179.64901346986829
 20
90.813099167269698
 30
0.0
 40
4.8166666666666629
  0
LINE
  5
34088
  8
2
 10
208.64901346986841
 20
121.3534134270522
 30
0.0
 11
208.64901346986841
 21
131.81341342705221
 31
0.0
  0
LINE
  5
34089
  8
2
 10
198.64901346986829
 20
131.81341342705221
 30
0.0
 11
198.64901346986829
 21
121.3534134270522
 31
0.0
  0
LINE
  5
3408A
  8
2
 10
217.7556285889932
 20
121.3534134270522
 30
0.0
 11
187.64901346986829
 21
121.3534134270522
 31
0.0
  0
POLYLINE
  5
3408B
  8
2
 66
     1
 10
0.0
 20
0.0
 30
0.0
  0
VERTEX
  5
34239
  8
2
 10
273.86356916321068
 20
94.984454860721414
 30
0.0
  0
VERTEX
  5
3423A
  8
2
 10
273.86910298108069
 20
94.761195570100696
 30
0.0
  0
VERTEX
  5
3423B
  8
2
 10
273.91279899874507
 20
94.312950666063713
 30
0.0
  0
VERTEX
  5
3423C
  8
2
 10
274.00100775449249
 20
93.843808171502744
 30
0.0
  0
VERTEX
  5
3423D
  8
2
 10
274.0632290722051
 20
93.594002962904185
 30
0.0
  0
SEQEND
  5
3423E
  8
2
  0
POLYLINE
  5
3408C
  8
2
 66
     1
 10
0.0
 20
0.0
 30
0.0
  0
VERTEX
  5
3423F
  8
2
 10
274.0632290722051
 20
88.032195371635254
 30
0.0
  0
VERTEX
  5
34240
  8
2
 10
274.00100775449249
 20
87.782390163036695
 30
0.0
  0
VERTEX
  5
34241
  8
2
 10
273.91279899874507
 20
87.313247668475697
 30
0.0
  0
VERTEX
  5
34242
  8
2
 10
273.86910298108069
 20
86.865002764438714
 30
0.0
  0
VERTEX
  5
34243
  8
2
 10
273.86356916321068
 20
86.641743473818039
 30
0.0
  0
SEQEND
  5
34244
  8
2
  0
POLYLINE
  5
3408D
  8
2
 66
     1
 10
0.0
 20
0.0
 30
0.0
  0
VERTEX
  5
34245
  8
2
 10
273.86356916321068
 20
86.641743473818039
 30
0.0
  0
VERTEX
  5
34246
  8
2
 10
273.86910298108069
 20
86.418484183197435
 30
0.0
  0
VERTEX
  5
34247
  8
2
 10
273.91279899874507
 20
85.970239279160467
 30
0.0
  0
VERTEX
  5
34248
  8
2
 10
274.00100775449249
 20
85.501096784599426
 30
0.0
  0
VERTEX
  5
34249
  8
2
 10
274.0632290722051
 20
85.251291576000824
 30
0.0
  0
SEQEND
  5
3424A
  8
2
  0
POLYLINE
  5
3408E
  8
2
 66
     1
 10
0.0
 20
0.0
 30
0.0
  0
VERTEX
  5
3424B
  8
2
 10
309.1639092551095
 20
93.594002962904185
 30
0.0
  0
VERTEX
  5
3424C
  8
2
 10
309.22613057291983
 20
93.843808171583802
 30
0.0
  0
VERTEX
  5
3424D
  8
2
 10
309.31433932810887
 20
94.312950663512353
 30
0.0
  0
VERTEX
  5
3424E
  8
2
 10
309.3580353453699
 20
94.761195567209853
 30
0.0
  0
VERTEX
  5
3424F
  8
2
 10
309.36356916321068
 20
94.984454860721414
 30
0.0
  0
SEQEND
  5
34250
  8
2
  0
POLYLINE
  5
3408F
  8
2
 66
     1
 10
0.0
 20
0.0
 30
0.0
  0
VERTEX
  5
34251
  8
2
 10
309.1639092551095
 20
85.251291576000824
 30
0.0
  0
VERTEX
  5
34252
  8
2
 10
309.22613057291983
 20
85.501096784680428
 30
0.0
  0
VERTEX
  5
34253
  8
2
 10
309.31433932810887
 20
85.970239276608964
 30
0.0
  0
VERTEX
  5
34254
  8
2
 10
309.3580353453699
 20
86.418484180306535
 30
0.0
  0
VERTEX
  5
34255
  8
2
 10
309.36356916321068
 20
86.641743473818039
 30
0.0
  0
SEQEND
  5
34256
  8
2
  0
LINE
  5
34090
  8
0
 10
278.36356916321068
 20
95.253099167269781
 30
0.0
 11
277.86356916321068
 21
95.253099167269781
 31
0.0
  0
LINE
  5
34091
  8
0
 10
277.86356916321068
 20
86.373099167269729
 30
0.0
 11
278.36356916321068
 21
86.373099167269729
 31
0.0
  0
LINE
  5
34092
  8
0
 10
310.36356916321068
 20
93.199599167269682
 30
0.0
 11
309.75006916321081
 21
93.813099167269726
 31
0.0
  0
LINE
  5
34093
  8
0
 10
309.75006916321081
 20
87.813099167269726
 30
0.0
 11
310.36356916321068
 21
88.426599167269714
 31
0.0
  0
LINE
  5
34094
  8
0
 10
309.75006916321081
 20
93.813099167269726
 30
0.0
 11
309.36356916321068
 21
93.813099167269726
 31
0.0
  0
LINE
  5
34095
  8
0
 10
309.36356916321068
 20
87.813099167269726
 30
0.0
 11
309.75006916321081
 21
87.813099167269726
 31
0.0
  0
LINE
  5
34096
  8
0
 10
274.0632290722051
 20
96.374906758538643
 30
0.0
 11
273.86356916321068
 21
95.629765833936318
 31
0.0
  0
LINE
  5
34097
  8
0
 10
273.86356916321068
 20
85.996432500603063
 30
0.0
 11
274.0632290722051
 21
85.251291576000824
 31
0.0
  0
LINE
  5
34099
  8
0
 10
304.3635691632108
 20
85.996432497269709
 30
0.0
 11
304.56322907131198
 21
85.251291576000824
 31
0.0
  0
LINE
  5
3409A
  8
0
 10
309.36356916321068
 20
95.629765837269744
 30
0.0
 11
309.1639092551095
 21
96.374906758538643
 31
0.0
  0
LINE
  5
3409B
  8
0
 10
309.1639092551095
 20
85.251291576000824
 30
0.0
 11
309.36356916321068
 21
85.996432497269709
 31
0.0
  0
LINE
  5
3409C
  8
0
 10
310.36356916321068
 20
88.426599167269714
 30
0.0
 11
310.36356916321068
 21
93.199599167269682
 31
0.0
  0
LINE
  5
3409D
  8
0
 10
309.75006916321081
 20
87.813099167269726
 30
0.0
 11
309.75006916321081
 21
93.813099167269726
 31
0.0
  0
LINE
  5
3409E
  8
0
 10
273.86356916321068
 20
85.996432500603063
 30
0.0
 11
273.86356916321068
 21
95.629765833936318
 31
0.0
  0
POLYLINE
  5
3409F
  8
0
 66
     1
 10
0.0
 20
0.0
 30
0.0
  0
VERTEX
  5
34257
  8
0
 10
274.0632290722051
 20
93.594002962904185
 30
0.0
  0
VERTEX
  5
34258
  8
0
 10
274.00100775449249
 20
93.843808171502744
 30
0.0
  0
VERTEX
  5
34259
  8
0
 10
273.91279899874507
 20
94.312950666063713
 30
0.0
  0
VERTEX
  5
3425A
  8
0
 10
273.86910298108069
 20
94.761195570100696
 30
0.0
  0
VERTEX
  5
3425B
  8
0
 10
273.86356916321068
 20
94.984454860721414
 30
0.0
  0
SEQEND
  5
3425C
  8
0
  0
POLYLINE
  5
340A0
  8
0
 66
     1
 10
0.0
 20
0.0
 30
0.0
  0
VERTEX
  5
3425D
  8
0
 10
273.86356916321068
 20
94.984454860721414
 30
0.0
  0
VERTEX
  5
3425E
  8
0
 10
273.86910298108069
 20
95.207714151342017
 30
0.0
  0
VERTEX
  5
3425F
  8
0
 10
273.91279899874507
 20
95.655959055379
 30
0.0
  0
VERTEX
  5
34260
  8
0
 10
274.00100775449249
 20
96.125101549940084
 30
0.0
  0
VERTEX
  5
34261
  8
0
 10
274.0632290722051
 20
96.374906758538643
 30
0.0
  0
SEQEND
  5
34262
  8
0
  0
LINE
  5
340A1
  8
0
 10
277.86356916321068
 20
96.374906758538643
 30
0.0
 11
274.0632290722051
 21
96.374906758538643
 31
0.0
  0
LINE
  5
340A2
  8
0
 10
277.86356916321068
 20
85.251291576000824
 30
0.0
 11
274.0632290722051
 21
85.251291576000824
 31
0.0
  0
POLYLINE
  5
340A3
  8
0
 66
     1
 10
0.0
 20
0.0
 30
0.0
  0
VERTEX
  5
34263
  8
0
 10
274.0632290722051
 20
85.251291576000824
 30
0.0
  0
VERTEX
  5
34264
  8
0
 10
274.00100775449249
 20
85.501096784599426
 30
0.0
  0
VERTEX
  5
34265
  8
0
 10
273.91279899874507
 20
85.970239279160467
 30
0.0
  0
VERTEX
  5
34266
  8
0
 10
273.86910298108069
 20
86.418484183197435
 30
0.0
  0
VERTEX
  5
34267
  8
0
 10
273.86356916321068
 20
86.641743473818039
 30
0.0
  0
SEQEND
  5
34268
  8
0
  0
POLYLINE
  5
340A4
  8
0
 66
     1
 10
0.0
 20
0.0
 30
0.0
  0
VERTEX
  5
34269
  8
0
 10
273.86356916321068
 20
86.641743473818039
 30
0.0
  0
VERTEX
  5
3426A
  8
0
 10
273.86910298108069
 20
86.865002764438714
 30
0.0
  0
VERTEX
  5
3426B
  8
0
 10
273.91279899874507
 20
87.313247668475697
 30
0.0
  0
VERTEX
  5
3426C
  8
0
 10
274.00100775449249
 20
87.782390163036695
 30
0.0
  0
VERTEX
  5
3426D
  8
0
 10
274.0632290722051
 20
88.032195371635254
 30
0.0
  0
SEQEND
  5
3426E
  8
0
  0
LINE
  5
340A5
  8
0
 10
277.86356916321068
 20
96.374906758538643
 30
0.0
 11
277.86356916321068
 21
85.251291576000824
 31
0.0
  0
LINE
  5
340A6
  8
0
 10
277.86356916321068
 20
88.032195371635254
 30
0.0
 11
274.0632290722051
 21
88.032195371635254
 31
0.0
  0
POLYLINE
  5
340A7
  8
0
 66
     1
 10
0.0
 20
0.0
 30
0.0
  0
VERTEX
  5
3426F
  8
0
 10
274.0632290722051
 20
88.032195371635254
 30
0.0
  0
VERTEX
  5
34270
  8
0
 10
274.00100775449249
 20
88.531805788832443
 30
0.0
  0
VERTEX
  5
34271
  8
0
 10
273.91279899874507
 20
89.470090777954439
 30
0.0
  0
VERTEX
  5
34272
  8
0
 10
273.86910298108069
 20
90.366580586028462
 30
0.0
  0
VERTEX
  5
34273
  8
0
 10
273.86356916321068
 20
90.813099167269726
 30
0.0
  0
SEQEND
  5
34274
  8
0
  0
POLYLINE
  5
340A8
  8
0
 66
     1
 10
0.0
 20
0.0
 30
0.0
  0
VERTEX
  5
34275
  8
0
 10
273.86356916321068
 20
90.813099167269726
 30
0.0
  0
VERTEX
  5
34276
  8
0
 10
273.86910298108069
 20
91.259617748510991
 30
0.0
  0
VERTEX
  5
34277
  8
0
 10
273.91279899874507
 20
92.156107556584999
 30
0.0
  0
VERTEX
  5
34278
  8
0
 10
274.00100775449249
 20
93.094392545707066
 30
0.0
  0
VERTEX
  5
34279
  8
0
 10
274.0632290722051
 20
93.594002962904185
 30
0.0
  0
SEQEND
  5
3427A
  8
0
  0
LINE
  5
340A9
  8
0
 10
277.86356916321068
 20
93.594002962904185
 30
0.0
 11
274.0632290722051
 21
93.594002962904185
 31
0.0
  0
LINE
  5
340AA
  8
0
 10
309.36356916321068
 20
85.996432497269709
 30
0.0
 11
309.36356916321068
 21
95.629765837269744
 31
0.0
  0
POLYLINE
  5
340AB
  8
0
 66
     1
 10
0.0
 20
0.0
 30
0.0
  0
VERTEX
  5
3427B
  8
0
 10
304.56322907131198
 20
85.251291576000824
 30
0.0
  0
VERTEX
  5
3427C
  8
0
 10
304.50100775350171
 20
85.501096784680428
 30
0.0
  0
VERTEX
  5
3427D
  8
0
 10
304.41279899831261
 20
85.970239276608964
 30
0.0
  0
VERTEX
  5
3427E
  8
0
 10
304.36910298105158
 20
86.418484180306535
 30
0.0
  0
VERTEX
  5
3427F
  8
0
 10
304.3635691632108
 20
86.641743473818039
 30
0.0
  0
SEQEND
  5
34280
  8
0
  0
POLYLINE
  5
340AC
  8
0
 66
     1
 10
0.0
 20
0.0
 30
0.0
  0
VERTEX
  5
34281
  8
0
 10
304.3635691632108
 20
86.641743473818039
 30
0.0
  0
VERTEX
  5
34282
  8
0
 10
304.36910298105158
 20
86.865002767329528
 30
0.0
  0
VERTEX
  5
34283
  8
0
 10
304.41279899831261
 20
87.313247671027099
 30
0.0
  0
VERTEX
  5
34284
  8
0
 10
304.50100775350171
 20
87.78239016295565
 30
0.0
  0
VERTEX
  5
34285
  8
0
 10
304.56322907131198
 20
88.032195371635254
 30
0.0
  0
SEQEND
  5
34286
  8
0
  0
POLYLINE
  5
340AD
  8
0
 66
     1
 10
0.0
 20
0.0
 30
0.0
  0
VERTEX
  5
34287
  8
0
 10
309.1639092551095
 20
88.032195371635254
 30
0.0
  0
VERTEX
  5
34288
  8
0
 10
309.22613057291983
 20
87.78239016295565
 30
0.0
  0
VERTEX
  5
34289
  8
0
 10
309.31433932810887
 20
87.313247671027099
 30
0.0
  0
VERTEX
  5
3428A
  8
0
 10
309.3580353453699
 20
86.865002767329528
 30
0.0
  0
VERTEX
  5
3428B
  8
0
 10
309.36356916321068
 20
86.641743473818039
 30
0.0
  0
SEQEND
  5
3428C
  8
0
  0
POLYLINE
  5
340AE
  8
0
 66
     1
 10
0.0
 20
0.0
 30
0.0
  0
VERTEX
  5
3428D
  8
0
 10
309.36356916321068
 20
86.641743473818039
 30
0.0
  0
VERTEX
  5
3428E
  8
0
 10
309.3580353453699
 20
86.418484180306535
 30
0.0
  0
VERTEX
  5
3428F
  8
0
 10
309.31433932810887
 20
85.970239276608964
 30
0.0
  0
VERTEX
  5
34290
  8
0
 10
309.22613057291983
 20
85.501096784680428
 30
0.0
  0
VERTEX
  5
34291
  8
0
 10
309.1639092551095
 20
85.251291576000824
 30
0.0
  0
SEQEND
  5
34292
  8
0
  0
LINE
  5
340AF
  8
0
 10
304.56322907131198
 20
88.032195371635254
 30
0.0
 11
309.1639092551095
 21
88.032195371635254
 31
0.0
  0
POLYLINE
  5
340B0
  8
0
 66
     1
 10
0.0
 20
0.0
 30
0.0
  0
VERTEX
  5
34293
  8
0
 10
304.56322907131198
 20
88.032195371635254
 30
0.0
  0
VERTEX
  5
34294
  8
0
 10
304.50100775350171
 20
88.531805788994504
 30
0.0
  0
VERTEX
  5
34295
  8
0
 10
304.41279899831261
 20
89.470090772851606
 30
0.0
  0
VERTEX
  5
34296
  8
0
 10
304.36910298105158
 20
90.366580580246747
 30
0.0
  0
VERTEX
  5
34297
  8
0
 10
304.3635691632108
 20
90.813099167269726
 30
0.0
  0
SEQEND
  5
34298
  8
0
  0
POLYLINE
  5
340B1
  8
0
 66
     1
 10
0.0
 20
0.0
 30
0.0
  0
VERTEX
  5
34299
  8
0
 10
304.3635691632108
 20
90.813099167269726
 30
0.0
  0
VERTEX
  5
3429A
  8
0
 10
304.36910298105158
 20
91.259617754292705
 30
0.0
  0
VERTEX
  5
3429B
  8
0
 10
304.41279899831261
 20
92.156107561687847
 30
0.0
  0
VERTEX
  5
3429C
  8
0
 10
304.50100775350171
 20
93.094392545544949
 30
0.0
  0
VERTEX
  5
3429D
  8
0
 10
304.56322907131198
 20
93.594002962904185
 30
0.0
  0
SEQEND
  5
3429E
  8
0
  0
POLYLINE
  5
340B2
  8
0
 66
     1
 10
0.0
 20
0.0
 30
0.0
  0
VERTEX
  5
3429F
  8
0
 10
309.1639092551095
 20
93.594002962904185
 30
0.0
  0
VERTEX
  5
342A0
  8
0
 10
309.22613057291983
 20
93.094392545544949
 30
0.0
  0
VERTEX
  5
342A1
  8
0
 10
309.31433932810887
 20
92.156107561687847
 30
0.0
  0
VERTEX
  5
342A2
  8
0
 10
309.3580353453699
 20
91.259617754292705
 30
0.0
  0
VERTEX
  5
342A3
  8
0
 10
309.36356916321068
 20
90.813099167269726
 30
0.0
  0
SEQEND
  5
342A4
  8
0
  0
POLYLINE
  5
340B3
  8
0
 66
     1
 10
0.0
 20
0.0
 30
0.0
  0
VERTEX
  5
342A5
  8
0
 10
309.36356916321068
 20
90.813099167269726
 30
0.0
  0
VERTEX
  5
342A6
  8
0
 10
309.3580353453699
 20
90.366580580246747
 30
0.0
  0
VERTEX
  5
342A7
  8
0
 10
309.31433932810887
 20
89.470090772851606
 30
0.0
  0
VERTEX
  5
342A8
  8
0
 10
309.22613057291983
 20
88.531805788994504
 30
0.0
  0
VERTEX
  5
342A9
  8
0
 10
309.1639092551095
 20
88.032195371635254
 30
0.0
  0
SEQEND
  5
342AA
  8
0
  0
LINE
  5
340B4
  8
0
 10
304.56322907131198
 20
93.594002962904185
 30
0.0
 11
309.1639092551095
 21
93.594002962904185
 31
0.0
  0
POLYLINE
  5
340B5
  8
0
 66
     1
 10
0.0
 20
0.0
 30
0.0
  0
VERTEX
  5
342AB
  8
0
 10
304.56322907131198
 20
93.594002962904185
 30
0.0
  0
VERTEX
  5
342AC
  8
0
 10
304.50100775350211
 20
93.843808171582779
 30
0.0
  0
VERTEX
  5
342AD
  8
0
 10
304.41279899831312
 20
94.312950663509383
 30
0.0
  0
VERTEX
  5
342AE
  8
0
 10
304.36910298105209
 20
94.761195567205206
 30
0.0
  0
VERTEX
  5
342AF
  8
0
 10
304.3635691632108
 20
94.984454860715715
 30
0.0
  0
SEQEND
  5
342B0
  8
0
  0
POLYLINE
  5
340B7
  8
0
 66
     1
 10
0.0
 20
0.0
 30
0.0
  0
VERTEX
  5
342B1
  8
0
 10
309.1639092551095
 20
96.374906758538643
 30
0.0
  0
VERTEX
  5
342B2
  8
0
 10
309.22613057291983
 20
96.125101549859025
 30
0.0
  0
VERTEX
  5
342B3
  8
0
 10
309.31433932810887
 20
95.655959057930474
 30
0.0
  0
VERTEX
  5
342B4
  8
0
 10
309.3580353453699
 20
95.207714154232846
 30
0.0
  0
VERTEX
  5
342B5
  8
0
 10
309.36356916321068
 20
94.984454860721414
 30
0.0
  0
SEQEND
  5
342B6
  8
0
  0
POLYLINE
  5
340B8
  8
0
 66
     1
 10
0.0
 20
0.0
 30
0.0
  0
VERTEX
  5
342B7
  8
0
 10
309.36356916321068
 20
94.984454860721414
 30
0.0
  0
VERTEX
  5
342B8
  8
0
 10
309.3580353453699
 20
94.761195567209853
 30
0.0
  0
VERTEX
  5
342B9
  8
0
 10
309.31433932810887
 20
94.312950663512353
 30
0.0
  0
VERTEX
  5
342BA
  8
0
 10
309.22613057291983
 20
93.843808171583802
 30
0.0
  0
VERTEX
  5
342BB
  8
0
 10
309.1639092551095
 20
93.594002962904185
 30
0.0
  0
SEQEND
  5
342BC
  8
0
  0
LINE
  5
340B9
  8
0
 10
304.56322907131198
 20
96.374906758538586
 30
0.0
 11
309.1639092551095
 21
96.374906758538643
 31
0.0
  0
LINE
  5
340BA
  8
0
 10
304.56322907131198
 20
85.251291576000824
 30
0.0
 11
309.1639092551095
 21
85.251291576000824
 31
0.0
  0
LINE
  5
340BB
  8
3
 10
310.36356916321068
 20
93.199599167269682
 30
0.0
 11
309.36356916321068
 21
93.199599167269696
 31
0.0
  0
LINE
  5
340BC
  8
3
 10
310.36356916321068
 20
88.426599167269714
 30
0.0
 11
309.36356916321068
 21
88.426599167269714
 31
0.0
  0
LINE
  5
340BD
  8
0
 10
304.3635691632108
 20
95.629765837269687
 30
0.0
 11
304.56322907131198
 21
96.374906758538586
 31
0.0
  0
POLYLINE
  5
340BE
  8
0
 66
     1
 10
0.0
 20
0.0
 30
0.0
  0
VERTEX
  5
342BD
  8
0
 10
304.56322907131198
 20
96.374906758538586
 30
0.0
  0
VERTEX
  5
342BE
  8
0
 10
304.50100775350171
 20
96.125101549858982
 30
0.0
  0
VERTEX
  5
342BF
  8
0
 10
304.41279899831261
 20
95.655959057930417
 30
0.0
  0
VERTEX
  5
342C0
  8
0
 10
304.36910298105158
 20
95.207714154232846
 30
0.0
  0
VERTEX
  5
342C1
  8
0
 10
304.3635691632108
 20
94.984454860721357
 30
0.0
  0
SEQEND
  5
342C2
  8
0
  0
POLYLINE
  5
340FE
  8
2
 66
     1
 10
0.0
 20
0.0
 30
0.0
  0
VERTEX
  5
342C3
  8
2
 10
85.43445777652596
 20
94.984454860721414
 30
0.0
  0
VERTEX
  5
342C4
  8
2
 10
85.428923958656014
 20
94.761195570100696
 30
0.0
  0
VERTEX
  5
342C5
  8
2
 10
85.385227940991626
 20
94.312950666063713
 30
0.0
  0
VERTEX
  5
342C6
  8
2
 10
85.297019185244139
 20
93.843808171502744
 30
0.0
  0
VERTEX
  5
342C7
  8
2
 10
85.234797867531597
 20
93.594002962904185
 30
0.0
  0
SEQEND
  5
342C8
  8
2
  0
POLYLINE
  5
340FF
  8
2
 66
     1
 10
0.0
 20
0.0
 30
0.0
  0
VERTEX
  5
342C9
  8
2
 10
85.234797867531597
 20
88.032195371635254
 30
0.0
  0
VERTEX
  5
342CA
  8
2
 10
85.297019185244139
 20
87.782390163036695
 30
0.0
  0
VERTEX
  5
342CB
  8
2
 10
85.385227940991626
 20
87.313247668475697
 30
0.0
  0
VERTEX
  5
342CC
  8
2
 10
85.428923958656014
 20
86.865002764438714
 30
0.0
  0
VERTEX
  5
342CD
  8
2
 10
85.43445777652596
 20
86.641743473818039
 30
0.0
  0
SEQEND
  5
342CE
  8
2
  0
POLYLINE
  5
34100
  8
2
 66
     1
 10
0.0
 20
0.0
 30
0.0
  0
VERTEX
  5
342CF
  8
2
 10
85.43445777652596
 20
86.641743473818039
 30
0.0
  0
VERTEX
  5
342D0
  8
2
 10
85.428923958656014
 20
86.418484183197435
 30
0.0
  0
VERTEX
  5
342D1
  8
2
 10
85.385227940991626
 20
85.970239279160467
 30
0.0
  0
VERTEX
  5
342D2
  8
2
 10
85.297019185244139
 20
85.501096784599426
 30
0.0
  0
VERTEX
  5
342D3
  8
2
 10
85.234797867531597
 20
85.251291576000824
 30
0.0
  0
SEQEND
  5
342D4
  8
2
  0
POLYLINE
  5
34101
  8
2
 66
     1
 10
0.0
 20
0.0
 30
0.0
  0
VERTEX
  5
342D5
  8
2
 10
50.134117684627199
 20
93.594002962904185
 30
0.0
  0
VERTEX
  5
342D6
  8
2
 10
50.071896366816873
 20
93.843808171583802
 30
0.0
  0
VERTEX
  5
342D7
  8
2
 10
49.983687611627829
 20
94.312950663512353
 30
0.0
  0
VERTEX
  5
342D8
  8
2
 10
49.939991594366802
 20
94.761195567209853
 30
0.0
  0
VERTEX
  5
342D9
  8
2
 10
49.93445777652596
 20
94.984454860721414
 30
0.0
  0
SEQEND
  5
342DA
  8
2
  0
POLYLINE
  5
34102
  8
2
 66
     1
 10
0.0
 20
0.0
 30
0.0
  0
VERTEX
  5
342DB
  8
2
 10
50.134117684627199
 20
85.251291576000824
 30
0.0
  0
VERTEX
  5
342DC
  8
2
 10
50.071896366816873
 20
85.501096784680428
 30
0.0
  0
VERTEX
  5
342DD
  8
2
 10
49.983687611627829
 20
85.970239276608964
 30
0.0
  0
VERTEX
  5
342DE
  8
2
 10
49.939991594366802
 20
86.418484180306535
 30
0.0
  0
VERTEX
  5
342DF
  8
2
 10
49.93445777652596
 20
86.641743473818039
 30
0.0
  0
SEQEND
  5
342E0
  8
2
  0
LINE
  5
34103
  8
0
 10
80.934457776525946
 20
95.253099167269781
 30
0.0
 11
81.43445777652596
 21
95.253099167269781
 31
0.0
  0
LINE
  5
34104
  8
0
 10
81.43445777652596
 20
86.373099167269729
 30
0.0
 11
80.934457776525946
 21
86.373099167269729
 31
0.0
  0
LINE
  5
34105
  8
0
 10
48.93445777652596
 20
93.199599167269682
 30
0.0
 11
49.547957776525891
 21
93.813099167269726
 31
0.0
  0
LINE
  5
34106
  8
0
 10
49.547957776525891
 20
87.813099167269726
 30
0.0
 11
48.93445777652596
 21
88.426599167269714
 31
0.0
  0
LINE
  5
34107
  8
0
 10
49.547957776525891
 20
93.813099167269726
 30
0.0
 11
49.93445777652596
 21
93.813099167269726
 31
0.0
  0
LINE
  5
34108
  8
0
 10
49.93445777652596
 20
87.813099167269726
 30
0.0
 11
49.547957776525891
 21
87.813099167269726
 31
0.0
  0
LINE
  5
34109
  8
0
 10
85.234797867531597
 20
96.374906758538643
 30
0.0
 11
85.43445777652596
 21
95.629765833936318
 31
0.0
  0
LINE
  5
3410A
  8
0
 10
85.43445777652596
 20
85.996432500603063
 30
0.0
 11
85.234797867531597
 21
85.251291576000824
 31
0.0
  0
LINE
  5
3410B
  8
0
 10
54.93445777652596
 20
85.996432497269709
 30
0.0
 11
54.734797868424721
 21
85.251291576000824
 31
0.0
  0
LINE
  5
3410C
  8
0
 10
49.93445777652596
 20
95.629765837269744
 30
0.0
 11
50.134117684627199
 21
96.374906758538643
 31
0.0
  0
LINE
  5
3410D
  8
0
 10
50.134117684627199
 20
85.251291576000824
 30
0.0
 11
49.93445777652596
 21
85.996432497269709
 31
0.0
  0
LINE
  5
3410E
  8
0
 10
48.93445777652596
 20
88.426599167269714
 30
0.0
 11
48.93445777652596
 21
93.199599167269682
 31
0.0
  0
LINE
  5
3410F
  8
0
 10
49.547957776525891
 20
87.813099167269726
 30
0.0
 11
49.547957776525891
 21
93.813099167269726
 31
0.0
  0
LINE
  5
34110
  8
0
 10
85.43445777652596
 20
85.996432500603063
 30
0.0
 11
85.43445777652596
 21
95.629765833936318
 31
0.0
  0
POLYLINE
  5
34111
  8
0
 66
     1
 10
0.0
 20
0.0
 30
0.0
  0
VERTEX
  5
342E1
  8
0
 10
85.234797867531597
 20
93.594002962904185
 30
0.0
  0
VERTEX
  5
342E2
  8
0
 10
85.297019185244139
 20
93.843808171502744
 30
0.0
  0
VERTEX
  5
342E3
  8
0
 10
85.385227940991626
 20
94.312950666063713
 30
0.0
  0
VERTEX
  5
342E4
  8
0
 10
85.428923958656014
 20
94.761195570100696
 30
0.0
  0
VERTEX
  5
342E5
  8
0
 10
85.43445777652596
 20
94.984454860721414
 30
0.0
  0
SEQEND
  5
342E6
  8
0
  0
POLYLINE
  5
34112
  8
0
 66
     1
 10
0.0
 20
0.0
 30
0.0
  0
VERTEX
  5
342E7
  8
0
 10
85.43445777652596
 20
94.984454860721414
 30
0.0
  0
VERTEX
  5
342E8
  8
0
 10
85.428923958656014
 20
95.207714151342017
 30
0.0
  0
VERTEX
  5
342E9
  8
0
 10
85.385227940991626
 20
95.655959055379
 30
0.0
  0
VERTEX
  5
342EA
  8
0
 10
85.297019185244139
 20
96.125101549940084
 30
0.0
  0
VERTEX
  5
342EB
  8
0
 10
85.234797867531597
 20
96.374906758538643
 30
0.0
  0
SEQEND
  5
342EC
  8
0
  0
LINE
  5
34113
  8
0
 10
81.43445777652596
 20
96.374906758538643
 30
0.0
 11
85.234797867531597
 21
96.374906758538643
 31
0.0
  0
LINE
  5
34114
  8
0
 10
81.43445777652596
 20
85.251291576000824
 30
0.0
 11
85.234797867531597
 21
85.251291576000824
 31
0.0
  0
POLYLINE
  5
34115
  8
0
 66
     1
 10
0.0
 20
0.0
 30
0.0
  0
VERTEX
  5
342ED
  8
0
 10
85.234797867531597
 20
85.251291576000824
 30
0.0
  0
VERTEX
  5
342EE
  8
0
 10
85.297019185244139
 20
85.501096784599426
 30
0.0
  0
VERTEX
  5
342EF
  8
0
 10
85.385227940991626
 20
85.970239279160467
 30
0.0
  0
VERTEX
  5
342F0
  8
0
 10
85.428923958656014
 20
86.418484183197435
 30
0.0
  0
VERTEX
  5
342F1
  8
0
 10
85.43445777652596
 20
86.641743473818039
 30
0.0
  0
SEQEND
  5
342F2
  8
0
  0
POLYLINE
  5
34116
  8
0
 66
     1
 10
0.0
 20
0.0
 30
0.0
  0
VERTEX
  5
342F3
  8
0
 10
85.43445777652596
 20
86.641743473818039
 30
0.0
  0
VERTEX
  5
342F4
  8
0
 10
85.428923958656014
 20
86.865002764438714
 30
0.0
  0
VERTEX
  5
342F5
  8
0
 10
85.385227940991626
 20
87.313247668475697
 30
0.0
  0
VERTEX
  5
342F6
  8
0
 10
85.297019185244139
 20
87.782390163036695
 30
0.0
  0
VERTEX
  5
342F7
  8
0
 10
85.234797867531597
 20
88.032195371635254
 30
0.0
  0
SEQEND
  5
342F8
  8
0
  0
LINE
  5
34117
  8
0
 10
81.43445777652596
 20
96.374906758538643
 30
0.0
 11
81.43445777652596
 21
85.251291576000824
 31
0.0
  0
LINE
  5
34118
  8
0
 10
81.43445777652596
 20
88.032195371635254
 30
0.0
 11
85.234797867531597
 21
88.032195371635254
 31
0.0
  0
POLYLINE
  5
34119
  8
0
 66
     1
 10
0.0
 20
0.0
 30
0.0
  0
VERTEX
  5
342F9
  8
0
 10
85.234797867531597
 20
88.032195371635254
 30
0.0
  0
VERTEX
  5
342FA
  8
0
 10
85.297019185244139
 20
88.531805788832443
 30
0.0
  0
VERTEX
  5
342FB
  8
0
 10
85.385227940991626
 20
89.470090777954439
 30
0.0
  0
VERTEX
  5
342FC
  8
0
 10
85.428923958656014
 20
90.366580586028462
 30
0.0
  0
VERTEX
  5
342FD
  8
0
 10
85.43445777652596
 20
90.813099167269726
 30
0.0
  0
SEQEND
  5
342FE
  8
0
  0
POLYLINE
  5
3411A
  8
0
 66
     1
 10
0.0
 20
0.0
 30
0.0
  0
VERTEX
  5
342FF
  8
0
 10
85.43445777652596
 20
90.813099167269726
 30
0.0
  0
VERTEX
  5
34300
  8
0
 10
85.428923958656014
 20
91.259617748510991
 30
0.0
  0
VERTEX
  5
34301
  8
0
 10
85.385227940991626
 20
92.156107556584999
 30
0.0
  0
VERTEX
  5
34302
  8
0
 10
85.297019185244139
 20
93.094392545707066
 30
0.0
  0
VERTEX
  5
34303
  8
0
 10
85.234797867531597
 20
93.594002962904185
 30
0.0
  0
SEQEND
  5
34304
  8
0
  0
LINE
  5
3411B
  8
0
 10
81.43445777652596
 20
93.594002962904185
 30
0.0
 11
85.234797867531597
 21
93.594002962904185
 31
0.0
  0
LINE
  5
3411C
  8
0
 10
49.93445777652596
 20
85.996432497269709
 30
0.0
 11
49.93445777652596
 21
95.629765837269744
 31
0.0
  0
POLYLINE
  5
3411D
  8
0
 66
     1
 10
0.0
 20
0.0
 30
0.0
  0
VERTEX
  5
34305
  8
0
 10
54.734797868424721
 20
85.251291576000824
 30
0.0
  0
VERTEX
  5
34306
  8
0
 10
54.79701918623504
 20
85.501096784680428
 30
0.0
  0
VERTEX
  5
34307
  8
0
 10
54.885227941424091
 20
85.970239276608964
 30
0.0
  0
VERTEX
  5
34308
  8
0
 10
54.928923958685118
 20
86.418484180306535
 30
0.0
  0
VERTEX
  5
34309
  8
0
 10
54.93445777652596
 20
86.641743473818039
 30
0.0
  0
SEQEND
  5
3430A
  8
0
  0
POLYLINE
  5
3411E
  8
0
 66
     1
 10
0.0
 20
0.0
 30
0.0
  0
VERTEX
  5
3430B
  8
0
 10
54.93445777652596
 20
86.641743473818039
 30
0.0
  0
VERTEX
  5
3430C
  8
0
 10
54.928923958685118
 20
86.865002767329528
 30
0.0
  0
VERTEX
  5
3430D
  8
0
 10
54.885227941424091
 20
87.313247671027099
 30
0.0
  0
VERTEX
  5
3430E
  8
0
 10
54.79701918623504
 20
87.78239016295565
 30
0.0
  0
VERTEX
  5
3430F
  8
0
 10
54.734797868424721
 20
88.032195371635254
 30
0.0
  0
SEQEND
  5
34310
  8
0
  0
POLYLINE
  5
3411F
  8
0
 66
     1
 10
0.0
 20
0.0
 30
0.0
  0
VERTEX
  5
34311
  8
0
 10
50.134117684627199
 20
88.032195371635254
 30
0.0
  0
VERTEX
  5
34312
  8
0
 10
50.071896366816873
 20
87.78239016295565
 30
0.0
  0
VERTEX
  5
34313
  8
0
 10
49.983687611627829
 20
87.313247671027099
 30
0.0
  0
VERTEX
  5
34314
  8
0
 10
49.939991594366802
 20
86.865002767329528
 30
0.0
  0
VERTEX
  5
34315
  8
0
 10
49.93445777652596
 20
86.641743473818039
 30
0.0
  0
SEQEND
  5
34316
  8
0
  0
POLYLINE
  5
34120
  8
0
 66
     1
 10
0.0
 20
0.0
 30
0.0
  0
VERTEX
  5
34317
  8
0
 10
49.93445777652596
 20
86.641743473818039
 30
0.0
  0
VERTEX
  5
34318
  8
0
 10
49.939991594366802
 20
86.418484180306535
 30
0.0
  0
VERTEX
  5
34319
  8
0
 10
49.983687611627829
 20
85.970239276608964
 30
0.0
  0
VERTEX
  5
3431A
  8
0
 10
50.071896366816873
 20
85.501096784680428
 30
0.0
  0
VERTEX
  5
3431B
  8
0
 10
50.134117684627199
 20
85.251291576000824
 30
0.0
  0
SEQEND
  5
3431C
  8
0
  0
LINE
  5
34121
  8
0
 10
54.734797868424721
 20
88.032195371635254
 30
0.0
 11
50.134117684627199
 21
88.032195371635254
 31
0.0
  0
POLYLINE
  5
34122
  8
0
 66
     1
 10
0.0
 20
0.0
 30
0.0
  0
VERTEX
  5
3431D
  8
0
 10
54.734797868424721
 20
88.032195371635254
 30
0.0
  0
VERTEX
  5
3431E
  8
0
 10
54.79701918623504
 20
88.531805788994504
 30
0.0
  0
VERTEX
  5
3431F
  8
0
 10
54.885227941424091
 20
89.470090772851606
 30
0.0
  0
VERTEX
  5
34320
  8
0
 10
54.928923958685118
 20
90.366580580246747
 30
0.0
  0
VERTEX
  5
34321
  8
0
 10
54.93445777652596
 20
90.813099167269726
 30
0.0
  0
SEQEND
  5
34322
  8
0
  0
POLYLINE
  5
34123
  8
0
 66
     1
 10
0.0
 20
0.0
 30
0.0
  0
VERTEX
  5
34323
  8
0
 10
54.93445777652596
 20
90.813099167269726
 30
0.0
  0
VERTEX
  5
34324
  8
0
 10
54.928923958685118
 20
91.259617754292705
 30
0.0
  0
VERTEX
  5
34325
  8
0
 10
54.885227941424091
 20
92.156107561687847
 30
0.0
  0
VERTEX
  5
34326
  8
0
 10
54.79701918623504
 20
93.094392545544949
 30
0.0
  0
VERTEX
  5
34327
  8
0
 10
54.734797868424721
 20
93.594002962904185
 30
0.0
  0
SEQEND
  5
34328
  8
0
  0
POLYLINE
  5
34124
  8
0
 66
     1
 10
0.0
 20
0.0
 30
0.0
  0
VERTEX
  5
34329
  8
0
 10
50.134117684627199
 20
93.594002962904185
 30
0.0
  0
VERTEX
  5
3432A
  8
0
 10
50.071896366816873
 20
93.094392545544949
 30
0.0
  0
VERTEX
  5
3432B
  8
0
 10
49.983687611627829
 20
92.156107561687847
 30
0.0
  0
VERTEX
  5
3432C
  8
0
 10
49.939991594366802
 20
91.259617754292705
 30
0.0
  0
VERTEX
  5
3432D
  8
0
 10
49.93445777652596
 20
90.813099167269726
 30
0.0
  0
SEQEND
  5
3432E
  8
0
  0
POLYLINE
  5
34125
  8
0
 66
     1
 10
0.0
 20
0.0
 30
0.0
  0
VERTEX
  5
3432F
  8
0
 10
49.93445777652596
 20
90.813099167269726
 30
0.0
  0
VERTEX
  5
34330
  8
0
 10
49.939991594366802
 20
90.366580580246747
 30
0.0
  0
VERTEX
  5
34331
  8
0
 10
49.983687611627829
 20
89.470090772851606
 30
0.0
  0
VERTEX
  5
34332
  8
0
 10
50.071896366816873
 20
88.531805788994504
 30
0.0
  0
VERTEX
  5
34333
  8
0
 10
50.134117684627199
 20
88.032195371635254
 30
0.0
  0
SEQEND
  5
34334
  8
0
  0
LINE
  5
34126
  8
0
 10
54.734797868424721
 20
93.594002962904185
 30
0.0
 11
50.134117684627199
 21
93.594002962904185
 31
0.0
  0
POLYLINE
  5
34127
  8
0
 66
     1
 10
0.0
 20
0.0
 30
0.0
  0
VERTEX
  5
34335
  8
0
 10
54.734797868424721
 20
93.594002962904185
 30
0.0
  0
VERTEX
  5
34336
  8
0
 10
54.797019186234593
 20
93.843808171582779
 30
0.0
  0
VERTEX
  5
34337
  8
0
 10
54.885227941423629
 20
94.312950663509383
 30
0.0
  0
VERTEX
  5
34338
  8
0
 10
54.928923958684663
 20
94.761195567205206
 30
0.0
  0
VERTEX
  5
34339
  8
0
 10
54.93445777652596
 20
94.984454860715715
 30
0.0
  0
SEQEND
  5
3433A
  8
0
  0
POLYLINE
  5
34128
  8
0
 66
     1
 10
0.0
 20
0.0
 30
0.0
  0
VERTEX
  5
3433B
  8
0
 10
50.134117684627199
 20
96.374906758538643
 30
0.0
  0
VERTEX
  5
3433C
  8
0
 10
50.071896366816873
 20
96.125101549859025
 30
0.0
  0
VERTEX
  5
3433D
  8
0
 10
49.983687611627829
 20
95.655959057930474
 30
0.0
  0
VERTEX
  5
3433E
  8
0
 10
49.939991594366802
 20
95.207714154232846
 30
0.0
  0
VERTEX
  5
3433F
  8
0
 10
49.93445777652596
 20
94.984454860721414
 30
0.0
  0
SEQEND
  5
34340
  8
0
  0
POLYLINE
  5
34129
  8
0
 66
     1
 10
0.0
 20
0.0
 30
0.0
  0
VERTEX
  5
34341
  8
0
 10
49.93445777652596
 20
94.984454860721414
 30
0.0
  0
VERTEX
  5
34342
  8
0
 10
49.939991594366802
 20
94.761195567209853
 30
0.0
  0
VERTEX
  5
34343
  8
0
 10
49.983687611627829
 20
94.312950663512353
 30
0.0
  0
VERTEX
  5
34344
  8
0
 10
50.071896366816873
 20
93.843808171583802
 30
0.0
  0
VERTEX
  5
34345
  8
0
 10
50.134117684627199
 20
93.594002962904185
 30
0.0
  0
SEQEND
  5
34346
  8
0
  0
LINE
  5
3412A
  8
0
 10
54.734797868424721
 20
96.374906758538586
 30
0.0
 11
50.134117684627199
 21
96.374906758538643
 31
0.0
  0
LINE
  5
3412B
  8
0
 10
54.734797868424721
 20
85.251291576000824
 30
0.0
 11
50.134117684627199
 21
85.251291576000824
 31
0.0
  0
LINE
  5
3412C
  8
3
 10
48.93445777652596
 20
93.199599167269682
 30
0.0
 11
49.93445777652596
 21
93.199599167269696
 31
0.0
  0
LINE
  5
3412D
  8
3
 10
48.93445777652596
 20
88.426599167269714
 30
0.0
 11
49.93445777652596
 21
88.426599167269714
 31
0.0
  0
LINE
  5
3412E
  8
0
 10
54.93445777652596
 20
95.629765837269687
 30
0.0
 11
54.734797868424721
 21
96.374906758538586
 31
0.0
  0
POLYLINE
  5
3412F
  8
0
 66
     1
 10
0.0
 20
0.0
 30
0.0
  0
VERTEX
  5
34347
  8
0
 10
54.734797868424721
 20
96.374906758538586
 30
0.0
  0
VERTEX
  5
34348
  8
0
 10
54.79701918623504
 20
96.125101549858982
 30
0.0
  0
VERTEX
  5
34349
  8
0
 10
54.885227941424091
 20
95.655959057930417
 30
0.0
  0
VERTEX
  5
3434A
  8
0
 10
54.928923958685118
 20
95.207714154232846
 30
0.0
  0
VERTEX
  5
3434B
  8
0
 10
54.93445777652596
 20
94.984454860721357
 30
0.0
  0
SEQEND
  5
3434C
  8
0
  0
LINE
  5
34130
  8
2
 10
296.36356916321029
 20
121.3534134270522
 30
0.0
 11
296.36356916321029
 21
131.81341342705221
 31
0.0
  0
LINE
  5
34131
  8
2
 10
286.36356916321029
 20
131.81341342705221
 30
0.0
 11
286.36356916321029
 21
121.3534134270522
 31
0.0
  0
LINE
  5
34132
  8
2
 10
305.36356916321029
 20
121.3534134270522
 30
0.0
 11
277.36356916321029
 21
121.3534134270522
 31
0.0
  0
LINE
  5
34133
  8
2
 10
277.36356916321029
 20
121.3534134270522
 30
0.0
 11
277.36356916321029
 21
118.4556216530644
 31
0.0
  0
LINE
  5
34134
  8
2
 10
305.36356916321029
 20
118.4348210802566
 30
0.0
 11
305.36356916321029
 21
121.3534134270522
 31
0.0
  0
TEXT
  5
34190
  8
0
 62
     3
 10
0.0
 20
0.0
 30
0.0
 40
10.0
  1
CAC7-050FBL
  7
STANDARD1
  0
ENDSEC
  0
EOF
