  0
SECTION
  2
HEADER
  9
$ACADVER
  1
AC1009
  9
$INSBASE
 10
82.638099999999994
 20
103.82319099999999
 30
0.0
  9
$EXTMIN
 10
0.0
 20
-1.4802182810368341
 30
0.0
  9
$EXTMAX
 10
253.0
 20
243.0
 30
0.0
  9
$LIMMIN
 10
0.0
 20
0.0
  9
$LIMMAX
 10
375.0
 20
270.0
  9
$ORTHOMODE
 70
     1
  9
$REGENMODE
 70
     1
  9
$FILLMODE
 70
     1
  9
$QTEXTMODE
 70
     0
  9
$MIRRTEXT
 70
     0
  9
$DRAGMODE
 70
     2
  9
$LTSCALE
 40
10.0
  9
$OSMODE
 70
  3071
  9
$ATTMODE
 70
     1
  9
$TEXTSIZE
 40
0.06
  9
$TRACEWID
 40
0.05
  9
$TEXTSTYLE
  7
STANDARD
  9
$CLAYER
  8
0
  9
$CELTYPE
  6
BYLAYER
  9
$CECOLOR
 62
   256
  9
$DIMSCALE
 40
1.0
  9
$DIMASZ
 40
3.0
  9
$DIMEXO
 40
2.0
  9
$DIMDLI
 40
10.0
  9
$DIMRND
 40
0.0
  9
$DIMDLE
 40
0.0
  9
$DIMEXE
 40
2.0
  9
$DIMTP
 40
0.0
  9
$DIMTM
 40
0.0
  9
$DIMTXT
 40
3.0
  9
$DIMCEN
 40
0.0
  9
$DIMTSZ
 40
0.0
  9
$DIMTOL
 70
     0
  9
$DIMLIM
 70
     0
  9
$DIMTIH
 70
     0
  9
$DIMTOH
 70
     0
  9
$DIMSE1
 70
     0
  9
$DIMSE2
 70
     0
  9
$DIMTAD
 70
     1
  9
$DIMZIN
 70
     0
  9
$DIMBLK
  1

  9
$DIMASO
 70
     0
  9
$DIMSHO
 70
     0
  9
$DIMPOST
  1

  9
$DIMAPOST
  1

  9
$DIMALT
 70
     0
  9
$DIMALTD
 70
     2
  9
$DIMALTF
 40
25.399999999999999
  9
$DIMLFAC
 40
1.0
  9
$DIMTOFL
 70
     1
  9
$DIMTVP
 40
1.6000000000000001
  9
$DIMTIX
 70
     1
  9
$DIMSOXD
 70
     0
  9
$DIMSAH
 70
     0
  9
$DIMBLK1
  1

  9
$DIMBLK2
  1

  9
$DIMSTYLE
  2
STANDARD
  9
$DIMCLRD
 70
     0
  9
$DIMCLRE
 70
     0
  9
$DIMCLRT
 70
     0
  9
$DIMTFAC
 40
1.0
  9
$DIMGAP
 40
0.09
  9
$LUNITS
 70
     2
  9
$LUPREC
 70
     4
  9
$SKETCHINC
 40
0.1
  9
$FILLETRAD
 40
0.4
  9
$AUNITS
 70
     0
  9
$AUPREC
 70
     4
  9
$MENU
  1
E:\r13\win\SUPPORT\ACAD
  9
$ELEVATION
 40
0.0
  9
$PELEVATION
 40
0.0
  9
$THICKNESS
 40
0.0
  9
$LIMCHECK
 70
     0
  9
$BLIPMODE
 70
     0
  9
$CHAMFERA
 40
0.0
  9
$CHAMFERB
 40
0.0
  9
$SKPOLY
 70
     0
  9
$TDCREATE
 40
2449840.5909722229
  9
$TDUPDATE
 40
2456598.472333611
  9
$TDINDWG
 40
0.0002629861
  9
$TDUSRTIMER
 40
0.0002629861
  9
$USRTIMER
 70
     1
  9
$ANGBASE
 50
0.0
  9
$ANGDIR
 70
     0
  9
$PDMODE
 70
     0
  9
$PDSIZE
 40
0.0
  9
$PLINEWID
 40
0.0
  9
$COORDS
 70
     1
  9
$SPLFRAME
 70
     0
  9
$SPLINETYPE
 70
     6
  9
$SPLINESEGS
 70
     8
  9
$ATTDIA
 70
     0
  9
$ATTREQ
 70
     1
  9
$HANDLING
 70
     1
  9
$HANDSEED
  5
290
  9
$SURFTAB1
 70
     6
  9
$SURFTAB2
 70
     6
  9
$SURFTYPE
 70
     6
  9
$SURFU
 70
     6
  9
$SURFV
 70
     6
  9
$UCSNAME
  2

  9
$UCSORG
 10
0.0
 20
0.0
 30
0.0
  9
$UCSXDIR
 10
1.0
 20
0.0
 30
0.0
  9
$UCSYDIR
 10
0.0
 20
1.0
 30
0.0
  9
$PUCSNAME
  2

  9
$PUCSORG
 10
0.0
 20
0.0
 30
0.0
  9
$PUCSXDIR
 10
1.0
 20
0.0
 30
0.0
  9
$PUCSYDIR
 10
0.0
 20
1.0
 30
0.0
  9
$USERI1
 70
     3
  9
$USERI2
 70
     1
  9
$USERI3
 70
     0
  9
$USERI4
 70
     0
  9
$USERI5
 70
     0
  9
$USERR1
 40
1.0
  9
$USERR2
 40
3.0
  9
$USERR3
 40
3.0
  9
$USERR4
 40
3.0
  9
$USERR5
 40
10.0
  9
$WORLDVIEW
 70
     1
  9
$SHADEDGE
 70
     3
  9
$SHADEDIF
 70
    70
  9
$TILEMODE
 70
     1
  9
$MAXACTVP
 70
    16
  9
$PLIMCHECK
 70
     0
  9
$PEXTMIN
 10
1.0000000000000000E+020
 20
1.0000000000000000E+020
 30
1.0000000000000000E+020
  9
$PEXTMAX
 10
-1.0000000000000000E+020
 20
-1.0000000000000000E+020
 30
-1.0000000000000000E+020
  9
$PLIMMIN
 10
0.0
 20
0.0
  9
$PLIMMAX
 10
12.0
 20
9.0
  9
$UNITMODE
 70
     0
  9
$VISRETAIN
 70
     0
  9
$PLINEGEN
 70
     0
  9
$PSLTSCALE
 70
     0
  0
ENDSEC
  0
SECTION
  2
TABLES
  0
TABLE
  2
VPORT
 70
     1
  0
VPORT
  2
*ACTIVE
 70
     0
 10
0.0
 20
0.0
 11
1.0
 21
1.0
 12
195.01701172807989
 22
134.25430329196891
 13
0.0
 23
0.0
 14
5.0
 24
5.0
 15
10.0
 25
10.0
 16
0.0
 26
0.0
 36
1.0
 17
0.0
 27
0.0
 37
0.0
 40
273.92629380544389
 41
1.831871345029239
 42
50.0
 43
0.0
 44
0.0
 50
0.0
 51
0.0
 71
     0
 72
   100
 73
     1
 74
     0
 75
     0
 76
     0
 77
     0
 78
     2
  0
ENDTAB
  0
TABLE
  2
LTYPE
 70
     3
  0
LTYPE
  2
CONTINUOUS
 70
     0
  3
Solid Line
 72
    65
 73
     0
 40
0.0
  0
LTYPE
  2
CENTER
 70
     0
  3
____ _ ____ _ ____ _ ____ _ ____ _ ____ _ ____
 72
    65
 73
     4
 40
2.0
 49
1.25
 49
-0.25
 49
0.25
 49
-0.25
  0
LTYPE
  2
PHANTOM2
 70
     0
  3
___ _ _ ___ _ _ ___ _ _ ___ _ _
 72
    65
 73
     6
 40
1.25
 49
0.625
 49
-0.125
 49
0.125
 49
-0.125
 49
0.125
 49
-0.125
  0
ENDTAB
  0
TABLE
  2
LAYER
 70
     3
  0
LAYER
  2
0
 70
     0
 62
     7
  6
CONTINUOUS
  0
LAYER
  2
1
 70
     0
 62
     1
  6
CENTER
  0
LAYER
  2
3
 70
     0
 62
     3
  6
CONTINUOUS
  0
ENDTAB
  0
TABLE
  2
STYLE
 70
     2
  0
STYLE
  2
STANDARD
 70
     0
 40
0.0
 41
1.0
 50
0.0
 71
     0
 42
0.06
  3
TXT
  4
BIGFONT
  0
STYLE
  2
STANDARD1
 70
     0
 40
0.0
 41
1.0
 50
0.0
 71
     0
 42
3.0
  3
txt
  4

  0
ENDTAB
  0
TABLE
  2
VIEW
 70
     0
  0
ENDTAB
  0
TABLE
  2
UCS
 70
     0
  0
ENDTAB
  0
TABLE
  2
APPID
 70
     3
  0
APPID
  2
ACAD
 70
     0
  0
APPID
  2
ACAD_MLEADERVER
 70
     0
  0
APPID
  2
ACAD_NAV_VCDISPLAY
 70
     0
  0
ENDTAB
  0
TABLE
  2
DIMSTYLE
 70
     1
  0
DIMSTYLE
  2
STANDARD
 70
     0
  3

  4

  5

  6

  7

 40
1.0
 41
0.18
 42
0.0625
 43
0.38
 44
0.18
 45
0.0
 46
0.0
 47
0.0
 48
0.0
140
0.18
141
0.09
142
0.0
143
25.399999999999999
144
1.0
145
0.0
146
1.0
147
0.09
 71
     0
 72
     0
 73
     1
 74
     1
 75
     0
 76
     0
 77
     0
 78
     0
170
     0
171
     2
172
     0
173
     0
174
     0
175
     0
176
     0
177
     0
178
     0
  0
ENDTAB
  0
ENDSEC
  0
SECTION
  2
BLOCKS
  0
BLOCK
  8
0
  2
$MODEL_SPACE
 70
     0
 10
0.0
 20
0.0
 30
0.0
  3
$MODEL_SPACE
  1

  0
ENDBLK
  5
14A
  8
0
  0
BLOCK
 67
     1
  8
0
  2
$PAPER_SPACE
 70
     0
 10
0.0
 20
0.0
 30
0.0
  3
$PAPER_SPACE
  1

  0
ENDBLK
  5
148
 67
     1
  8
0
  0
BLOCK
  8
0
  2
STDGX5
 70
     0
 10
0.0
 20
0.0
 30
0.0
  3
STDGX5
  1

  0
ENDBLK
  5
2B
  8
0
  0
ENDSEC
  0
SECTION
  2
ENTITIES
  0
INSERT
  5
37
  8
0
  2
STDGX5
 10
0.0
 20
0.0
 30
0.0
  0
INSERT
  5
41
  8
0
  2
STDGX5
 10
0.0
 20
0.0
 30
0.0
  0
INSERT
  5
42
  8
0
  2
STDGX5
 10
0.0
 20
0.0
 30
0.0
  0
LINE
  5
43
  8
1
 10
175.78460999999999
 20
220.0
 30
0.0
 11
124.21539
 21
220.0
 31
0.0
  0
LINE
  5
44
  8
0
 10
160.39230499999999
 20
202.0
 30
0.0
 11
139.60769500000001
 21
202.0
 31
0.0
  0
LINE
  5
45
  8
0
 10
139.60769500000001
 20
202.0
 30
0.0
 11
129.21539000000001
 21
220.0
 31
0.0
  0
LINE
  5
46
  8
0
 10
129.21539000000001
 20
220.0
 30
0.0
 11
139.60769500000001
 21
238.0
 31
0.0
  0
LINE
  5
47
  8
0
 10
139.60769500000001
 20
238.0
 30
0.0
 11
160.39230499999999
 21
238.0
 31
0.0
  0
LINE
  5
48
  8
0
 10
160.39230499999999
 20
238.0
 30
0.0
 11
170.78460999999999
 21
220.0
 31
0.0
  0
LINE
  5
49
  8
0
 10
170.78460999999999
 20
220.0
 30
0.0
 11
160.39230499999999
 21
202.0
 31
0.0
  0
LINE
  5
4A
  8
1
 10
150.0
 20
243.0
 30
0.0
 11
150.0
 21
197.0
 31
0.0
  0
LINE
  5
4B
  8
1
 10
150.0
 20
40.0
 30
0.0
 11
150.0
 21
180.0
 31
0.0
  0
LINE
  5
4C
  8
0
 10
132.0
 20
145.0
 30
0.0
 11
168.0
 21
145.0
 31
0.0
  0
LINE
  5
4D
  8
0
 10
132.0
 20
171.0
 30
0.0
 11
168.0
 21
171.0
 31
0.0
  0
LINE
  5
4E
  8
0
 10
129.21539000000001
 20
169.39230499999999
 30
0.0
 11
129.21539000000001
 21
146.60769500000001
 31
0.0
  0
LINE
  5
4F
  8
0
 10
139.60769500000001
 20
169.39230499999999
 30
0.0
 11
139.60769500000001
 21
146.60769500000001
 31
0.0
  0
LINE
  5
50
  8
0
 10
160.39230499999999
 20
169.39230499999999
 30
0.0
 11
160.39230499999999
 21
146.60769500000001
 31
0.0
  0
ARC
  5
51
  8
0
 10
150.0
 20
136.60769500000001
 30
0.0
 40
34.392305
 50
72.412045999999989
 51
107.587954
  0
ARC
  5
52
  8
0
 10
134.41154299999999
 20
161.799038
 30
0.0
 40
9.2009619999999988
 50
55.615753000000012
 51
115.615753
  0
ARC
  5
53
  8
0
 10
165.58845700000001
 20
161.799038
 30
0.0
 40
9.2009619999999988
 50
64.384247000000002
 51
124.384247
  0
LINE
  5
54
  8
0
 10
168.0
 20
171.0
 30
0.0
 11
170.78460999999999
 21
169.39230499999999
 31
0.0
  0
LINE
  5
55
  8
0
 10
170.78460999999999
 20
169.39230499999999
 30
0.0
 11
170.78460999999999
 21
146.60769500000001
 31
0.0
  0
LINE
  5
56
  8
0
 10
138.0
 20
48.0
 30
0.0
 11
138.0
 21
139.0
 31
0.0
  0
LINE
  5
57
  8
0
 10
138.0
 20
139.0
 30
0.0
 11
162.0
 21
139.0
 31
0.0
  0
LINE
  5
58
  8
3
 10
139.624
 20
46.375999999999998
 30
0.0
 11
139.624
 21
141.81285099999999
 31
0.0
  0
LINE
  5
59
  8
3
 10
160.376
 20
46.375999999999998
 30
0.0
 11
160.376
 21
141.81285099999999
 31
0.0
  0
LINE
  5
5A
  8
0
 10
162.0
 20
48.0
 30
0.0
 11
162.0
 21
139.0
 31
0.0
  0
CIRCLE
  5
5B
  8
0
 10
150.0
 20
220.0
 30
0.0
 40
18.0
  0
LINE
  5
5C
  8
0
 10
132.0
 20
171.0
 30
0.0
 11
129.21539000000001
 21
169.39230499999999
 31
0.0
  0
ARC
  5
5D
  8
0
 10
226.0
 20
145.16482099999999
 30
0.0
 40
25.835179
 50
69.612826999999996
 51
110.387173
  0
ARC
  5
5E
  8
0
 10
235.0
 20
168.814955
 30
0.0
 40
0.0
 50
110.218301
 51
69.443955000000003
  0
ARC
  5
5F
  8
0
 10
244.0
 20
145.16482099999999
 30
0.0
 40
25.835179
 50
69.612826999999996
 51
110.387173
  0
LINE
  5
60
  8
0
 10
217.0
 20
169.39230499999999
 30
0.0
 11
217.0
 21
146.60769500000001
 31
0.0
  0
LINE
  5
61
  8
0
 10
235.0
 20
169.38168400000001
 30
0.0
 11
235.0
 21
146.61831599999999
 31
0.0
  0
LINE
  5
62
  8
0
 10
253.0
 20
169.39230499999999
 30
0.0
 11
253.0
 21
146.60769500000001
 31
0.0
  0
LINE
  5
63
  8
0
 10
219.78460999999999
 20
171.0
 30
0.0
 11
250.21539000000001
 21
171.0
 31
0.0
  0
LINE
  5
64
  8
0
 10
219.78460999999999
 20
145.0
 30
0.0
 11
250.21539000000001
 21
145.0
 31
0.0
  0
LINE
  5
65
  8
1
 10
235.0
 20
40.0
 30
0.0
 11
235.0
 21
180.0
 31
0.0
  0
LINE
  5
66
  8
0
 10
250.21539000000001
 20
171.0
 30
0.0
 11
253.0
 21
169.39230499999999
 31
0.0
  0
LINE
  5
67
  8
0
 10
219.78460999999999
 20
171.0
 30
0.0
 11
217.0
 21
169.39230499999999
 31
0.0
  0
LINE
  5
68
  8
0
 10
162.0
 20
139.0
 30
0.0
 11
160.05000000000001
 21
142.377499
 31
0.0
  0
LINE
  5
69
  8
0
 10
160.05000000000001
 20
142.377499
 30
0.0
 11
160.05000000000001
 21
144.59999999999999
 31
0.0
  0
ARC
  5
6A
  8
0
 10
160.4499999999999
 20
144.59999999999999
 30
0.0
 40
0.4
 50
90.0
 51
180.0
  0
ARC
  5
6B
  8
0
 10
139.55000000000001
 20
144.59999999999999
 30
0.0
 40
0.4
 50
360.0
 51
90.0
  0
LINE
  5
6C
  8
0
 10
139.94999999999999
 20
142.377499
 30
0.0
 11
139.94999999999999
 21
144.59999999999999
 31
0.0
  0
LINE
  5
6D
  8
0
 10
138.0
 20
139.0
 30
0.0
 11
139.94999999999999
 21
142.377499
 31
0.0
  0
LINE
  5
6E
  8
0
 10
141.0
 20
45.0
 30
0.0
 11
159.0
 21
45.0
 31
0.0
  0
LINE
  5
6F
  8
0
 10
138.0
 20
48.0
 30
0.0
 11
141.0
 21
45.0
 31
0.0
  0
LINE
  5
70
  8
0
 10
159.0
 20
45.0
 30
0.0
 11
162.0
 21
48.0
 31
0.0
  0
LINE
  5
71
  8
0
 10
138.0
 20
48.0
 30
0.0
 11
162.0
 21
48.0
 31
0.0
  0
LINE
  5
72
  8
0
 10
223.0
 20
48.0
 30
0.0
 11
247.0
 21
48.0
 31
0.0
  0
LINE
  5
73
  8
0
 10
244.0
 20
45.0
 30
0.0
 11
247.0
 21
48.0
 31
0.0
  0
LINE
  5
74
  8
0
 10
223.0
 20
48.0
 30
0.0
 11
226.0
 21
45.0
 31
0.0
  0
LINE
  5
75
  8
0
 10
226.0
 20
45.0
 30
0.0
 11
244.0
 21
45.0
 31
0.0
  0
LINE
  5
76
  8
0
 10
223.0
 20
139.0
 30
0.0
 11
224.94999999999999
 21
142.377499
 31
0.0
  0
LINE
  5
77
  8
0
 10
224.94999999999999
 20
142.377499
 30
0.0
 11
224.94999999999999
 21
144.59999999999999
 31
0.0
  0
ARC
  5
78
  8
0
 10
224.55000000000001
 20
144.59999999999999
 30
0.0
 40
0.4
 50
360.0
 51
90.0
  0
ARC
  5
79
  8
0
 10
245.44999999999999
 20
144.59999999999999
 30
0.0
 40
0.4
 50
90.0
 51
180.0
  0
LINE
  5
7A
  8
0
 10
245.05000000000001
 20
142.377499
 30
0.0
 11
245.05000000000001
 21
144.59999999999999
 31
0.0
  0
LINE
  5
7B
  8
0
 10
247.0
 20
139.0
 30
0.0
 11
245.05000000000001
 21
142.377499
 31
0.0
  0
LINE
  5
7C
  8
0
 10
247.0
 20
48.0
 30
0.0
 11
247.0
 21
139.0
 31
0.0
  0
LINE
  5
7D
  8
3
 10
245.376
 20
46.375999999999998
 30
0.0
 11
245.376
 21
141.81285099999999
 31
0.0
  0
LINE
  5
7E
  8
3
 10
224.624
 20
46.375999999999998
 30
0.0
 11
224.624
 21
141.81285099999999
 31
0.0
  0
LINE
  5
7F
  8
0
 10
223.0
 20
139.0
 30
0.0
 11
247.0
 21
139.0
 31
0.0
  0
LINE
  5
80
  8
0
 10
223.0
 20
48.0
 30
0.0
 11
223.0
 21
139.0
 31
0.0
  0
ARC
  5
81
  8
0
 10
134.41154299999999
 20
154.200962
 30
0.0
 40
9.2009619999999988
 50
244.38424699999999
 51
304.38424700000002
  0
ARC
  5
82
  8
0
 10
150.0
 20
179.39230499999999
 30
0.0
 40
34.392305
 50
252.412046
 51
287.58795400000002
  0
LINE
  5
83
  8
0
 10
132.0
 20
145.0
 30
0.0
 11
129.21539000000001
 21
146.60769500000001
 31
0.0
  0
ARC
  5
84
  8
0
 10
165.58845700000001
 20
154.200962
 30
0.0
 40
9.2009619999999988
 50
235.61575300000001
 51
295.61575299999998
  0
LINE
  5
85
  8
0
 10
168.0
 20
145.0
 30
0.0
 11
170.78460999999999
 21
146.60769500000001
 31
0.0
  0
ARC
  5
86
  8
0
 10
226.0
 20
170.83517900000001
 30
0.0
 40
25.835179
 50
249.61282700000001
 51
290.38717300000002
  0
LINE
  5
87
  8
0
 10
219.78460999999999
 20
145.0
 30
0.0
 11
217.0
 21
146.60769500000001
 31
0.0
  0
ARC
  5
88
  8
0
 10
244.0
 20
170.83517900000001
 30
0.0
 40
25.835179
 50
249.61282700000001
 51
290.38717300000002
  0
LINE
  5
89
  8
0
 10
250.21539000000001
 20
145.0
 30
0.0
 11
253.0
 21
146.60769500000001
 31
0.0
  0
ARC
  5
8A
  8
0
 10
150.0
 20
166.59999999999999
 30
0.0
 40
14.0
 50
18.317698
 51
24.924811999999999
  0
LINE
  5
8B
  8
0
 10
137.30393799999999
 20
172.5
 30
0.0
 11
162.69606200000001
 21
172.5
 31
0.0
  0
ARC
  5
8C
  8
0
 10
150.0
 20
166.59999999999999
 30
0.0
 40
14.0
 50
155.075188
 51
161.68230199999999
  0
LINE
  5
8D
  8
0
 10
162.5
 20
173.78399999999999
 30
0.0
 11
162.5
 21
172.5
 31
0.0
  0
LINE
  5
8E
  8
0
 10
151.524
 20
175.0
 30
0.0
 11
150.0
 21
173.476
 31
0.0
  0
LINE
  5
8F
  8
0
 10
153.048
 20
173.476
 30
0.0
 11
151.524
 21
175.0
 31
0.0
  0
LINE
  5
90
  8
0
 10
154.572
 20
175.0
 30
0.0
 11
153.048
 21
173.476
 31
0.0
  0
LINE
  5
91
  8
0
 10
145.428
 20
175.0
 30
0.0
 11
146.952
 21
173.476
 31
0.0
  0
LINE
  5
92
  8
0
 10
146.952
 20
173.476
 30
0.0
 11
148.476
 21
175.0
 31
0.0
  0
LINE
  5
93
  8
0
 10
148.476
 20
175.0
 30
0.0
 11
150.0
 21
173.476
 31
0.0
  0
LINE
  5
94
  8
0
 10
137.5
 20
173.78399999999999
 30
0.0
 11
137.5
 21
172.5
 31
0.0
  0
LINE
  5
95
  8
0
 10
140.85599999999999
 20
173.476
 30
0.0
 11
142.38
 21
175.0
 31
0.0
  0
LINE
  5
96
  8
0
 10
142.38
 20
175.0
 30
0.0
 11
143.904
 21
173.476
 31
0.0
  0
LINE
  5
97
  8
0
 10
143.904
 20
173.476
 30
0.0
 11
145.428
 21
175.0
 31
0.0
  0
LINE
  5
98
  8
0
 10
157.62
 20
175.0
 30
0.0
 11
156.096
 21
173.476
 31
0.0
  0
LINE
  5
99
  8
0
 10
156.096
 20
173.476
 30
0.0
 11
154.572
 21
175.0
 31
0.0
  0
LINE
  5
9A
  8
0
 10
159.14400000000001
 20
173.476
 30
0.0
 11
157.62
 21
175.0
 31
0.0
  0
LINE
  5
9B
  8
0
 10
162.19200000000001
 20
173.476
 30
0.0
 11
160.66800000000001
 21
175.0
 31
0.0
  0
LINE
  5
9C
  8
0
 10
160.66800000000001
 20
175.0
 30
0.0
 11
159.14400000000001
 21
173.476
 31
0.0
  0
LINE
  5
9D
  8
0
 10
162.5
 20
173.78399999999999
 30
0.0
 11
162.19200000000001
 21
173.476
 31
0.0
  0
LINE
  5
9E
  8
0
 10
137.5
 20
173.78399999999999
 30
0.0
 11
137.80799999999999
 21
173.476
 31
0.0
  0
LINE
  5
9F
  8
0
 10
139.33199999999999
 20
175.0
 30
0.0
 11
140.85599999999999
 21
173.476
 31
0.0
  0
LINE
  5
A0
  8
0
 10
137.80799999999999
 20
173.476
 30
0.0
 11
139.33199999999999
 21
175.0
 31
0.0
  0
LINE
  5
A1
  8
0
 10
222.80799999999999
 20
173.476
 30
0.0
 11
224.33199999999999
 21
175.0
 31
0.0
  0
LINE
  5
A2
  8
0
 10
224.33199999999999
 20
175.0
 30
0.0
 11
225.85599999999999
 21
173.476
 31
0.0
  0
LINE
  5
A3
  8
0
 10
222.5
 20
173.78399999999999
 30
0.0
 11
222.80799999999999
 21
173.476
 31
0.0
  0
LINE
  5
A4
  8
0
 10
247.5
 20
173.78399999999999
 30
0.0
 11
247.19200000000001
 21
173.476
 31
0.0
  0
LINE
  5
A5
  8
0
 10
245.66800000000001
 20
175.0
 30
0.0
 11
244.14400000000001
 21
173.476
 31
0.0
  0
LINE
  5
A6
  8
0
 10
247.19200000000001
 20
173.476
 30
0.0
 11
245.66800000000001
 21
175.0
 31
0.0
  0
LINE
  5
A7
  8
0
 10
244.14400000000001
 20
173.476
 30
0.0
 11
242.62
 21
175.0
 31
0.0
  0
LINE
  5
A8
  8
0
 10
241.096
 20
173.476
 30
0.0
 11
239.572
 21
175.0
 31
0.0
  0
LINE
  5
A9
  8
0
 10
242.62
 20
175.0
 30
0.0
 11
241.096
 21
173.476
 31
0.0
  0
LINE
  5
AA
  8
0
 10
228.904
 20
173.476
 30
0.0
 11
230.428
 21
175.0
 31
0.0
  0
LINE
  5
AB
  8
0
 10
227.38
 20
175.0
 30
0.0
 11
228.904
 21
173.476
 31
0.0
  0
LINE
  5
AC
  8
0
 10
225.85599999999999
 20
173.476
 30
0.0
 11
227.38
 21
175.0
 31
0.0
  0
LINE
  5
AD
  8
0
 10
222.5
 20
173.78399999999999
 30
0.0
 11
222.5
 21
172.5
 31
0.0
  0
LINE
  5
AE
  8
0
 10
233.476
 20
175.0
 30
0.0
 11
235.0
 21
173.476
 31
0.0
  0
LINE
  5
AF
  8
0
 10
231.952
 20
173.476
 30
0.0
 11
233.476
 21
175.0
 31
0.0
  0
LINE
  5
B0
  8
0
 10
230.428
 20
175.0
 30
0.0
 11
231.952
 21
173.476
 31
0.0
  0
LINE
  5
B1
  8
0
 10
239.572
 20
175.0
 30
0.0
 11
238.048
 21
173.476
 31
0.0
  0
LINE
  5
B2
  8
0
 10
238.048
 20
173.476
 30
0.0
 11
236.524
 21
175.0
 31
0.0
  0
LINE
  5
B3
  8
0
 10
236.524
 20
175.0
 30
0.0
 11
235.0
 21
173.476
 31
0.0
  0
LINE
  5
B4
  8
0
 10
247.5
 20
173.78399999999999
 30
0.0
 11
247.5
 21
172.5
 31
0.0
  0
ARC
  5
B5
  8
0
 10
235.0
 20
166.59999999999999
 30
0.0
 40
14.0
 50
155.075188
 51
161.68230199999999
  0
LINE
  5
B6
  8
0
 10
222.30393799999999
 20
172.5
 30
0.0
 11
247.69606200000001
 21
172.5
 31
0.0
  0
ARC
  5
B7
  8
0
 10
235.0
 20
166.59999999999999
 30
0.0
 40
14.0
 50
18.317698
 51
24.924811999999999
  0
LINE
  5
B8
  8
3
 10
153.048
 20
207.877307
 30
0.0
 11
153.048
 21
232.122693
 31
0.0
  0
LINE
  5
B9
  8
3
 10
150.0
 20
207.5
 30
0.0
 11
150.0
 21
217.54150000000001
 31
0.0
  0
LINE
  5
BA
  8
3
 10
146.952
 20
207.877307
 30
0.0
 11
146.952
 21
232.122693
 31
0.0
  0
LINE
  5
BB
  8
3
 10
162.122693
 20
223.048
 30
0.0
 11
137.877307
 21
223.048
 31
0.0
  0
LINE
  5
BC
  8
3
 10
162.5
 20
220.0
 30
0.0
 11
152.45849999999999
 21
220.0
 31
0.0
  0
LINE
  5
BD
  8
3
 10
162.122693
 20
216.952
 30
0.0
 11
137.877307
 21
216.952
 31
0.0
  0
LINE
  5
BE
  8
3
 10
160.230459
 20
212.81754100000001
 30
0.0
 11
152.36038199999999
 21
220.68761799999999
 31
0.0
  0
LINE
  5
BF
  8
3
 10
158.83883499999999
 20
211.16116500000001
 30
0.0
 11
151.73842200000001
 21
218.26157799999999
 31
0.0
  0
LINE
  5
C0
  8
3
 10
157.18245899999999
 20
209.769541
 30
0.0
 11
149.31238200000001
 21
217.63961800000001
 31
0.0
  0
LINE
  5
C1
  8
3
 10
161.34466800000001
 20
214.75133199999999
 30
0.0
 11
144.75133199999999
 21
231.34466800000001
 31
0.0
  0
LINE
  5
C2
  8
3
 10
155.24866800000001
 20
208.65533199999999
 30
0.0
 11
138.65533199999999
 21
225.24866800000001
 31
0.0
  0
LINE
  5
C3
  8
3
 10
161.34466800000001
 20
225.24866800000001
 30
0.0
 11
144.75133199999999
 21
208.65533199999999
 31
0.0
  0
LINE
  5
C4
  8
3
 10
160.230459
 20
227.18245899999999
 30
0.0
 11
152.36038199999999
 21
219.31238200000001
 31
0.0
  0
LINE
  5
C5
  8
3
 10
158.83883499999999
 20
228.83883499999999
 30
0.0
 11
151.73842200000001
 21
221.73842200000001
 31
0.0
  0
LINE
  5
C6
  8
3
 10
157.18245899999999
 20
230.230459
 30
0.0
 11
149.31238200000001
 21
222.36038199999999
 31
0.0
  0
LINE
  5
C7
  8
3
 10
155.24866800000001
 20
231.34466800000001
 30
0.0
 11
138.65533199999999
 21
214.75133199999999
 31
0.0
  0
LINE
  5
C8
  8
3
 10
147.54150000000001
 20
220.0
 30
0.0
 11
137.5
 21
220.0
 31
0.0
  0
LINE
  5
C9
  8
3
 10
148.26157799999999
 20
218.26157799999999
 30
0.0
 11
141.16116500000001
 21
211.16116500000001
 31
0.0
  0
LINE
  5
CA
  8
3
 10
150.0
 20
222.45849999999999
 30
0.0
 11
150.0
 21
232.5
 31
0.0
  0
LINE
  5
CB
  8
3
 10
148.26157799999999
 20
221.73842200000001
 30
0.0
 11
141.16116500000001
 21
228.83883499999999
 31
0.0
  0
LINE
  5
CC
  8
3
 10
162.13650999999999
 20
222.99251000000001
 30
0.0
 11
147.00748999999999
 21
207.86349000000001
 31
0.0
  0
LINE
  5
CD
  8
3
 10
160.912781
 20
213.904
 30
0.0
 11
139.087219
 21
213.904
 31
0.0
  0
LINE
  5
CE
  8
3
 10
156.096
 20
230.912781
 30
0.0
 11
156.096
 21
209.087219
 31
0.0
  0
LINE
  5
CF
  8
3
 10
147.00748999999999
 20
232.13650999999999
 30
0.0
 11
162.13650999999999
 21
217.00748999999999
 31
0.0
  0
LINE
  5
D0
  8
3
 10
139.087219
 20
226.096
 30
0.0
 11
160.912781
 21
226.096
 31
0.0
  0
LINE
  5
D1
  8
3
 10
137.8634899999999
 20
217.00748999999999
 30
0.0
 11
152.99251000000001
 21
232.13650999999999
 31
0.0
  0
LINE
  5
D2
  8
3
 10
143.904
 20
209.087219
 30
0.0
 11
143.904
 21
230.912781
 31
0.0
  0
LINE
  5
D3
  8
3
 10
152.99251000000001
 20
207.86349000000001
 30
0.0
 11
137.8634899999999
 21
222.99251000000001
 31
0.0
  0
CIRCLE
  5
D4
  8
3
 10
150.0
 20
220.0
 30
0.0
 40
3.0
  0
CIRCLE
  5
D5
  8
0
 10
150.0
 20
220.0
 30
0.0
 40
2.458499999999999
  0
LINE
  5
D6
  8
3
 10
150.68761799999999
 20
222.36038199999999
 30
0.0
 11
142.81754100000001
 21
230.230459
 31
0.0
  0
LINE
  5
D7
  8
3
 10
147.63961800000001
 20
220.68761799999999
 30
0.0
 11
139.769541
 21
212.81754100000001
 31
0.0
  0
LINE
  5
D8
  8
3
 10
147.63961800000001
 20
219.31238200000001
 30
0.0
 11
139.769541
 21
227.18245899999999
 31
0.0
  0
LINE
  5
D9
  8
3
 10
150.68761799999999
 20
217.63961800000001
 30
0.0
 11
142.81754100000001
 21
209.769541
 31
0.0
  0
CIRCLE
  5
DA
  8
0
 10
150.0
 20
220.0
 30
0.0
 40
12.5
  0
LINE
  5
DB
  8
3
 10
141.47725
 20
229.14400000000001
 30
0.0
 11
158.52275
 21
229.14400000000001
 31
0.0
  0
LINE
  5
DC
  8
3
 10
147.24225899999999
 20
232.19200000000001
 30
0.0
 11
152.75774100000001
 21
232.19200000000001
 31
0.0
  0
LINE
  5
DD
  8
3
 10
137.80799999999999
 20
217.24225899999999
 30
0.0
 11
137.80799999999999
 21
222.75774100000001
 31
0.0
  0
LINE
  5
DE
  8
3
 10
140.85599999999999
 20
211.47725
 30
0.0
 11
140.85599999999999
 21
228.52275
 31
0.0
  0
LINE
  5
DF
  8
3
 10
152.75774100000001
 20
207.80799999999999
 30
0.0
 11
147.24225899999999
 21
207.80799999999999
 31
0.0
  0
LINE
  5
E0
  8
3
 10
158.52275
 20
210.85599999999999
 30
0.0
 11
141.47725
 21
210.85599999999999
 31
0.0
  0
LINE
  5
E1
  8
3
 10
162.19200000000001
 20
222.75774100000001
 30
0.0
 11
162.19200000000001
 21
217.24225899999999
 31
0.0
  0
LINE
  5
E2
  8
3
 10
159.14400000000001
 20
228.52275
 30
0.0
 11
159.14400000000001
 21
211.47725
 31
0.0
  0
LINE
  5
E3
  8
3
 10
162.496296
 20
219.69570400000001
 30
0.0
 11
149.69570400000001
 21
232.496296
 31
0.0
  0
LINE
  5
E4
  8
3
 10
162.098906
 20
223.14109400000001
 30
0.0
 11
153.1410939999999
 21
232.098906
 31
0.0
  0
LINE
  5
E5
  8
3
 10
146.85890599999999
 20
232.098906
 30
0.0
 11
137.901094
 21
223.14109400000001
 31
0.0
  0
LINE
  5
E6
  8
3
 10
150.30429599999999
 20
232.496296
 30
0.0
 11
137.503704
 21
219.69570400000001
 31
0.0
  0
LINE
  5
E7
  8
3
 10
137.901094
 20
216.85890599999999
 30
0.0
 11
146.85890599999999
 21
207.901094
 31
0.0
  0
LINE
  5
E8
  8
3
 10
137.503704
 20
220.30429599999999
 30
0.0
 11
150.30429599999999
 21
207.503704
 31
0.0
  0
LINE
  5
E9
  8
3
 10
153.1410939999999
 20
207.901094
 30
0.0
 11
162.098906
 21
216.85890599999999
 31
0.0
  0
LINE
  5
EA
  8
3
 10
149.69570400000001
 20
207.503704
 30
0.0
 11
162.496296
 21
220.30429599999999
 31
0.0
  0
CIRCLE
  5
EB
  8
0
 10
150.0
 20
220.0
 30
0.0
 40
14.0
  0
TEXT
  5
201
  8
0
 62
     3
 10
0.0
 20
0.0
 30
0.0
 40
5.0
  1
BUH-24100-S
  7
STANDARD1
  0
ENDSEC
  0
EOF
