  0
SECTION
  2
HEADER
  9
$ACADVER
  1
AC1009
  9
$INSBASE
 10
0.0
 20
0.0
 30
0.0
  9
$EXTMIN
 10
0.0
 20
-2.960436562073669
 30
0.0
  9
$EXTMAX
 10
162.34067957799721
 20
95.484774533949476
 30
0.0
  9
$LIMMIN
 10
0.0
 20
0.0
  9
$LIMMAX
 10
187.5
 20
135.0
  9
$ORTHOMODE
 70
     1
  9
$REGENMODE
 70
     1
  9
$FILLMODE
 70
     1
  9
$QTEXTMODE
 70
     0
  9
$MIRRTEXT
 70
     0
  9
$DRAGMODE
 70
     2
  9
$LTSCALE
 40
5.0
  9
$OSMODE
 70
  3071
  9
$ATTMODE
 70
     1
  9
$TEXTSIZE
 40
0.2
  9
$TRACEWID
 40
0.05
  9
$TEXTSTYLE
  7
STANDARD
  9
$CLAYER
  8
0
  9
$CELTYPE
  6
BYLAYER
  9
$CECOLOR
 62
   256
  9
$DIMSCALE
 40
0.5
  9
$DIMASZ
 40
3.0
  9
$DIMEXO
 40
2.0
  9
$DIMDLI
 40
0.38
  9
$DIMRND
 40
0.0
  9
$DIMDLE
 40
0.0
  9
$DIMEXE
 40
2.0
  9
$DIMTP
 40
0.0
  9
$DIMTM
 40
0.0
  9
$DIMTXT
 40
3.0
  9
$DIMCEN
 40
0.0
  9
$DIMTSZ
 40
0.0
  9
$DIMTOL
 70
     0
  9
$DIMLIM
 70
     0
  9
$DIMTIH
 70
     0
  9
$DIMTOH
 70
     0
  9
$DIMSE1
 70
     0
  9
$DIMSE2
 70
     0
  9
$DIMTAD
 70
     1
  9
$DIMZIN
 70
     0
  9
$DIMBLK
  1

  9
$DIMASO
 70
     0
  9
$DIMSHO
 70
     0
  9
$DIMPOST
  1

  9
$DIMAPOST
  1

  9
$DIMALT
 70
     0
  9
$DIMALTD
 70
     2
  9
$DIMALTF
 40
25.399999999999999
  9
$DIMLFAC
 40
1.0
  9
$DIMTOFL
 70
     1
  9
$DIMTVP
 40
1.6000000000000001
  9
$DIMTIX
 70
     1
  9
$DIMSOXD
 70
     0
  9
$DIMSAH
 70
     0
  9
$DIMBLK1
  1

  9
$DIMBLK2
  1

  9
$DIMSTYLE
  2
STANDARD
  9
$DIMCLRD
 70
     0
  9
$DIMCLRE
 70
     0
  9
$DIMCLRT
 70
     0
  9
$DIMTFAC
 40
1.0
  9
$DIMGAP
 40
0.09
  9
$LUNITS
 70
     2
  9
$LUPREC
 70
     4
  9
$SKETCHINC
 40
0.1
  9
$FILLETRAD
 40
1.0
  9
$AUNITS
 70
     0
  9
$AUPREC
 70
     4
  9
$MENU
  1
E:\r13\win\SUPPORT\ACAD
  9
$ELEVATION
 40
0.0
  9
$PELEVATION
 40
0.0
  9
$THICKNESS
 40
0.0
  9
$LIMCHECK
 70
     0
  9
$BLIPMODE
 70
     0
  9
$CHAMFERA
 40
0.0
  9
$CHAMFERB
 40
0.0
  9
$SKPOLY
 70
     0
  9
$TDCREATE
 40
2449839.789016204
  9
$TDUPDATE
 40
2456598.4685362158
  9
$TDINDWG
 40
0.0034746759
  9
$TDUSRTIMER
 40
0.0034746759
  9
$USRTIMER
 70
     1
  9
$ANGBASE
 50
0.0
  9
$ANGDIR
 70
     0
  9
$PDMODE
 70
     0
  9
$PDSIZE
 40
0.0
  9
$PLINEWID
 40
0.0
  9
$COORDS
 70
     1
  9
$SPLFRAME
 70
     0
  9
$SPLINETYPE
 70
     6
  9
$SPLINESEGS
 70
     8
  9
$ATTDIA
 70
     0
  9
$ATTREQ
 70
     1
  9
$HANDLING
 70
     1
  9
$HANDSEED
  5
362
  9
$SURFTAB1
 70
     6
  9
$SURFTAB2
 70
     6
  9
$SURFTYPE
 70
     6
  9
$SURFU
 70
     6
  9
$SURFV
 70
     6
  9
$UCSNAME
  2

  9
$UCSORG
 10
0.0
 20
0.0
 30
0.0
  9
$UCSXDIR
 10
1.0
 20
0.0
 30
0.0
  9
$UCSYDIR
 10
0.0
 20
1.0
 30
0.0
  9
$PUCSNAME
  2

  9
$PUCSORG
 10
0.0
 20
0.0
 30
0.0
  9
$PUCSXDIR
 10
1.0
 20
0.0
 30
0.0
  9
$PUCSYDIR
 10
0.0
 20
1.0
 30
0.0
  9
$USERI1
 70
     0
  9
$USERI2
 70
     1
  9
$USERI3
 70
     1
  9
$USERI4
 70
     0
  9
$USERI5
 70
     0
  9
$USERR1
 40
0.0
  9
$USERR2
 40
0.0
  9
$USERR3
 40
0.0
  9
$USERR4
 40
0.0
  9
$USERR5
 40
0.0
  9
$WORLDVIEW
 70
     1
  9
$SHADEDGE
 70
     3
  9
$SHADEDIF
 70
    70
  9
$TILEMODE
 70
     1
  9
$MAXACTVP
 70
    16
  9
$PLIMCHECK
 70
     0
  9
$PEXTMIN
 10
1.0000000000000000E+020
 20
1.0000000000000000E+020
 30
1.0000000000000000E+020
  9
$PEXTMAX
 10
-1.0000000000000000E+020
 20
-1.0000000000000000E+020
 30
-1.0000000000000000E+020
  9
$PLIMMIN
 10
0.0
 20
0.0
  9
$PLIMMAX
 10
12.0
 20
9.0
  9
$UNITMODE
 70
     0
  9
$VISRETAIN
 70
     0
  9
$PLINEGEN
 70
     0
  9
$PSLTSCALE
 70
     0
  0
ENDSEC
  0
SECTION
  2
TABLES
  0
TABLE
  2
VPORT
 70
     1
  0
VPORT
  2
*ACTIVE
 70
     0
 10
0.0
 20
0.0
 11
1.0
 21
1.0
 12
97.570150770051072
 22
66.014785922033241
 13
0.0
 23
0.0
 14
5.0
 24
5.0
 15
5.0
 25
5.0
 16
0.0
 26
0.0
 36
1.0
 17
0.0
 27
0.0
 37
0.0
 40
139.20783109903601
 41
1.831871345029239
 42
50.0
 43
0.0
 44
0.0
 50
0.0
 51
0.0
 71
     0
 72
   500
 73
     1
 74
     0
 75
     0
 76
     0
 77
     0
 78
     2
  0
ENDTAB
  0
TABLE
  2
LTYPE
 70
     3
  0
LTYPE
  2
CONTINUOUS
 70
     0
  3
Solid Line
 72
    65
 73
     0
 40
0.0
  0
LTYPE
  2
CENTER
 70
     0
  3
____ _ ____ _ ____ _ ____ _ ____ _ ____ _ ____
 72
    65
 73
     4
 40
2.0
 49
1.25
 49
-0.25
 49
0.25
 49
-0.25
  0
LTYPE
  2
PHANTOM2
 70
     0
  3
___ _ _ ___ _ _ ___ _ _ ___ _ _
 72
    65
 73
     6
 40
1.25
 49
0.625
 49
-0.125
 49
0.125
 49
-0.125
 49
0.125
 49
-0.125
  0
ENDTAB
  0
TABLE
  2
LAYER
 70
     3
  0
LAYER
  2
0
 70
     0
 62
     7
  6
CONTINUOUS
  0
LAYER
  2
1
 70
     0
 62
     1
  6
CENTER
  0
LAYER
  2
3
 70
     0
 62
     3
  6
CONTINUOUS
  0
ENDTAB
  0
TABLE
  2
STYLE
 70
     2
  0
STYLE
  2
STANDARD
 70
     0
 40
0.0
 41
1.0
 50
0.0
 71
     0
 42
0.2
  3
TXT
  4
BIGFONT
  0
STYLE
  2
STANDARD1
 70
     0
 40
0.0
 41
1.0
 50
0.0
 71
     0
 42
3.0
  3
txt
  4

  0
ENDTAB
  0
TABLE
  2
VIEW
 70
     1
  0
VIEW
  2
ALL
 70
     0
 40
179.5384664489153
 10
135.0
 20
89.769233224457665
 41
0.0
 11
0.0
 21
0.0
 31
1.0
 12
0.0
 22
0.0
 32
0.0
 42
0.0
 43
0.0
 44
0.0
 50
0.0
 71
     0
  0
ENDTAB
  0
TABLE
  2
UCS
 70
     0
  0
ENDTAB
  0
TABLE
  2
APPID
 70
     3
  0
APPID
  2
ACAD
 70
     0
  0
APPID
  2
ACAD_MLEADERVER
 70
     0
  0
APPID
  2
ACAD_NAV_VCDISPLAY
 70
     0
  0
ENDTAB
  0
TABLE
  2
DIMSTYLE
 70
     1
  0
DIMSTYLE
  2
STANDARD
 70
     0
  3

  4

  5

  6

  7

 40
1.0
 41
0.18
 42
0.0625
 43
0.38
 44
0.18
 45
0.0
 46
0.0
 47
0.0
 48
0.0
140
0.18
141
0.09
142
0.0
143
25.399999999999999
144
1.0
145
0.0
146
1.0
147
0.09
 71
     0
 72
     0
 73
     1
 74
     1
 75
     0
 76
     0
 77
     0
 78
     0
170
     0
171
     2
172
     0
173
     0
174
     0
175
     0
176
     0
177
     0
178
     0
  0
ENDTAB
  0
ENDSEC
  0
SECTION
  2
BLOCKS
  0
BLOCK
  8
0
  2
$MODEL_SPACE
 70
     0
 10
0.0
 20
0.0
 30
0.0
  3
$MODEL_SPACE
  1

  0
ENDBLK
  5
12A
  8
0
  0
BLOCK
 67
     1
  8
0
  2
$PAPER_SPACE
 70
     0
 10
0.0
 20
0.0
 30
0.0
  3
$PAPER_SPACE
  1

  0
ENDBLK
  5
128
 67
     1
  8
0
  0
ENDSEC
  0
SECTION
  2
ENTITIES
  0
ARC
  5
18E
  8
0
 10
39.676195923568812
 20
74.811012455198707
 30
0.0
 40
6.000000000000095
 50
93.970410430100415
 51
230.0295895698963
  0
ARC
  5
18F
  8
0
 10
66.305778379832887
 20
74.81101245519875
 30
0.0
 40
6.000000000000032
 50
309.97041043010859
 51
86.029589569882418
  0
ARC
  5
191
  8
0
 10
36.944449764116293
 20
92.570938480385465
 30
0.0
 40
12.0
 50
281.12936502415363
 51
330.870634975847
  0
ARC
  5
192
  8
0
 10
69.037524539285315
 20
92.570938480385749
 30
0.0
 40
12.0
 50
209.129365024143
 51
258.87063497585513
  0
ARC
  5
193
  8
0
 10
52.990987151700672
 20
84.484774533949476
 30
0.0
 40
6.0
 50
21.97041043012063
 51
158.02958956990051
  0
ARC
  5
194
  8
0
 10
44.761993619606137
 20
59.158536612700303
 30
0.0
 40
6.0000000000000462
 50
165.9704104300987
 51
302.02958956989522
  0
ARC
  5
196
  8
0
 10
27.027144256843091
 20
62.048610587513473
 30
0.0
 40
12.0
 50
353.12936502415369
 51
42.8706349758477
  0
ARC
  5
197
  8
0
 10
61.219980683795441
 20
59.158536612700068
 30
0.0
 40
5.9999999999999583
 50
237.97041043010299
 51
14.02958956989287
  0
ARC
  5
199
  8
0
 10
52.990987151700672
 20
43.184774533949451
 30
0.0
 40
12.0
 50
65.129365024150431
 51
114.8706349758492
  0
ARC
  5
19A
  8
0
 10
78.954830046558484
 20
62.048610587513458
 30
0.0
 40
12.0
 50
137.12936502414971
 51
186.87063497585191
  0
LINE
  5
1C7
  8
0
 10
115.74557159459469
 20
59.984774533949519
 30
0.0
 11
126.0406795779972
 21
59.984774533949462
 31
0.0
  0
LINE
  5
1C8
  8
0
 10
115.74557159459469
 20
80.984774533949476
 30
0.0
 11
126.0406795779972
 21
80.984774533949476
 31
0.0
  0
LINE
  5
1C9
  8
1
 10
95.340679577997264
 20
70.484774533949462
 30
0.0
 11
162.34067957799721
 21
70.484774533949462
 31
0.0
  0
LINE
  5
1CA
  8
3
 10
128.84067957799721
 20
72.799689967895631
 30
0.0
 11
128.15559501194329
 21
73.484774533949519
 31
0.0
  0
LINE
  5
1CB
  8
0
 10
127.34067957799719
 20
70.484774533949505
 30
0.0
 11
127.34067957799719
 21
74.484774533949519
 31
0.0
  0
LINE
  5
1CC
  8
0
 10
128.84067957799721
 20
70.484774533949505
 30
0.0
 11
128.84067957799721
 21
73.484774533949519
 31
0.0
  0
LINE
  5
1CD
  8
0
 10
126.0406795779972
 20
80.984774533949476
 30
0.0
 11
126.0406795779972
 21
59.984774533949462
 31
0.0
  0
LINE
  5
1CE
  8
0
 10
127.0406795779972
 20
60.984774533949462
 30
0.0
 11
127.0406795779972
 21
79.984774533949462
 31
0.0
  0
LINE
  5
1CF
  8
0
 10
157.34067957799721
 20
72.734774533949519
 30
0.0
 11
156.4468643835516
 21
73.484774533949519
 31
0.0
  0
LINE
  5
1D1
  8
3
 10
157.26331637637711
 20
72.799689967895631
 30
0.0
 11
128.84067957799721
 21
72.799689967895631
 31
0.0
  0
LINE
  5
1D2
  8
0
 10
156.4468643835516
 20
67.484774533949519
 30
0.0
 11
127.34067957799719
 21
67.484774533949519
 31
0.0
  0
LINE
  5
1D3
  8
3
 10
157.26331637637719
 20
68.169859100003464
 30
0.0
 11
128.84067957799721
 21
68.169859100003464
 31
0.0
  0
LINE
  5
1D4
  8
0
 10
156.4468643835516
 20
67.484774533949519
 30
0.0
 11
156.4468643835516
 21
73.484774533949476
 31
0.0
  0
LINE
  5
1D5
  8
0
 10
157.34067957799721
 20
68.234774533949519
 30
0.0
 11
156.4468643835516
 21
67.484774533949519
 31
0.0
  0
LINE
  5
1D6
  8
0
 10
157.34067957799721
 20
72.734774533949533
 30
0.0
 11
157.34067957799721
 21
68.234774533949519
 31
0.0
  0
LINE
  5
1D8
  8
0
 10
127.0406795779972
 20
60.984774533949462
 30
0.0
 11
126.0406795779972
 21
59.984774533949462
 31
0.0
  0
LINE
  5
1D9
  8
0
 10
128.84067957799721
 20
70.484774533949505
 30
0.0
 11
128.84067957799721
 21
67.484774533949519
 31
0.0
  0
LINE
  5
1DA
  8
3
 10
128.84067957799721
 20
68.169859100003464
 30
0.0
 11
128.15559501194329
 21
67.484774533949576
 31
0.0
  0
LINE
  5
1DB
  8
0
 10
127.34067957799719
 20
70.484774533949505
 30
0.0
 11
127.34067957799719
 21
66.484774533949519
 31
0.0
  0
LINE
  5
1DC
  8
0
 10
127.34067957799719
 20
66.484774533949519
 30
0.0
 11
127.0406795779972
 21
66.484774533949519
 31
0.0
  0
LINE
  5
1DD
  8
0
 10
156.4468643835516
 20
73.484774533949519
 30
0.0
 11
127.34067957799719
 21
73.484774533949519
 31
0.0
  0
LINE
  5
1DE
  8
0
 10
127.34067957799719
 20
74.484774533949519
 30
0.0
 11
127.0406795779972
 21
74.484774533949519
 31
0.0
  0
LINE
  5
1DF
  8
0
 10
126.0406795779972
 20
80.984774533949476
 30
0.0
 11
127.0406795779972
 21
79.984774533949462
 31
0.0
  0
ARC
  5
1E0
  8
0
 10
151.33940410495941
 20
75.598990107521217
 30
0.0
 40
38.248724526962178
 50
171.03547820135611
 51
191.8282577578733
  0
ARC
  5
1E1
  8
0
 10
63.84195505103505
 20
75.598990107521203
 30
0.0
 40
38.248724526962178
 50
348.1717422421267
 51
10.013498639133919
  0
ARC
  5
1E2
  8
0
 10
174.34067957799721
 20
70.48477453394942
 30
0.0
 40
74.000000000000014
 50
164.9136806744566
 51
192.92333522453711
  0
LINE
  5
1E3
  8
0
 10
115.34067957799719
 20
59.984774533949462
 30
0.0
 11
115.34067957799719
 21
80.984774533949476
 31
0.0
  0
LINE
  5
1E4
  8
0
 10
102.8132242218451
 20
60.613074363078617
 30
0.0
 11
112.3681349341494
 21
60.613074363078617
 31
0.0
  0
LINE
  5
1E5
  8
0
 10
103.1897557938413
 20
53.158536612700011
 30
0.0
 11
113.48482589971741
 21
53.158536612700011
 31
0.0
  0
LINE
  5
1E6
  8
0
 10
102.7193372249253
 20
70.212754659766915
 30
0.0
 11
112.4620219310691
 21
70.212754659766972
 31
0.0
  0
ARC
  5
1E7
  8
0
 10
135.6449173171676
 20
57.008422179168122
 30
0.0
 40
22.554237739170389
 50
165.6881160257804
 51
189.8282043761665
  0
LINE
  5
1E8
  8
0
 10
115.2564977942278
 20
59.588730379358367
 30
0.0
 11
113.9738997000843
 21
53.5545807672911
 31
0.0
  0
ARC
  5
1E9
  8
0
 10
113.48482589971741
 20
53.658536612699997
 30
0.0
 40
0.5
 50
270.0
 51
348.0000000000004
  0
ARC
  5
1EA
  8
0
 10
115.74557159459469
 20
59.484774533949519
 30
0.0
 40
0.5
 50
90.0
 51
168.0000000000004
  0
ARC
  5
1EB
  8
0
 10
102.70129946668899
 20
65.412914511422798
 30
0.0
 40
11.444548245645329
 50
345.68815427732312
 51
11.828300728878119
  0
ARC
  5
1EC
  8
0
 10
79.536441838826875
 20
57.008422179168107
 30
0.0
 40
22.554237739170389
 50
354.7062825604803
 51
14.311883974219599
  0
ARC
  5
1ED
  8
0
 10
103.1897557938413
 20
54.158536612699997
 30
0.0
 40
1.0
 50
192.92333522453711
 51
270.0
  0
ARC
  5
1EE
  8
0
 10
112.48005968930551
 20
65.412914511422798
 30
0.0
 40
11.444548245645329
 50
168.17169927112181
 51
194.31184572267679
  0
LINE
  5
1EF
  8
0
 10
103.17111045893721
 20
86.729540811348841
 30
0.0
 11
112.8190752869771
 21
86.729540811348841
 31
0.0
  0
LINE
  5
1F0
  8
0
 10
103.8566388311727
 20
90.484774533949235
 30
0.0
 11
112.91650022553451
 21
90.484774533949235
 31
0.0
  0
LINE
  5
1F1
  8
0
 10
102.7450025222207
 20
80.796612106862824
 30
0.0
 11
112.4363566337737
 21
80.796612106862824
 31
0.0
  0
ARC
  5
1F2
  8
0
 10
89.318420028580746
 20
85.382784661187429
 30
0.0
 40
24.53921302214642
 50
351.03547786899151
 51
12.00000143696783
  0
LINE
  5
1F3
  8
0
 10
115.2564977942278
 20
81.380818688540614
 30
0.0
 11
113.4055740259014
 21
90.088730379358125
 31
0.0
  0
ARC
  5
1F4
  8
0
 10
115.74557159459469
 20
81.484774533949462
 30
0.0
 40
0.5
 50
192.0000000000004
 51
270.0
  0
ARC
  5
1F5
  8
0
 10
112.91650022553451
 20
89.984774533949235
 30
0.0
 40
0.5
 50
12.00000000000043
 51
90.0
  0
ARC
  5
1F6
  8
0
 10
105.2661711335131
 20
82.913264576862275
 30
0.0
 40
3.816276234486601
 50
169.79998472646599
 51
190.01356226576189
  0
ARC
  5
1F7
  8
0
 10
103.8566388311727
 20
89.484774533949235
 30
0.0
 40
1.0
 50
90.0
 51
164.9136806744566
  0
LINE
  5
1F9
  8
1
 10
52.990987151700672
 20
95.484774533949476
 30
0.0
 11
52.990987151700672
 21
45.485774533949481
 31
0.0
  0
LINE
  5
1FA
  8
1
 10
77.990487151700677
 20
70.485274533949479
 30
0.0
 11
27.991487151700682
 21
70.485274533949479
 31
0.0
  0
TEXT
  5
2D1
  8
0
 62
     3
 10
0.0
 20
0.0
 30
0.0
 40
10.0
  1
BTK40AX30
  7
STANDARD1
  0
ENDSEC
  0
EOF
