  0
SECTION
  2
HEADER
  9
$ACADVER
  1
AC1009
  9
$INSBASE
 10
0.0
 20
0.0
 30
0.0
  9
$EXTMIN
 10
0.0
 20
-2.960436562073669
 30
0.0
  9
$EXTMAX
 10
138.37398249045609
 20
86.288480415435274
 30
0.0
  9
$LIMMIN
 10
0.0
 20
0.0
  9
$LIMMAX
 10
187.5
 20
135.0
  9
$ORTHOMODE
 70
     1
  9
$REGENMODE
 70
     1
  9
$FILLMODE
 70
     1
  9
$QTEXTMODE
 70
     0
  9
$MIRRTEXT
 70
     0
  9
$DRAGMODE
 70
     2
  9
$LTSCALE
 40
5.0
  9
$OSMODE
 70
  3071
  9
$ATTMODE
 70
     1
  9
$TEXTSIZE
 40
4.000000000000048
  9
$TRACEWID
 40
0.05
  9
$TEXTSTYLE
  7
STANDARD
  9
$CLAYER
  8
0
  9
$CELTYPE
  6
BYLAYER
  9
$CECOLOR
 62
   256
  9
$DIMSCALE
 40
0.5
  9
$DIMASZ
 40
3.0
  9
$DIMEXO
 40
2.0
  9
$DIMDLI
 40
0.38
  9
$DIMRND
 40
0.0
  9
$DIMDLE
 40
0.0
  9
$DIMEXE
 40
2.0
  9
$DIMTP
 40
0.0
  9
$DIMTM
 40
0.0
  9
$DIMTXT
 40
3.2000000000000002
  9
$DIMCEN
 40
0.09
  9
$DIMTSZ
 40
0.0
  9
$DIMTOL
 70
     0
  9
$DIMLIM
 70
     0
  9
$DIMTIH
 70
     0
  9
$DIMTOH
 70
     0
  9
$DIMSE1
 70
     0
  9
$DIMSE2
 70
     0
  9
$DIMTAD
 70
     1
  9
$DIMZIN
 70
     0
  9
$DIMBLK
  1

  9
$DIMASO
 70
     1
  9
$DIMSHO
 70
     0
  9
$DIMPOST
  1

  9
$DIMAPOST
  1

  9
$DIMALT
 70
     0
  9
$DIMALTD
 70
     2
  9
$DIMALTF
 40
25.399999999999999
  9
$DIMLFAC
 40
1.0
  9
$DIMTOFL
 70
     0
  9
$DIMTVP
 40
1.6000000000000001
  9
$DIMTIX
 70
     1
  9
$DIMSOXD
 70
     0
  9
$DIMSAH
 70
     0
  9
$DIMBLK1
  1

  9
$DIMBLK2
  1

  9
$DIMSTYLE
  2
STANDARD
  9
$DIMCLRD
 70
     0
  9
$DIMCLRE
 70
     0
  9
$DIMCLRT
 70
     0
  9
$DIMTFAC
 40
1.0
  9
$DIMGAP
 40
0.09
  9
$LUNITS
 70
     2
  9
$LUPREC
 70
     4
  9
$SKETCHINC
 40
0.1
  9
$FILLETRAD
 40
1.8999999999999999
  9
$AUNITS
 70
     0
  9
$AUPREC
 70
     0
  9
$MENU
  1
E:\r13\win\SUPPORT\ACAD
  9
$ELEVATION
 40
0.0
  9
$PELEVATION
 40
0.0
  9
$THICKNESS
 40
0.0
  9
$LIMCHECK
 70
     0
  9
$BLIPMODE
 70
     0
  9
$CHAMFERA
 40
0.0
  9
$CHAMFERB
 40
0.0
  9
$SKPOLY
 70
     0
  9
$TDCREATE
 40
2451582.704620949
  9
$TDUPDATE
 40
2456598.4680563309
  9
$TDINDWG
 40
0.0001960301
  9
$TDUSRTIMER
 40
0.0001960301
  9
$USRTIMER
 70
     1
  9
$ANGBASE
 50
0.0
  9
$ANGDIR
 70
     0
  9
$PDMODE
 70
     0
  9
$PDSIZE
 40
0.0
  9
$PLINEWID
 40
0.0
  9
$COORDS
 70
     1
  9
$SPLFRAME
 70
     0
  9
$SPLINETYPE
 70
     6
  9
$SPLINESEGS
 70
     8
  9
$ATTDIA
 70
     0
  9
$ATTREQ
 70
     1
  9
$HANDLING
 70
     1
  9
$HANDSEED
  5
77D
  9
$SURFTAB1
 70
     6
  9
$SURFTAB2
 70
     6
  9
$SURFTYPE
 70
     6
  9
$SURFU
 70
     6
  9
$SURFV
 70
     6
  9
$UCSNAME
  2

  9
$UCSORG
 10
0.0
 20
0.0
 30
0.0
  9
$UCSXDIR
 10
1.0
 20
0.0
 30
0.0
  9
$UCSYDIR
 10
0.0
 20
1.0
 30
0.0
  9
$PUCSNAME
  2

  9
$PUCSORG
 10
0.0
 20
0.0
 30
0.0
  9
$PUCSXDIR
 10
1.0
 20
0.0
 30
0.0
  9
$PUCSYDIR
 10
0.0
 20
1.0
 30
0.0
  9
$USERI1
 70
     0
  9
$USERI2
 70
     1
  9
$USERI3
 70
     1
  9
$USERI4
 70
     0
  9
$USERI5
 70
     0
  9
$USERR1
 40
0.0
  9
$USERR2
 40
0.0
  9
$USERR3
 40
0.0
  9
$USERR4
 40
0.0
  9
$USERR5
 40
0.0
  9
$WORLDVIEW
 70
     1
  9
$SHADEDGE
 70
     3
  9
$SHADEDIF
 70
    70
  9
$TILEMODE
 70
     1
  9
$MAXACTVP
 70
    16
  9
$PLIMCHECK
 70
     0
  9
$PEXTMIN
 10
1.0000000000000000E+020
 20
1.0000000000000000E+020
 30
1.0000000000000000E+020
  9
$PEXTMAX
 10
-1.0000000000000000E+020
 20
-1.0000000000000000E+020
 30
-1.0000000000000000E+020
  9
$PLIMMIN
 10
0.0
 20
0.0
  9
$PLIMMAX
 10
12.0
 20
9.0
  9
$UNITMODE
 70
     0
  9
$VISRETAIN
 70
     0
  9
$PLINEGEN
 70
     0
  9
$PSLTSCALE
 70
     0
  0
ENDSEC
  0
SECTION
  2
TABLES
  0
TABLE
  2
VPORT
 70
     1
  0
VPORT
  2
*ACTIVE
 70
     0
 10
0.0
 20
0.0
 11
1.0
 21
1.0
 12
97.570150770051072
 22
66.014785922033241
 13
0.0
 23
0.0
 14
5.0
 24
5.0
 15
5.0
 25
5.0
 16
0.0
 26
0.0
 36
1.0
 17
0.0
 27
0.0
 37
0.0
 40
139.20783109903601
 41
1.831871345029239
 42
50.0
 43
0.0
 44
0.0
 50
0.0
 51
0.0
 71
     0
 72
   500
 73
     1
 74
     0
 75
     0
 76
     0
 77
     0
 78
     2
  0
ENDTAB
  0
TABLE
  2
LTYPE
 70
     3
  0
LTYPE
  2
CONTINUOUS
 70
     0
  3
Solid Line
 72
    65
 73
     0
 40
0.0
  0
LTYPE
  2
CENTER
 70
     0
  3
____ _ ____ _ ____ _ ____ _ ____ _ ____ _ ____
 72
    65
 73
     4
 40
2.0
 49
1.25
 49
-0.25
 49
0.25
 49
-0.25
  0
LTYPE
  2
PHANTOM2
 70
     0
  3
___ _ _ ___ _ _ ___ _ _ ___ _ _
 72
    65
 73
     6
 40
1.25
 49
0.625
 49
-0.125
 49
0.125
 49
-0.125
 49
0.125
 49
-0.125
  0
ENDTAB
  0
TABLE
  2
LAYER
 70
     3
  0
LAYER
  2
0
 70
     0
 62
     7
  6
CONTINUOUS
  0
LAYER
  2
1
 70
     0
 62
     1
  6
CENTER
  0
LAYER
  2
3
 70
     0
 62
     3
  6
CONTINUOUS
  0
ENDTAB
  0
TABLE
  2
STYLE
 70
     2
  0
STYLE
  2
STANDARD
 70
     0
 40
0.0
 41
1.0
 50
0.0
 71
     0
 42
4.000000000000048
  3
TXT
  4
BIGFONT
  0
STYLE
  2
STANDARD1
 70
     0
 40
0.0
 41
1.0
 50
0.0
 71
     0
 42
3.0
  3
txt
  4

  0
ENDTAB
  0
TABLE
  2
VIEW
 70
     1
  0
VIEW
  2
ALL
 70
     0
 40
135.0
 10
110.4957983193277
 20
67.5
 41
0.0
 11
0.0
 21
0.0
 31
1.0
 12
0.0
 22
0.0
 32
0.0
 42
0.0
 43
0.0
 44
0.0
 50
0.0
 71
     0
  0
ENDTAB
  0
TABLE
  2
UCS
 70
     0
  0
ENDTAB
  0
TABLE
  2
APPID
 70
     3
  0
APPID
  2
ACAD
 70
     0
  0
APPID
  2
ACAD_MLEADERVER
 70
     0
  0
APPID
  2
ACAD_NAV_VCDISPLAY
 70
     0
  0
ENDTAB
  0
TABLE
  2
DIMSTYLE
 70
     1
  0
DIMSTYLE
  2
STANDARD
 70
     0
  3

  4

  5

  6

  7

 40
1.0
 41
0.18
 42
0.0625
 43
0.38
 44
0.18
 45
0.0
 46
0.0
 47
0.0
 48
0.0
140
0.18
141
0.09
142
0.0
143
25.399999999999999
144
1.0
145
0.0
146
1.0
147
0.09
 71
     0
 72
     0
 73
     1
 74
     1
 75
     0
 76
     0
 77
     0
 78
     0
170
     0
171
     2
172
     0
173
     0
174
     0
175
     0
176
     0
177
     0
178
     0
  0
ENDTAB
  0
ENDSEC
  0
SECTION
  2
BLOCKS
  0
BLOCK
  8
0
  2
$MODEL_SPACE
 70
     0
 10
0.0
 20
0.0
 30
0.0
  3
$MODEL_SPACE
  1

  0
ENDBLK
  5
5FE
  8
0
  0
BLOCK
 67
     1
  8
0
  2
$PAPER_SPACE
 70
     0
 10
0.0
 20
0.0
 30
0.0
  3
$PAPER_SPACE
  1

  0
ENDBLK
  5
5FC
 67
     1
  8
0
  0
BLOCK
  8
0
  2
STDGX5
 70
     0
 10
0.0
 20
0.0
 30
0.0
  3
STDGX5
  1

  0
ENDBLK
  5
3DA
  8
0
  0
ENDSEC
  0
SECTION
  2
ENTITIES
  0
INSERT
  5
404
  8
0
  2
STDGX5
 10
0.0
 20
0.0
 30
0.0
 41
0.125
 42
0.125
 43
0.125
  0
INSERT
  5
405
  8
0
  2
STDGX5
 10
0.0
 20
0.0
 30
0.0
 41
0.125
 42
0.125
 43
0.125
  0
INSERT
  5
406
  8
0
  2
STDGX5
 10
34.375
 20
0.0
 30
0.0
 41
0.125
 42
0.125
 43
0.125
  0
INSERT
  5
407
  8
0
  2
STDGX5
 10
34.375
 20
0.0
 30
0.0
 41
0.125
 42
0.125
 43
0.125
  0
INSERT
  5
408
  8
0
  2
STDGX5
 10
0.0
 20
0.0
 30
0.0
 41
0.25
 42
0.25
 43
0.25
  0
INSERT
  5
409
  8
0
  2
STDGX5
 10
0.0
 20
0.0
 30
0.0
 41
0.25
 42
0.25
 43
0.25
  0
INSERT
  5
40A
  8
0
  2
STDGX5
 10
68.75
 20
0.0
 30
0.0
 41
0.25
 42
0.25
 43
0.25
  0
INSERT
  5
40B
  8
0
  2
STDGX5
 10
68.75
 20
0.0
 30
0.0
 41
0.25
 42
0.25
 43
0.25
  0
INSERT
  5
40D
  8
0
  2
STDGX5
 10
-17.5
 20
-50.0
 30
0.0
 41
0.1666666666666666
 42
0.1666666666666666
 43
0.1666666666666666
  0
INSERT
  5
40E
  8
0
  2
STDGX5
 10
-17.5
 20
-50.0
 30
0.0
 41
0.1666666666666666
 42
0.1666666666666666
 43
0.1666666666666666
  0
INSERT
  5
40F
  8
0
  2
STDGX5
 10
28.333333333333321
 20
-50.0
 30
0.0
 41
0.1666666666666666
 42
0.1666666666666666
 43
0.1666666666666666
  0
INSERT
  5
410
  8
0
  2
STDGX5
 10
28.333333333333321
 20
-50.0
 30
0.0
 41
0.1666666666666666
 42
0.1666666666666666
 43
0.1666666666666666
  0
INSERT
  5
412
  8
0
  2
STDGX5
 10
-17.5
 20
-50.0
 30
0.0
 41
0.1666666666666666
 42
0.1666666666666666
 43
0.1666666666666666
  0
INSERT
  5
413
  8
0
  2
STDGX5
 10
-17.5
 20
-50.0
 30
0.0
 41
0.1666666666666666
 42
0.1666666666666666
 43
0.1666666666666666
  0
INSERT
  5
414
  8
0
  2
STDGX5
 10
28.333333333333329
 20
-50.0
 30
0.0
 41
0.1666666666666666
 42
0.1666666666666666
 43
0.1666666666666666
  0
INSERT
  5
415
  8
0
  2
STDGX5
 10
28.333333333333329
 20
-50.0
 30
0.0
 41
0.1666666666666666
 42
0.1666666666666666
 43
0.1666666666666666
  0
INSERT
  5
416
  8
0
  2
STDGX5
 10
0.0
 20
0.0
 30
0.0
 41
0.5
 42
0.5
 43
0.5
  0
INSERT
  5
417
  8
0
  2
STDGX5
 10
0.0
 20
0.0
 30
0.0
 41
0.5
 42
0.5
 43
0.5
  0
INSERT
  5
418
  8
0
  2
STDGX5
 10
137.5
 20
0.0
 30
0.0
 41
0.5
 42
0.5
 43
0.5
  0
INSERT
  5
419
  8
0
  2
STDGX5
 10
137.5
 20
0.0
 30
0.0
 41
0.5
 42
0.5
 43
0.5
  0
ARC
  5
584
  8
0
 10
82.945644217002837
 20
65.777134196735133
 30
0.0
 40
9.765625
 50
139.07950977749249
 51
184.9204902225041
  0
ARC
  5
585
  8
0
 10
45.943601629894602
 20
65.777134196735133
 30
0.0
 40
9.765625
 50
355.07950977749812
 51
40.920490222502799
  0
LINE
  5
586
  8
1
 10
64.444622923448719
 20
86.288480415435274
 30
0.0
 11
64.444622923448719
 21
57.288480415435266
 31
0.0
  0
ARC
  5
588
  8
0
 10
64.444622923448719
 20
52.335355415435302
 30
0.0
 40
9.765625
 50
67.079509777499695
 51
112.9204902224982
  0
ARC
  5
589
  8
0
 10
59.163739797383577
 20
64.519968356597943
 30
0.0
 40
3.5156250000000391
 50
173.14628298672699
 51
294.8537170132787
  0
ARC
  5
58A
  8
0
 10
69.725506049513911
 20
64.519968356597829
 30
0.0
 40
3.515625000000008
 50
245.14628298672301
 51
6.8537170132655039
  0
LINE
  5
58B
  8
1
 10
49.944622923448719
 20
71.788480415435245
 30
0.0
 11
78.944622923448719
 21
71.788480415435302
 31
0.0
  0
ARC
  5
58C
  8
0
 10
64.444622923448719
 20
80.772855415435288
 30
0.0
 40
3.515625
 50
29.146282986801928
 51
150.85371701324021
  0
ARC
  5
58D
  8
0
 10
53.0103629374467
 20
87.526389134135414
 30
0.0
 40
9.765625
 50
283.07950977748919
 51
328.92049022251302
  0
ARC
  5
58E
  8
0
 10
55.899974534859382
 20
74.564804974272704
 30
0.0
 40
3.5156249999999898
 50
101.1462829867545
 51
222.8537170132692
  0
ARC
  5
58F
  8
0
 10
75.878882909450795
 20
87.526389134135528
 30
0.0
 40
9.765625
 50
211.0795097774718
 51
256.92049022252741
  0
ARC
  5
590
  8
0
 10
72.989271312037999
 20
74.564804974272661
 30
0.0
 40
3.5156249999999858
 50
317.14628298674671
 51
78.853717013196245
  0
LINE
  5
591
  8
0
 10
136.37398249045609
 20
70.038480415435288
 30
0.0
 11
135.48016729601039
 21
69.288480415435274
 31
0.0
  0
LINE
  5
592
  8
0
 10
135.48016729601039
 20
69.288480415435274
 30
0.0
 11
135.48016729601039
 21
71.788480415435274
 31
0.0
  0
LINE
  5
593
  8
3
 10
127.8739824904561
 20
69.973564981489233
 30
0.0
 11
127.1888979244021
 21
69.288480415435345
 31
0.0
  0
LINE
  5
594
  8
0
 10
127.8739824904561
 20
71.788480415435274
 30
0.0
 11
127.8739824904561
 21
69.288480415435274
 31
0.0
  0
LINE
  5
595
  8
0
 10
126.3739824904561
 20
71.788480415435274
 30
0.0
 11
126.3739824904561
 21
68.288480415435288
 31
0.0
  0
ARC
  5
596
  8
0
 10
108.1737194623235
 20
68.556615881520585
 30
0.0
 40
8.7309789198253487
 50
341.5369203497512
 51
16.363400724650049
  0
LINE
  5
597
  8
0
 10
117.2146074904561
 20
79.210355415435274
 30
0.0
 11
117.2146074904561
 21
64.366605415435274
 31
0.0
  0
LINE
  5
598
  8
0
 10
125.4880449904561
 20
79.210355415435274
 30
0.0
 11
125.4880449904561
 21
64.366605415435274
 31
0.0
  0
LINE
  5
599
  8
0
 10
126.0739824904561
 20
64.952542915435274
 30
0.0
 11
126.0739824904561
 21
78.624417915435274
 31
0.0
  0
ARC
  5
59A
  8
0
 10
114.6298347963902
 20
68.556615881520585
 30
0.0
 40
8.7309789198253487
 50
163.63659927534991
 51
198.4630796502488
  0
ARC
  5
59B
  8
0
 10
147.3083574904561
 20
71.788480415435274
 30
0.0
 40
42.1875
 50
163.55953688336129
 51
193.97976236843741
  0
LINE
  5
5A7
  8
0
 10
117.3708574904561
 20
64.366605415435274
 30
0.0
 11
125.4880449904561
 21
64.366605415435274
 31
0.0
  0
LINE
  5
5A8
  8
0
 10
107.3635584924926
 20
64.939504972976522
 30
0.0
 11
115.2472112590561
 21
64.939504972976522
 31
0.0
  0
LINE
  5
5A9
  8
0
 10
107.1285144152195
 20
61.004343356597701
 30
0.0
 11
115.8499273744162
 21
61.004343356597701
 31
0.0
  0
ARC
  5
5AA
  8
0
 10
100.17303009489861
 20
63.729793321879697
 30
0.0
 40
6.510327395557435
 50
341.60883818285572
 51
18.46309979262729
  0
ARC
  5
5AB
  8
0
 10
107.1285144152195
 20
61.785593356597701
 30
0.0
 40
0.78125
 50
193.97976236843729
 51
269.99999999999977
  0
LINE
  5
5AC
  8
0
 10
117.2146074904561
 20
64.366605415435274
 30
0.0
 11
116.3295382830902
 21
61.363016160768723
 31
0.0
  0
ARC
  5
5AD
  8
0
 10
122.6305241638151
 20
63.729793321879697
 30
0.0
 40
6.510327395557435
 50
161.5369002073727
 51
198.39116181714431
  0
ARC
  5
5AE
  8
0
 10
115.8499273744162
 20
61.504343356597701
 30
0.0
 40
0.5
 50
269.99999999999972
 51
343.58130882510892
  0
ARC
  5
5AF
  8
0
 10
117.3708574904561
 20
64.210355415435231
 30
0.0
 40
0.15625
 50
90.000000000000057
 51
179.99999999999989
  0
LINE
  5
5B0
  8
0
 10
135.48016729601039
 20
69.288480415435274
 30
0.0
 11
126.3739824904561
 21
69.288480415435274
 31
0.0
  0
LINE
  5
5B1
  8
0
 10
126.0739824904561
 20
64.952542915435274
 30
0.0
 11
125.4880449904561
 21
64.366605415435274
 31
0.0
  0
LINE
  5
5B2
  8
0
 10
126.3739824904561
 20
68.288480415435288
 30
0.0
 11
126.0739824904561
 21
68.288480415435288
 31
0.0
  0
LINE
  5
5B4
  8
0
 10
117.3708574904561
 20
79.210355415435274
 30
0.0
 11
125.4880449904561
 21
79.210355415435274
 31
0.0
  0
LINE
  5
5B5
  8
1
 10
103.1208574904561
 20
71.788480415435274
 30
0.0
 11
138.37398249045609
 21
71.788480415435274
 31
0.0
  0
LINE
  5
5B6
  8
0
 10
107.3154906557259
 20
72.173726790064734
 30
0.0
 11
115.70636473334871
 21
72.173726790064734
 31
0.0
  0
LINE
  5
5B7
  8
0
 10
106.81031417738571
 20
78.014114129700886
 30
0.0
 11
116.12725566197381
 21
78.014114129700886
 31
0.0
  0
LINE
  5
5B8
  8
0
 10
107.307611572938
 20
82.485109094821496
 30
0.0
 11
116.4333574904561
 21
82.485109094821496
 31
0.0
  0
LINE
  5
5B9
  8
0
 10
107.5950292806472
 20
84.288480415435217
 30
0.0
 11
115.7737898911094
 21
84.288480415435217
 31
0.0
  0
ARC
  5
5BA
  8
0
 10
113.3642558681366
 20
79.205280919544748
 30
0.0
 40
7.4425584305554793
 50
167.67456039535691
 51
196.6904621919094
  0
ARC
  5
5BB
  8
0
 10
96.046973293178155
 20
74.012989444720347
 30
0.0
 40
10.63638419727795
 50
343.63641256156018
 51
16.690461024599319
  0
ARC
  5
5BC
  8
0
 10
107.5950292806472
 20
83.507230415435217
 30
0.0
 40
0.78125
 50
90.0
 51
163.559536883362
  0
ARC
  5
5BD
  8
0
 10
109.55356019075251
 20
79.554744741257537
 30
0.0
 40
7.4425584305554793
 50
340.47878510221432
 51
9.4946868987668136
  0
LINE
  5
5BE
  8
0
 10
117.2146074904561
 20
79.210355415435274
 30
0.0
 11
116.2637697476848
 21
83.888078307733778
 31
0.0
  0
ARC
  5
5BF
  8
0
 10
126.7565809655356
 20
74.012989444720347
 30
0.0
 40
10.63638419727795
 50
163.30953897540061
 51
196.36358743843971
  0
ARC
  5
5C0
  8
0
 10
117.3708574904561
 20
79.366605415435274
 30
0.0
 40
0.15625
 50
180.00000000000011
 51
270.0
  0
ARC
  5
5C1
  8
0
 10
115.7737898911094
 20
83.788480415435231
 30
0.0
 40
0.5
 50
11.48993465326623
 51
90.000000000000398
  0
LINE
  5
5C2
  8
0
 10
135.48016729601039
 20
74.288480415435274
 30
0.0
 11
126.3739824904561
 21
74.288480415435274
 31
0.0
  0
LINE
  5
5C3
  8
3
 10
136.29661928883601
 20
73.6033958493814
 30
0.0
 11
127.8739824904561
 21
73.6033958493814
 31
0.0
  0
LINE
  5
5C4
  8
3
 10
136.29661928883601
 20
69.973564981489233
 30
0.0
 11
127.8739824904561
 21
69.973564981489233
 31
0.0
  0
LINE
  5
5C5
  8
0
 10
126.3739824904561
 20
71.788480415435274
 30
0.0
 11
126.3739824904561
 21
75.288480415435288
 31
0.0
  0
LINE
  5
5C6
  8
0
 10
127.8739824904561
 20
71.788480415435274
 30
0.0
 11
127.8739824904561
 21
74.288480415435274
 31
0.0
  0
LINE
  5
5C7
  8
3
 10
127.8739824904561
 20
73.6033958493814
 30
0.0
 11
127.1888979244021
 21
74.288480415435274
 31
0.0
  0
LINE
  5
5C8
  8
0
 10
126.3739824904561
 20
75.288480415435288
 30
0.0
 11
126.0739824904561
 21
75.288480415435288
 31
0.0
  0
LINE
  5
5C9
  8
0
 10
125.4880449904561
 20
79.210355415435274
 30
0.0
 11
126.0739824904561
 21
78.624417915435274
 31
0.0
  0
LINE
  5
5CA
  8
0
 10
136.37398249045609
 20
71.788480415435274
 30
0.0
 11
136.37398249045609
 21
73.538480415435274
 31
0.0
  0
LINE
  5
5CB
  8
0
 10
135.48016729601039
 20
74.288480415435274
 30
0.0
 11
135.48016729601039
 21
71.788480415435274
 31
0.0
  0
LINE
  5
5CC
  8
0
 10
136.37398249045609
 20
71.788480415435274
 30
0.0
 11
136.37398249045609
 21
70.038480415435288
 31
0.0
  0
LINE
  5
5CD
  8
0
 10
136.37398249045609
 20
73.538480415435274
 30
0.0
 11
135.48016729601039
 21
74.288480415435274
 31
0.0
  0
TEXT
  5
6EE
  8
0
 62
     3
 10
0.0
 20
0.0
 30
0.0
 40
10.0
  1
BTK25X10
  7
STANDARD1
  0
ENDSEC
  0
EOF
