  0
SECTION
  2
HEADER
  9
$ACADVER
  1
AC1009
  9
$INSBASE
 10
0.0
 20
0.0
 30
0.0
  9
$EXTMIN
 10
0.0
 20
-1.4802182810368341
 30
0.0
  9
$EXTMAX
 10
169.35136399999999
 20
130.40432699999999
 30
0.0
  9
$LIMMIN
 10
0.0
 20
0.0
  9
$LIMMAX
 10
187.5
 20
135.0
  9
$ORTHOMODE
 70
     1
  9
$REGENMODE
 70
     1
  9
$FILLMODE
 70
     1
  9
$QTEXTMODE
 70
     0
  9
$MIRRTEXT
 70
     0
  9
$DRAGMODE
 70
     2
  9
$LTSCALE
 40
5.0
  9
$OSMODE
 70
  3071
  9
$ATTMODE
 70
     1
  9
$TEXTSIZE
 40
0.2
  9
$TRACEWID
 40
0.05
  9
$TEXTSTYLE
  7
STANDARD
  9
$CLAYER
  8
0
  9
$CELTYPE
  6
BYLAYER
  9
$CECOLOR
 62
   256
  9
$DIMSCALE
 40
0.5
  9
$DIMASZ
 40
3.0
  9
$DIMEXO
 40
2.0
  9
$DIMDLI
 40
10.0
  9
$DIMRND
 40
0.0
  9
$DIMDLE
 40
0.0
  9
$DIMEXE
 40
2.0
  9
$DIMTP
 40
0.0
  9
$DIMTM
 40
0.0
  9
$DIMTXT
 40
3.2000000000000002
  9
$DIMCEN
 40
0.09
  9
$DIMTSZ
 40
0.0
  9
$DIMTOL
 70
     0
  9
$DIMLIM
 70
     0
  9
$DIMTIH
 70
     0
  9
$DIMTOH
 70
     0
  9
$DIMSE1
 70
     0
  9
$DIMSE2
 70
     0
  9
$DIMTAD
 70
     1
  9
$DIMZIN
 70
     0
  9
$DIMBLK
  1

  9
$DIMASO
 70
     1
  9
$DIMSHO
 70
     0
  9
$DIMPOST
  1

  9
$DIMAPOST
  1

  9
$DIMALT
 70
     0
  9
$DIMALTD
 70
     2
  9
$DIMALTF
 40
25.399999999999999
  9
$DIMLFAC
 40
1.0
  9
$DIMTOFL
 70
     1
  9
$DIMTVP
 40
1.6000000000000001
  9
$DIMTIX
 70
     0
  9
$DIMSOXD
 70
     0
  9
$DIMSAH
 70
     0
  9
$DIMBLK1
  1

  9
$DIMBLK2
  1

  9
$DIMSTYLE
  2
STANDARD
  9
$DIMCLRD
 70
     0
  9
$DIMCLRE
 70
     0
  9
$DIMCLRT
 70
     0
  9
$DIMTFAC
 40
1.0
  9
$DIMGAP
 40
0.09
  9
$LUNITS
 70
     2
  9
$LUPREC
 70
     4
  9
$SKETCHINC
 40
0.1
  9
$FILLETRAD
 40
0.0
  9
$AUNITS
 70
     0
  9
$AUPREC
 70
     0
  9
$MENU
  1
E:\r13\win\SUPPORT\ACAD
  9
$ELEVATION
 40
0.0
  9
$PELEVATION
 40
0.0
  9
$THICKNESS
 40
0.0
  9
$LIMCHECK
 70
     0
  9
$BLIPMODE
 70
     0
  9
$CHAMFERA
 40
0.0
  9
$CHAMFERB
 40
0.0
  9
$SKPOLY
 70
     0
  9
$TDCREATE
 40
2449840.619016204
  9
$TDUPDATE
 40
2456598.4039957519
  9
$TDINDWG
 40
0.0317252431
  9
$TDUSRTIMER
 40
0.0317252431
  9
$USRTIMER
 70
     1
  9
$ANGBASE
 50
0.0
  9
$ANGDIR
 70
     0
  9
$PDMODE
 70
     0
  9
$PDSIZE
 40
0.0
  9
$PLINEWID
 40
0.0
  9
$COORDS
 70
     1
  9
$SPLFRAME
 70
     0
  9
$SPLINETYPE
 70
     6
  9
$SPLINESEGS
 70
     8
  9
$ATTDIA
 70
     0
  9
$ATTREQ
 70
     1
  9
$HANDLING
 70
     1
  9
$HANDSEED
  5
56F
  9
$SURFTAB1
 70
     6
  9
$SURFTAB2
 70
     6
  9
$SURFTYPE
 70
     6
  9
$SURFU
 70
     6
  9
$SURFV
 70
     6
  9
$UCSNAME
  2

  9
$UCSORG
 10
0.0
 20
0.0
 30
0.0
  9
$UCSXDIR
 10
1.0
 20
0.0
 30
0.0
  9
$UCSYDIR
 10
0.0
 20
1.0
 30
0.0
  9
$PUCSNAME
  2

  9
$PUCSORG
 10
0.0
 20
0.0
 30
0.0
  9
$PUCSXDIR
 10
1.0
 20
0.0
 30
0.0
  9
$PUCSYDIR
 10
0.0
 20
1.0
 30
0.0
  9
$USERI1
 70
     0
  9
$USERI2
 70
     1
  9
$USERI3
 70
     1
  9
$USERI4
 70
     0
  9
$USERI5
 70
     0
  9
$USERR1
 40
0.0
  9
$USERR2
 40
0.0
  9
$USERR3
 40
0.0
  9
$USERR4
 40
0.0
  9
$USERR5
 40
0.0
  9
$WORLDVIEW
 70
     1
  9
$SHADEDGE
 70
     3
  9
$SHADEDIF
 70
    70
  9
$TILEMODE
 70
     1
  9
$MAXACTVP
 70
    16
  9
$PLIMCHECK
 70
     0
  9
$PEXTMIN
 10
1.0000000000000000E+020
 20
1.0000000000000000E+020
 30
1.0000000000000000E+020
  9
$PEXTMAX
 10
-1.0000000000000000E+020
 20
-1.0000000000000000E+020
 30
-1.0000000000000000E+020
  9
$PLIMMIN
 10
0.0
 20
0.0
  9
$PLIMMAX
 10
12.0
 20
9.0
  9
$UNITMODE
 70
     0
  9
$VISRETAIN
 70
     0
  9
$PLINEGEN
 70
     0
  9
$PSLTSCALE
 70
     0
  0
ENDSEC
  0
SECTION
  2
TABLES
  0
TABLE
  2
VPORT
 70
     1
  0
VPORT
  2
*ACTIVE
 70
     0
 10
0.0
 20
0.0
 11
1.0
 21
1.0
 12
97.52905416604365
 22
66.75636307133405
 13
0.0
 23
0.0
 14
5.0
 24
5.0
 15
5.0
 25
5.0
 16
0.0
 26
0.0
 36
1.0
 17
0.0
 27
0.0
 37
0.0
 40
137.71137496815999
 41
1.831871345029239
 42
50.0
 43
0.0
 44
0.0
 50
0.0
 51
0.0
 71
     0
 72
   100
 73
     1
 74
     0
 75
     0
 76
     0
 77
     0
 78
     0
  0
ENDTAB
  0
TABLE
  2
LTYPE
 70
     4
  0
LTYPE
  2
CONTINUOUS
 70
     0
  3
Solid Line
 72
    65
 73
     0
 40
0.0
  0
LTYPE
  2
CENTER
 70
     0
  3
____ _ ____ _ ____ _ ____ _ ____ _ ____ _ ____
 72
    65
 73
     4
 40
2.0
 49
1.25
 49
-0.25
 49
0.25
 49
-0.25
  0
LTYPE
  2
HIDDEN
 70
     0
  3
_ _ _ _ _ _ _ _ _ _ _ _ _ _ _ _ _ _ _ _ _ _ _
 72
    65
 73
     2
 40
0.375
 49
0.25
 49
-0.125
  0
LTYPE
  2
PHANTOM2
 70
     0
  3
___ _ _ ___ _ _ ___ _ _ ___ _ _
 72
    65
 73
     6
 40
1.25
 49
0.625
 49
-0.125
 49
0.125
 49
-0.125
 49
0.125
 49
-0.125
  0
ENDTAB
  0
TABLE
  2
LAYER
 70
     4
  0
LAYER
  2
0
 70
     0
 62
     7
  6
CONTINUOUS
  0
LAYER
  2
1
 70
     0
 62
     1
  6
CENTER
  0
LAYER
  2
2
 70
     0
 62
     2
  6
HIDDEN
  0
LAYER
  2
3
 70
     0
 62
     3
  6
CONTINUOUS
  0
ENDTAB
  0
TABLE
  2
STYLE
 70
     2
  0
STYLE
  2
STANDARD
 70
     0
 40
0.0
 41
1.0
 50
0.0
 71
     0
 42
0.2
  3
TXT
  4
BIGFONT
  0
STYLE
  2
STANDARD1
 70
     0
 40
0.0
 41
1.0
 50
0.0
 71
     0
 42
3.0
  3
txt
  4

  0
ENDTAB
  0
TABLE
  2
VIEW
 70
     1
  0
VIEW
  2
ALL
 70
     0
 40
135.0
 10
110.49579799999999
 20
67.5
 41
0.0
 11
0.0
 21
0.0
 31
1.0
 12
0.0
 22
0.0
 32
0.0
 42
0.0
 43
0.0
 44
0.0
 50
0.0
 71
     0
  0
ENDTAB
  0
TABLE
  2
UCS
 70
     0
  0
ENDTAB
  0
TABLE
  2
APPID
 70
     3
  0
APPID
  2
ACAD
 70
     0
  0
APPID
  2
ACAD_MLEADERVER
 70
     0
  0
APPID
  2
ACAD_NAV_VCDISPLAY
 70
     0
  0
ENDTAB
  0
TABLE
  2
DIMSTYLE
 70
     1
  0
DIMSTYLE
  2
STANDARD
 70
     0
  3

  4

  5

  6

  7

 40
1.0
 41
0.18
 42
0.0625
 43
0.38
 44
0.18
 45
0.0
 46
0.0
 47
0.0
 48
0.0
140
0.18
141
0.09
142
0.0
143
25.399999999999999
144
1.0
145
0.0
146
1.0
147
0.09
 71
     0
 72
     0
 73
     1
 74
     1
 75
     0
 76
     0
 77
     0
 78
     0
170
     0
171
     2
172
     0
173
     0
174
     0
175
     0
176
     0
177
     0
178
     0
  0
ENDTAB
  0
ENDSEC
  0
SECTION
  2
BLOCKS
  0
BLOCK
  8
0
  2
$MODEL_SPACE
 70
     0
 10
0.0
 20
0.0
 30
0.0
  3
$MODEL_SPACE
  1

  0
ENDBLK
  5
374
  8
0
  0
BLOCK
 67
     1
  8
0
  2
$PAPER_SPACE
 70
     0
 10
0.0
 20
0.0
 30
0.0
  3
$PAPER_SPACE
  1

  0
ENDBLK
  5
372
 67
     1
  8
0
  0
BLOCK
  8
0
  2
STDGX5
 70
     0
 10
0.0
 20
0.0
 30
0.0
  3
STDGX5
  1

  0
ENDBLK
  5
286
  8
0
  0
ENDSEC
  0
SECTION
  2
ENTITIES
  0
LINE
  5
36
  8
1
 10
16.851364
 20
80.404326999999995
 30
0.0
 11
41.851363999999997
 21
80.404326999999995
 31
0.0
  0
LINE
  5
37
  8
1
 10
66.851364000000004
 20
80.404326999999995
 30
0.0
 11
119.351364
 21
80.404326999999995
 31
0.0
  0
LINE
  5
38
  8
1
 10
144.35136399999999
 20
80.404326999999995
 30
0.0
 11
169.35136399999999
 21
80.404326999999995
 31
0.0
  0
LINE
  5
39
  8
1
 10
156.85136399999999
 20
92.904326999999995
 30
0.0
 11
156.85136399999999
 21
67.904326999999995
 31
0.0
  0
LINE
  5
3A
  8
1
 10
29.351364000000011
 20
67.904326999999995
 30
0.0
 11
29.351364000000011
 21
92.904326999999995
 31
0.0
  0
CIRCLE
  5
3B
  8
3
 10
156.85136399999999
 20
80.404326999999995
 30
0.0
 40
8.6470000000000002
  0
CIRCLE
  5
3C
  8
0
 10
156.85136399999999
 20
80.404326999999995
 30
0.0
 40
10.0
  0
CIRCLE
  5
3D
  8
3
 10
29.351364000000011
 20
80.404326999999995
 30
0.0
 40
8.6470000000000002
  0
CIRCLE
  5
3E
  8
0
 10
29.351364000000011
 20
80.404326999999995
 30
0.0
 40
10.0
  0
LINE
  5
3F
  8
0
 10
108.851364
 20
90.404326999999995
 30
0.0
 11
71.351364000000004
 21
90.404326999999995
 31
0.0
  0
LINE
  5
40
  8
3
 10
110.2043639999999
 20
89.051327000000015
 30
0.0
 11
69.998363999999995
 21
89.051327000000015
 31
0.0
  0
LINE
  5
41
  8
3
 10
110.204364
 20
71.757327000000004
 30
0.0
 11
69.998363999999995
 21
71.757327000000004
 31
0.0
  0
LINE
  5
42
  8
0
 10
108.851364
 20
70.404327000000009
 30
0.0
 11
71.351364000000004
 21
70.404326999999995
 31
0.0
  0
LINE
  5
4C
  8
0
 10
112.351364
 20
86.904326999999995
 30
0.0
 11
112.351364
 21
73.904326999999995
 31
0.0
  0
LINE
  5
4E
  8
0
 10
69.351364000000004
 20
88.404326999999995
 30
0.0
 11
69.351364000000004
 21
72.404326999999995
 31
0.0
  0
LINE
  5
4F
  8
0
 10
69.351364000000004
 20
88.404326999999995
 30
0.0
 11
71.351364000000004
 21
90.404326999999995
 31
0.0
  0
LINE
  5
50
  8
0
 10
69.351364000000004
 20
72.404326999999995
 30
0.0
 11
71.351364000000004
 21
70.404326999999995
 31
0.0
  0
LINE
  5
51
  8
0
 10
112.351364
 20
73.904326999999995
 30
0.0
 11
108.851364
 21
70.404326999999995
 31
0.0
  0
LINE
  5
52
  8
0
 10
112.351364
 20
86.904326999999995
 30
0.0
 11
108.851364
 21
90.404326999999995
 31
0.0
  0
LINE
  5
53
  8
0
 10
108.851364
 20
90.404326999999995
 30
0.0
 11
108.851364
 21
70.404326999999995
 31
0.0
  0
LINE
  5
54
  8
0
 10
71.351364000000004
 20
70.404326999999995
 30
0.0
 11
71.351364000000004
 21
90.404326999999995
 31
0.0
  0
CIRCLE
  5
56
  8
0
 10
156.85136399999999
 20
80.404326999999995
 30
0.0
 40
6.0
  0
CIRCLE
  5
58
  8
0
 10
156.85136399999999
 20
80.404326999999995
 30
0.0
 40
6.5
  0
ARC
  5
BE
  8
0
 10
110.851364
 20
80.404326999999995
 30
0.0
 40
6.0
 50
284.47751218592992
 51
75.522487814070075
  0
LINE
  5
21B
  8
2
 10
77.351364000000004
 20
86.177828999999988
 30
0.0
 11
77.351364000000004
 21
74.63082399999999
 31
0.0
  0
LINE
  5
237
  8
2
 10
69.351364000000004
 20
83.291077999999985
 30
0.0
 11
77.351364000000004
 21
83.291077999999985
 31
0.0
  0
LINE
  5
238
  8
2
 10
69.351364000000004
 20
86.177828999999988
 30
0.0
 11
77.351364000000004
 21
86.177828999999988
 31
0.0
  0
LINE
  5
247
  8
2
 10
69.351364000000004
 20
74.63082399999999
 30
0.0
 11
77.351364000000004
 21
74.63082399999999
 31
0.0
  0
LINE
  5
248
  8
2
 10
69.351364000000004
 20
77.517574999999994
 30
0.0
 11
77.351364000000004
 21
77.517574999999994
 31
0.0
  0
LINE
  5
252
  8
0
 10
34.351364000000011
 20
77.517576000000005
 30
0.0
 11
34.351364000000011
 21
83.291078999999996
 31
0.0
  0
LINE
  5
253
  8
0
 10
24.351364000000011
 20
83.291078999999996
 30
0.0
 11
24.351364000000011
 21
77.517576000000005
 31
0.0
  0
LINE
  5
254
  8
0
 10
29.351364000000011
 20
74.630825000000002
 30
0.0
 11
34.351364000000011
 21
77.517576000000005
 31
0.0
  0
LINE
  5
255
  8
0
 10
24.351364000000011
 20
77.517576000000005
 30
0.0
 11
29.351364000000011
 21
74.630825000000002
 31
0.0
  0
LINE
  5
256
  8
0
 10
34.351364000000011
 20
83.291078999999996
 30
0.0
 11
29.351364000000011
 21
86.177830000000014
 31
0.0
  0
LINE
  5
257
  8
0
 10
29.351364000000011
 20
86.177830000000014
 30
0.0
 11
24.351364000000011
 21
83.291078999999996
 31
0.0
  0
LINE
  5
25A
  8
2
 10
77.351364000000004
 20
125.40432699999999
 30
0.0
 11
77.351364000000004
 21
115.40432699999999
 31
0.0
  0
ARC
  5
25C
  8
0
 10
110.851364
 20
120.40432699999999
 30
0.0
 40
6.0
 50
284.47751218592992
 51
75.522487814070075
  0
LINE
  5
25D
  8
0
 10
108.851364
 20
130.40432699999999
 30
0.0
 11
108.851364
 21
110.40432699999999
 31
0.0
  0
LINE
  5
25E
  8
0
 10
112.351364
 20
126.90432699999999
 30
0.0
 11
112.351364
 21
113.90432699999999
 31
0.0
  0
LINE
  5
25F
  8
0
 10
71.351364000000004
 20
110.40432699999999
 30
0.0
 11
71.351364000000004
 21
130.40432699999999
 31
0.0
  0
LINE
  5
260
  8
0
 10
69.351364000000004
 20
128.40432699999999
 30
0.0
 11
69.351364000000004
 21
112.40432699999999
 31
0.0
  0
LINE
  5
261
  8
0
 10
108.851364
 20
110.40432699999999
 30
0.0
 11
71.351364000000004
 21
110.40432699999999
 31
0.0
  0
LINE
  5
262
  8
3
 10
110.204364
 20
111.757327
 30
0.0
 11
69.998363999999995
 21
111.757327
 31
0.0
  0
LINE
  5
263
  8
1
 10
66.851364000000004
 20
120.40432699999999
 30
0.0
 11
119.351364
 21
120.40432699999999
 31
0.0
  0
LINE
  5
264
  8
0
 10
69.351364000000004
 20
112.40432699999999
 30
0.0
 11
71.351364000000004
 21
110.40432699999999
 31
0.0
  0
LINE
  5
266
  8
2
 10
69.351364000000004
 20
115.40432699999999
 30
0.0
 11
77.351364000000004
 21
115.40432699999999
 31
0.0
  0
LINE
  5
268
  8
0
 10
112.351364
 20
113.90432699999999
 30
0.0
 11
108.851364
 21
110.40432699999999
 31
0.0
  0
LINE
  5
269
  8
3
 10
110.2043639999999
 20
129.05132699999999
 30
0.0
 11
69.998363999999995
 21
129.05132699999999
 31
0.0
  0
LINE
  5
26A
  8
0
 10
108.851364
 20
130.40432699999999
 30
0.0
 11
71.351364000000004
 21
130.40432699999999
 31
0.0
  0
LINE
  5
26B
  8
2
 10
69.351364000000004
 20
120.40432699999999
 30
0.0
 11
77.351364000000004
 21
120.40432699999999
 31
0.0
  0
LINE
  5
26C
  8
2
 10
69.351364000000004
 20
125.40432699999999
 30
0.0
 11
77.351364000000004
 21
125.40432699999999
 31
0.0
  0
LINE
  5
26D
  8
0
 10
69.351364000000004
 20
128.40432699999999
 30
0.0
 11
71.351364000000004
 21
130.40432699999999
 31
0.0
  0
LINE
  5
26E
  8
0
 10
112.351364
 20
126.90432699999999
 30
0.0
 11
108.851364
 21
130.40432699999999
 31
0.0
  0
ARC
  5
271
  8
0
 10
110.851364
 20
40.404326999999988
 30
0.0
 40
6.0
 50
284.47751218592992
 51
75.522487814070075
  0
LINE
  5
272
  8
0
 10
108.851364
 20
50.404327000000002
 30
0.0
 11
108.851364
 21
30.404326999999999
 31
0.0
  0
LINE
  5
273
  8
0
 10
112.351364
 20
46.904326999999988
 30
0.0
 11
112.351364
 21
33.904327000000002
 31
0.0
  0
LINE
  5
274
  8
0
 10
71.351364000000004
 20
30.404326999999999
 30
0.0
 11
71.351364000000004
 21
50.404327000000002
 31
0.0
  0
LINE
  5
275
  8
0
 10
69.351364000000004
 20
48.404327000000002
 30
0.0
 11
69.351364000000004
 21
32.404326999999988
 31
0.0
  0
LINE
  5
276
  8
0
 10
108.851364
 20
30.404327000000009
 30
0.0
 11
71.351364000000004
 21
30.404326999999999
 31
0.0
  0
LINE
  5
277
  8
3
 10
110.204364
 20
31.757327000000011
 30
0.0
 11
69.998363999999995
 21
31.757327000000011
 31
0.0
  0
LINE
  5
278
  8
1
 10
66.851364000000004
 20
40.404326999999988
 30
0.0
 11
119.351364
 21
40.404326999999988
 31
0.0
  0
LINE
  5
279
  8
0
 10
69.351364000000004
 20
32.404326999999988
 30
0.0
 11
71.351364000000004
 21
30.404326999999999
 31
0.0
  0
LINE
  5
27D
  8
0
 10
112.351364
 20
33.904327000000002
 30
0.0
 11
108.851364
 21
30.404326999999999
 31
0.0
  0
LINE
  5
27E
  8
3
 10
110.2043639999999
 20
49.051327000000001
 30
0.0
 11
69.998363999999995
 21
49.051327000000001
 31
0.0
  0
LINE
  5
27F
  8
0
 10
108.851364
 20
50.404327000000002
 30
0.0
 11
71.351364000000004
 21
50.404327000000002
 31
0.0
  0
LINE
  5
282
  8
0
 10
69.351364000000004
 20
48.404327000000002
 30
0.0
 11
71.351364000000004
 21
50.404327000000002
 31
0.0
  0
LINE
  5
283
  8
0
 10
112.351364
 20
46.904326999999988
 30
0.0
 11
108.851364
 21
50.404327000000002
 31
0.0
  0
INSERT
  5
321
  8
0
  2
STDGX5
 10
0.0
 20
0.0
 30
0.0
 41
0.5
 42
0.5
 43
0.5
  0
INSERT
  5
322
  8
0
  2
STDGX5
 10
0.0
 20
0.0
 30
0.0
 41
0.5
 42
0.5
 43
0.5
  0
INSERT
  5
323
  8
0
  2
STDGX5
 10
137.5
 20
0.0
 30
0.0
 41
0.5
 42
0.5
 43
0.5
  0
INSERT
  5
324
  8
0
  2
STDGX5
 10
137.5
 20
0.0
 30
0.0
 41
0.5
 42
0.5
 43
0.5
  0
ARC
  5
33E
  8
2
 10
106.351364
 20
80.404326999999995
 30
0.0
 40
6.0
 50
284.47751218592992
 51
75.522487814070075
  0
ARC
  5
33F
  8
2
 10
106.351364
 20
120.40432699999999
 30
0.0
 40
6.0
 50
284.47751218592992
 51
75.522487814070075
  0
ARC
  5
340
  8
2
 10
106.351364
 20
40.404326999999988
 30
0.0
 40
6.0
 50
284.47751218592992
 51
75.522487814070075
  0
LINE
  5
465
  8
2
 10
77.351364000000004
 20
45.404326999999988
 30
0.0
 11
77.351364000000004
 21
35.404327000000002
 31
0.0
  0
LINE
  5
466
  8
2
 10
69.351364000000004
 20
35.404327000000002
 30
0.0
 11
77.351364000000004
 21
35.404327000000002
 31
0.0
  0
LINE
  5
467
  8
2
 10
69.351364000000004
 20
40.404326999999988
 30
0.0
 11
77.351364000000004
 21
40.404326999999988
 31
0.0
  0
LINE
  5
468
  8
2
 10
69.351364000000004
 20
45.404326999999988
 30
0.0
 11
77.351364000000004
 21
45.404326999999988
 31
0.0
  0
TEXT
  5
509
  8
0
 62
     3
 10
0.0
 20
0.0
 30
0.0
 40
5.0
  1
BSTH20A
  7
STANDARD1
  0
ENDSEC
  0
EOF
