  0
SECTION
  2
HEADER
  9
$ACADVER
  1
AC1009
  9
$INSBASE
 10
0.0
 20
0.0
 30
0.0
  9
$EXTMIN
 10
0.0
 20
-1.4802182810368341
 30
0.0
  9
$EXTMAX
 10
82.855638591137634
 20
65.746392173264695
 30
0.0
  9
$LIMMIN
 10
0.0
 20
0.0
  9
$LIMMAX
 10
75.0
 20
54.0
  9
$ORTHOMODE
 70
     0
  9
$REGENMODE
 70
     1
  9
$FILLMODE
 70
     1
  9
$QTEXTMODE
 70
     0
  9
$MIRRTEXT
 70
     0
  9
$DRAGMODE
 70
     2
  9
$LTSCALE
 40
2.0
  9
$OSMODE
 70
  3071
  9
$ATTMODE
 70
     1
  9
$TEXTSIZE
 40
0.2
  9
$TRACEWID
 40
0.05
  9
$TEXTSTYLE
  7
STANDARD
  9
$CLAYER
  8
0
  9
$CELTYPE
  6
BYLAYER
  9
$CECOLOR
 62
   256
  9
$DIMSCALE
 40
0.2
  9
$DIMASZ
 40
3.0
  9
$DIMEXO
 40
2.0
  9
$DIMDLI
 40
10.0
  9
$DIMRND
 40
0.0
  9
$DIMDLE
 40
0.0
  9
$DIMEXE
 40
2.0
  9
$DIMTP
 40
0.0
  9
$DIMTM
 40
0.0
  9
$DIMTXT
 40
3.0
  9
$DIMCEN
 40
0.09
  9
$DIMTSZ
 40
0.0
  9
$DIMTOL
 70
     0
  9
$DIMLIM
 70
     0
  9
$DIMTIH
 70
     0
  9
$DIMTOH
 70
     0
  9
$DIMSE1
 70
     0
  9
$DIMSE2
 70
     0
  9
$DIMTAD
 70
     1
  9
$DIMZIN
 70
     0
  9
$DIMBLK
  1

  9
$DIMASO
 70
     0
  9
$DIMSHO
 70
     0
  9
$DIMPOST
  1

  9
$DIMAPOST
  1

  9
$DIMALT
 70
     0
  9
$DIMALTD
 70
     2
  9
$DIMALTF
 40
25.399999999999999
  9
$DIMLFAC
 40
1.0
  9
$DIMTOFL
 70
     1
  9
$DIMTVP
 40
1.6000000000000001
  9
$DIMTIX
 70
     1
  9
$DIMSOXD
 70
     0
  9
$DIMSAH
 70
     0
  9
$DIMBLK1
  1

  9
$DIMBLK2
  1

  9
$DIMSTYLE
  2
STANDARD
  9
$DIMCLRD
 70
     0
  9
$DIMCLRE
 70
     0
  9
$DIMCLRT
 70
     0
  9
$DIMTFAC
 40
1.0
  9
$DIMGAP
 40
0.09
  9
$LUNITS
 70
     2
  9
$LUPREC
 70
     4
  9
$SKETCHINC
 40
0.1
  9
$FILLETRAD
 40
0.0
  9
$AUNITS
 70
     0
  9
$AUPREC
 70
     0
  9
$MENU
  1
E:\r13\win\SUPPORT\ACAD
  9
$ELEVATION
 40
0.0
  9
$PELEVATION
 40
0.0
  9
$THICKNESS
 40
0.0
  9
$LIMCHECK
 70
     0
  9
$BLIPMODE
 70
     0
  9
$CHAMFERA
 40
0.0
  9
$CHAMFERB
 40
0.0
  9
$SKPOLY
 70
     0
  9
$TDCREATE
 40
2449840.618888889
  9
$TDUPDATE
 40
2456598.403384387
  9
$TDINDWG
 40
0.1929381134
  9
$TDUSRTIMER
 40
0.1929381134
  9
$USRTIMER
 70
     1
  9
$ANGBASE
 50
0.0
  9
$ANGDIR
 70
     0
  9
$PDMODE
 70
     0
  9
$PDSIZE
 40
0.0
  9
$PLINEWID
 40
0.0
  9
$COORDS
 70
     1
  9
$SPLFRAME
 70
     0
  9
$SPLINETYPE
 70
     6
  9
$SPLINESEGS
 70
     8
  9
$ATTDIA
 70
     0
  9
$ATTREQ
 70
     1
  9
$HANDLING
 70
     1
  9
$HANDSEED
  5
8AD
  9
$SURFTAB1
 70
     6
  9
$SURFTAB2
 70
     6
  9
$SURFTYPE
 70
     6
  9
$SURFU
 70
     6
  9
$SURFV
 70
     6
  9
$UCSNAME
  2

  9
$UCSORG
 10
0.0
 20
0.0
 30
0.0
  9
$UCSXDIR
 10
1.0
 20
0.0
 30
0.0
  9
$UCSYDIR
 10
0.0
 20
1.0
 30
0.0
  9
$PUCSNAME
  2

  9
$PUCSORG
 10
0.0
 20
0.0
 30
0.0
  9
$PUCSXDIR
 10
1.0
 20
0.0
 30
0.0
  9
$PUCSYDIR
 10
0.0
 20
1.0
 30
0.0
  9
$USERI1
 70
     0
  9
$USERI2
 70
     1
  9
$USERI3
 70
     1
  9
$USERI4
 70
     0
  9
$USERI5
 70
     0
  9
$USERR1
 40
0.0
  9
$USERR2
 40
0.0
  9
$USERR3
 40
0.0
  9
$USERR4
 40
0.0
  9
$USERR5
 40
0.0
  9
$WORLDVIEW
 70
     1
  9
$SHADEDGE
 70
     3
  9
$SHADEDIF
 70
    70
  9
$TILEMODE
 70
     1
  9
$MAXACTVP
 70
    16
  9
$PLIMCHECK
 70
     0
  9
$PEXTMIN
 10
1.0000000000000000E+020
 20
1.0000000000000000E+020
 30
1.0000000000000000E+020
  9
$PEXTMAX
 10
-1.0000000000000000E+020
 20
-1.0000000000000000E+020
 30
-1.0000000000000000E+020
  9
$PLIMMIN
 10
0.0
 20
0.0
  9
$PLIMMAX
 10
12.0
 20
9.0
  9
$UNITMODE
 70
     0
  9
$VISRETAIN
 70
     0
  9
$PLINEGEN
 70
     0
  9
$PSLTSCALE
 70
     0
  0
ENDSEC
  0
SECTION
  2
TABLES
  0
TABLE
  2
VPORT
 70
     1
  0
VPORT
  2
*ACTIVE
 70
     0
 10
0.0
 20
0.0
 11
1.0
 21
1.0
 12
43.290694075391301
 22
32.133328620626997
 13
0.0
 23
0.0
 14
2.0
 24
2.0
 15
2.0
 25
2.0
 16
0.0
 26
0.0
 36
1.0
 17
0.0
 27
0.0
 37
0.0
 40
67.833101151882573
 41
1.831871345029239
 42
50.0
 43
0.0
 44
0.0
 50
0.0
 51
0.0
 71
     0
 72
   100
 73
     1
 74
     0
 75
     0
 76
     0
 77
     0
 78
     2
  0
ENDTAB
  0
TABLE
  2
LTYPE
 70
     4
  0
LTYPE
  2
CONTINUOUS
 70
     0
  3
Solid Line
 72
    65
 73
     0
 40
0.0
  0
LTYPE
  2
CENTER
 70
     0
  3
____ _ ____ _ ____ _ ____ _ ____ _ ____ _ ____
 72
    65
 73
     4
 40
2.0
 49
1.25
 49
-0.25
 49
0.25
 49
-0.25
  0
LTYPE
  2
HIDDEN
 70
     0
  3
_ _ _ _ _ _ _ _ _ _ _ _ _ _ _ _ _ _ _ _ _ _ _
 72
    65
 73
     2
 40
0.375
 49
0.25
 49
-0.125
  0
LTYPE
  2
PHANTOM2
 70
     0
  3
___ _ _ ___ _ _ ___ _ _ ___ _ _
 72
    65
 73
     6
 40
1.25
 49
0.625
 49
-0.125
 49
0.125
 49
-0.125
 49
0.125
 49
-0.125
  0
ENDTAB
  0
TABLE
  2
LAYER
 70
     4
  0
LAYER
  2
0
 70
     0
 62
     7
  6
CONTINUOUS
  0
LAYER
  2
1
 70
     0
 62
     1
  6
CENTER
  0
LAYER
  2
2
 70
     0
 62
     2
  6
HIDDEN
  0
LAYER
  2
3
 70
     0
 62
     3
  6
CONTINUOUS
  0
ENDTAB
  0
TABLE
  2
STYLE
 70
     2
  0
STYLE
  2
STANDARD
 70
     0
 40
0.0
 41
1.0
 50
0.0
 71
     0
 42
0.2
  3
TXT
  4
BIGFONT
  0
STYLE
  2
STANDARD1
 70
     0
 40
0.0
 41
1.0
 50
0.0
 71
     0
 42
3.0
  3
txt
  4

  0
ENDTAB
  0
TABLE
  2
VIEW
 70
     1
  0
VIEW
  2
ALL
 70
     0
 40
54.0
 10
44.198318999999998
 20
27.0
 41
0.0
 11
0.0
 21
0.0
 31
1.0
 12
0.0
 22
0.0
 32
0.0
 42
0.0
 43
0.0
 44
0.0
 50
0.0
 71
     0
  0
ENDTAB
  0
TABLE
  2
UCS
 70
     0
  0
ENDTAB
  0
TABLE
  2
APPID
 70
     4
  0
APPID
  2
ACAD
 70
     0
  0
APPID
  2
DCO15
 70
     0
  0
APPID
  2
ACAD_MLEADERVER
 70
     0
  0
APPID
  2
ACAD_NAV_VCDISPLAY
 70
     0
  0
ENDTAB
  0
TABLE
  2
DIMSTYLE
 70
     1
  0
DIMSTYLE
  2
STANDARD
 70
     0
  3

  4

  5

  6

  7

 40
1.0
 41
0.18
 42
0.0625
 43
0.38
 44
0.18
 45
0.0
 46
0.0
 47
0.0
 48
0.0
140
0.18
141
0.09
142
0.0
143
25.399999999999999
144
1.0
145
0.0
146
1.0
147
0.09
 71
     0
 72
     0
 73
     1
 74
     1
 75
     0
 76
     0
 77
     0
 78
     0
170
     0
171
     2
172
     0
173
     0
174
     0
175
     0
176
     0
177
     0
178
     0
  0
ENDTAB
  0
ENDSEC
  0
SECTION
  2
BLOCKS
  0
BLOCK
  8
0
  2
$MODEL_SPACE
 70
     0
 10
0.0
 20
0.0
 30
0.0
  3
$MODEL_SPACE
  1

  0
ENDBLK
  5
2D4
  8
0
  0
BLOCK
 67
     1
  8
0
  2
$PAPER_SPACE
 70
     0
 10
0.0
 20
0.0
 30
0.0
  3
$PAPER_SPACE
  1

  0
ENDBLK
  5
2D2
 67
     1
  8
0
  0
BLOCK
  8
0
  2
STDGX5
 70
     0
 10
0.0
 20
0.0
 30
0.0
  3
STDGX5
  1

  0
ENDBLK
  5
1EE
  8
0
  0
ENDSEC
  0
SECTION
  2
ENTITIES
  0
INSERT
  5
28C
  8
0
  2
STDGX5
 10
55.0
 20
0.0
 30
0.0
 41
0.2
 42
0.2
 43
0.2
  0
INSERT
  5
28D
  8
0
  2
STDGX5
 10
55.0
 20
0.0
 30
0.0
 41
0.2
 42
0.2
 43
0.2
  0
LINE
  5
5D8
  8
1
 10
24.412363591137641
 20
41.732603173264678
 30
0.0
 11
31.412363591137641
 21
41.732603173264678
 31
0.0
  0
LINE
  5
5D9
  8
1
 10
46.450090591137617
 20
41.732603173264678
 30
0.0
 11
63.350090591137629
 21
41.732603173264678
 31
0.0
  0
LINE
  5
5DA
  8
1
 10
75.855638591137634
 20
41.732603173264678
 30
0.0
 11
82.855638591137634
 21
41.732603173264678
 31
0.0
  0
LINE
  5
5DB
  8
1
 10
79.355638591137634
 20
45.232603173264671
 30
0.0
 11
79.355638591137634
 21
38.232603173264678
 31
0.0
  0
LINE
  5
5DC
  8
1
 10
27.912363591137641
 20
45.232603173264671
 30
0.0
 11
27.912363591137641
 21
38.232603173264678
 31
0.0
  0
CIRCLE
  5
5DD
  8
3
 10
79.355638591137634
 20
41.732603173264678
 30
0.0
 40
2.0669999999999988
  0
CIRCLE
  5
5DE
  8
0
 10
79.355638591137634
 20
41.732603173264678
 30
0.0
 40
2.5
  0
CIRCLE
  5
5DF
  8
3
 10
27.912363591137641
 20
41.732603173264678
 30
0.0
 40
2.0669999999999988
  0
CIRCLE
  5
5E0
  8
0
 10
27.912363591137641
 20
41.732603173264678
 30
0.0
 40
2.5
  0
LINE
  5
5E1
  8
0
 10
60.800090591137661
 20
44.232603173264678
 30
0.0
 11
48.450090591137631
 21
44.232603173264678
 31
0.0
  0
LINE
  5
5E2
  8
3
 10
61.233090591137653
 20
43.799603173264671
 30
0.0
 11
48.017090591137631
 21
43.799603173264671
 31
0.0
  0
LINE
  5
5E3
  8
3
 10
61.233090591137653
 20
39.665603173264678
 30
0.0
 11
48.017090591137631
 21
39.665603173264678
 31
0.0
  0
LINE
  5
5E4
  8
0
 10
60.800090591137661
 20
39.232603173264678
 30
0.0
 11
48.450090591137631
 21
39.232603173264678
 31
0.0
  0
LINE
  5
5EC
  8
0
 10
47.450090591137638
 20
43.232603173264671
 30
0.0
 11
47.450090591137617
 21
40.232603173264671
 31
0.0
  0
ARC
  5
5ED
  8
0
 10
60.850090591137629
 20
41.732603173264678
 30
0.0
 40
1.5
 50
293.57817800000009
 51
66.421821999999878
  0
LINE
  5
5EF
  8
0
 10
61.450090591137638
 20
43.582603173264673
 30
0.0
 11
61.450090591137638
 21
39.882603173264677
 31
0.0
  0
LINE
  5
5F0
  8
0
 10
48.450090591137631
 20
44.232603173264678
 30
0.0
 11
47.450090591137617
 21
43.232603173264671
 31
0.0
  0
LINE
  5
5F1
  8
0
 10
47.450090591137617
 20
40.232603173264671
 30
0.0
 11
48.450090591137631
 21
39.232603173264678
 31
0.0
  0
LINE
  5
5F3
  8
0
 10
48.450090591137631
 20
44.232603173264692
 30
0.0
 11
48.450090591137631
 21
39.232603173264678
 31
0.0
  0
CIRCLE
  5
5F4
  8
0
 10
79.355638591137634
 20
41.732603173264678
 30
0.0
 40
1.5
  0
LINE
  5
5F7
  8
0
 10
61.450090591137638
 20
43.582603173264673
 30
0.0
 11
60.800090591137632
 21
44.232603173264678
 31
0.0
  0
LINE
  5
5F8
  8
0
 10
61.450090591137638
 20
39.882603173264677
 30
0.0
 11
60.800090591137632
 21
39.232603173264678
 31
0.0
  0
LINE
  5
5F9
  8
0
 10
60.800090591137632
 20
44.232603173264678
 30
0.0
 11
60.800090591137639
 21
39.232603173264657
 31
0.0
  0
CIRCLE
  5
5FA
  8
0
 10
79.355638591137634
 20
41.732603173264678
 30
0.0
 40
1.8500000000000001
  0
ARC
  5
5FD
  8
2
 10
59.950090591137638
 20
41.732603173264678
 30
0.0
 40
1.5
 50
293.57817800000009
 51
66.421821999999878
  0
LINE
  5
63D
  8
0
 10
29.162363590120229
 20
42.454291009164727
 30
0.0
 11
29.162363590120229
 21
41.010915336190699
 31
0.0
  0
LINE
  5
63E
  8
0
 10
29.162363590118719
 20
41.010915337364708
 30
0.0
 11
27.912363590120229
 21
40.289227500877601
 31
0.0
  0
LINE
  5
63F
  8
0
 10
27.91236359113735
 20
40.28922750146593
 30
0.0
 11
26.66236359113735
 21
41.01091533795266
 31
0.0
  0
LINE
  5
640
  8
0
 10
26.662363592155231
 20
41.010915337365461
 30
0.0
 11
26.662363592155231
 21
42.454291010339503
 31
0.0
  0
LINE
  5
641
  8
0
 10
26.662363592155231
 20
42.45429100916455
 30
0.0
 11
27.912363592155231
 21
43.175978845651663
 31
0.0
  0
LINE
  5
642
  8
0
 10
27.91236359113735
 20
43.175978845063327
 30
0.0
 11
29.16236359113735
 21
42.45429100857659
 31
0.0
  0
LINE
  5
662
  8
2
 10
47.450090591137609
 20
40.289227501465497
 30
0.0
 11
49.950090591137638
 21
40.289227501465497
 31
0.0
  0
LINE
  5
663
  8
2
 10
47.450090591137638
 20
41.010915337365752
 30
0.0
 11
49.950090591137638
 21
41.010915337365752
 31
0.0
  0
LINE
  5
664
  8
2
 10
47.450090591137638
 20
42.454291009163981
 30
0.0
 11
49.950090591137638
 21
42.454291009163981
 31
0.0
  0
LINE
  5
665
  8
2
 10
47.450090591137638
 20
43.175978845063362
 30
0.0
 11
49.950090591137638
 21
43.175978845063369
 31
0.0
  0
LINE
  5
666
  8
2
 10
49.950090591137638
 20
43.175978845063369
 30
0.0
 11
49.950090591137638
 21
40.289227501465497
 31
0.0
  0
LINE
  5
66B
  8
1
 10
46.450090591137617
 20
63.246392173264681
 30
0.0
 11
63.350090591137629
 21
63.246392173264681
 31
0.0
  0
LINE
  5
66C
  8
0
 10
60.800090591137661
 20
60.746392173264681
 30
0.0
 11
48.450090591137631
 21
60.746392173264681
 31
0.0
  0
LINE
  5
66D
  8
3
 10
61.233090591137653
 20
61.179392173264681
 30
0.0
 11
48.017090591137631
 21
61.179392173264681
 31
0.0
  0
LINE
  5
66E
  8
3
 10
61.233090591137653
 20
65.313392173264674
 30
0.0
 11
48.017090591137631
 21
65.313392173264674
 31
0.0
  0
LINE
  5
66F
  8
0
 10
60.800090591137661
 20
65.746392173264681
 30
0.0
 11
48.450090591137631
 21
65.746392173264681
 31
0.0
  0
LINE
  5
670
  8
2
 10
49.950090591137652
 20
64.496392173264681
 30
0.0
 11
49.950090591137638
 21
61.996392173264681
 31
0.0
  0
LINE
  5
672
  8
0
 10
48.450090591137631
 20
65.746392173264695
 30
0.0
 11
48.450090591137631
 21
60.746392173264681
 31
0.0
  0
LINE
  5
673
  8
0
 10
47.450090591137638
 20
64.746392173264681
 30
0.0
 11
47.450090591137617
 21
61.746392173264681
 31
0.0
  0
LINE
  5
674
  8
2
 10
47.450090591137652
 20
61.996392173264681
 30
0.0
 11
49.950090591137652
 21
61.996392173264681
 31
0.0
  0
LINE
  5
675
  8
0
 10
47.450090591137617
 20
61.746392173264681
 30
0.0
 11
48.450090591137631
 21
60.746392173264681
 31
0.0
  0
LINE
  5
676
  8
2
 10
47.450090591137652
 20
64.496392173264681
 30
0.0
 11
49.950090591137652
 21
64.496392173264681
 31
0.0
  0
LINE
  5
678
  8
2
 10
47.450090591137631
 20
63.246392173264681
 30
0.0
 11
49.950090591137631
 21
63.246392173264681
 31
0.0
  0
LINE
  5
679
  8
0
 10
48.450090591137631
 20
65.746392173264681
 30
0.0
 11
47.450090591137617
 21
64.746392173264681
 31
0.0
  0
LINE
  5
67B
  8
0
 10
60.800090591137632
 20
65.746392173264681
 30
0.0
 11
60.800090591137639
 21
60.746392173264667
 31
0.0
  0
LINE
  5
67C
  8
0
 10
61.450090591137638
 20
65.09639217326469
 30
0.0
 11
61.450090591137638
 21
61.39639217326468
 31
0.0
  0
ARC
  5
67D
  8
0
 10
60.850090591137629
 20
63.246392173264681
 30
0.0
 40
1.5
 50
293.57817800000009
 51
66.421821999999878
  0
ARC
  5
67E
  8
2
 10
59.950090591137638
 20
63.246392173264681
 30
0.0
 40
1.5
 50
293.57817800000009
 51
66.421821999999878
  0
LINE
  5
67F
  8
0
 10
61.450090591137638
 20
61.39639217326468
 30
0.0
 11
60.800090591137632
 21
60.746392173264681
 31
0.0
  0
LINE
  5
680
  8
0
 10
61.450090591137638
 20
65.09639217326469
 30
0.0
 11
60.800090591137632
 21
65.746392173264681
 31
0.0
  0
LINE
  5
681
  8
1
 10
46.450090591137617
 20
20.15161817326468
 30
0.0
 11
63.350090591137629
 21
20.15161817326468
 31
0.0
  0
LINE
  5
682
  8
0
 10
60.800090591137661
 20
17.65161817326468
 30
0.0
 11
48.450090591137631
 21
17.65161817326468
 31
0.0
  0
LINE
  5
683
  8
3
 10
61.233090591137653
 20
18.08461817326468
 30
0.0
 11
48.017090591137631
 21
18.08461817326468
 31
0.0
  0
LINE
  5
684
  8
3
 10
61.233090591137653
 20
22.21861817326468
 30
0.0
 11
48.017090591137631
 21
22.21861817326468
 31
0.0
  0
LINE
  5
685
  8
0
 10
60.800090591137661
 20
22.65161817326468
 30
0.0
 11
48.450090591137631
 21
22.65161817326468
 31
0.0
  0
LINE
  5
688
  8
0
 10
48.450090591137631
 20
22.651618173264691
 30
0.0
 11
48.450090591137631
 21
17.65161817326468
 31
0.0
  0
LINE
  5
689
  8
0
 10
47.450090591137638
 20
21.65161817326468
 30
0.0
 11
47.450090591137617
 21
18.65161817326468
 31
0.0
  0
LINE
  5
68B
  8
0
 10
47.450090591137617
 20
18.65161817326468
 30
0.0
 11
48.450090591137631
 21
17.65161817326468
 31
0.0
  0
LINE
  5
68F
  8
0
 10
48.450090591137631
 20
22.65161817326468
 30
0.0
 11
47.450090591137617
 21
21.65161817326468
 31
0.0
  0
LINE
  5
691
  8
0
 10
60.800090591137632
 20
22.65161817326468
 30
0.0
 11
60.800090591137639
 21
17.651618173264659
 31
0.0
  0
LINE
  5
692
  8
0
 10
61.450090591137638
 20
22.001618173264681
 30
0.0
 11
61.450090591137638
 21
18.301618173264679
 31
0.0
  0
ARC
  5
693
  8
0
 10
60.850090591137629
 20
20.15161817326468
 30
0.0
 40
1.5
 50
293.57817800000009
 51
66.421821999999878
  0
ARC
  5
694
  8
2
 10
59.950090591137638
 20
20.15161817326468
 30
0.0
 40
1.5
 50
293.57817800000009
 51
66.421821999999878
  0
LINE
  5
695
  8
0
 10
61.450090591137638
 20
18.301618173264679
 30
0.0
 11
60.800090591137632
 21
17.65161817326468
 31
0.0
  0
LINE
  5
696
  8
0
 10
61.450090591137638
 20
22.001618173264681
 30
0.0
 11
60.800090591137632
 21
22.65161817326468
 31
0.0
  0
LINE
  5
7E4
  8
2
 10
49.950090591137652
 20
21.40161817326468
 30
0.0
 11
49.950090591137638
 21
18.90161817326468
 31
0.0
  0
LINE
  5
7E5
  8
2
 10
47.450090591137652
 20
18.90161817326468
 30
0.0
 11
49.950090591137652
 21
18.90161817326468
 31
0.0
  0
LINE
  5
7E6
  8
2
 10
47.450090591137652
 20
21.40161817326468
 30
0.0
 11
49.950090591137652
 21
21.40161817326468
 31
0.0
  0
LINE
  5
7E7
  8
2
 10
47.450090591137631
 20
20.15161817326468
 30
0.0
 11
49.950090591137631
 21
20.15161817326468
 31
0.0
  0
TEXT
  5
845
  8
0
 62
     3
 10
0.0
 20
0.0
 30
0.0
 40
5.0
  1
BST5A
  7
STANDARD1
  0
ENDSEC
  0
EOF
