  0
SECTION
  2
HEADER
  9
$ACADVER
  1
AC1009
  9
$INSBASE
 10
0.0
 20
0.0
 30
0.0
  9
$EXTMIN
 10
0.0
 20
-1.4802182810368341
 30
0.0
  9
$EXTMAX
 10
67.298457091761094
 20
45.579157110884502
 30
0.0
  9
$LIMMIN
 10
0.0
 20
0.0
  9
$LIMMAX
 10
75.0
 20
54.0
  9
$ORTHOMODE
 70
     1
  9
$REGENMODE
 70
     1
  9
$FILLMODE
 70
     1
  9
$QTEXTMODE
 70
     0
  9
$MIRRTEXT
 70
     0
  9
$DRAGMODE
 70
     2
  9
$LTSCALE
 40
2.0
  9
$OSMODE
 70
  3071
  9
$ATTMODE
 70
     1
  9
$TEXTSIZE
 40
0.2
  9
$TRACEWID
 40
0.05
  9
$TEXTSTYLE
  7
STANDARD
  9
$CLAYER
  8
0
  9
$CELTYPE
  6
BYLAYER
  9
$CECOLOR
 62
   256
  9
$DIMSCALE
 40
0.2
  9
$DIMASZ
 40
3.0
  9
$DIMEXO
 40
2.0
  9
$DIMDLI
 40
10.0
  9
$DIMRND
 40
0.0
  9
$DIMDLE
 40
0.0
  9
$DIMEXE
 40
2.0
  9
$DIMTP
 40
0.0
  9
$DIMTM
 40
0.0
  9
$DIMTXT
 40
3.0
  9
$DIMCEN
 40
0.09
  9
$DIMTSZ
 40
0.0
  9
$DIMTOL
 70
     0
  9
$DIMLIM
 70
     0
  9
$DIMTIH
 70
     0
  9
$DIMTOH
 70
     0
  9
$DIMSE1
 70
     0
  9
$DIMSE2
 70
     0
  9
$DIMTAD
 70
     1
  9
$DIMZIN
 70
     0
  9
$DIMBLK
  1

  9
$DIMASO
 70
     0
  9
$DIMSHO
 70
     0
  9
$DIMPOST
  1

  9
$DIMAPOST
  1

  9
$DIMALT
 70
     0
  9
$DIMALTD
 70
     2
  9
$DIMALTF
 40
25.399999999999999
  9
$DIMLFAC
 40
1.0
  9
$DIMTOFL
 70
     1
  9
$DIMTVP
 40
1.6000000000000001
  9
$DIMTIX
 70
     1
  9
$DIMSOXD
 70
     0
  9
$DIMSAH
 70
     0
  9
$DIMBLK1
  1

  9
$DIMBLK2
  1

  9
$DIMSTYLE
  2
STANDARD
  9
$DIMCLRD
 70
     0
  9
$DIMCLRE
 70
     0
  9
$DIMCLRT
 70
     0
  9
$DIMTFAC
 40
1.0
  9
$DIMGAP
 40
0.09
  9
$LUNITS
 70
     2
  9
$LUPREC
 70
     4
  9
$SKETCHINC
 40
0.1
  9
$FILLETRAD
 40
0.0
  9
$AUNITS
 70
     0
  9
$AUPREC
 70
     0
  9
$MENU
  1
E:\r13\win\SUPPORT\ACAD
  9
$ELEVATION
 40
0.0
  9
$PELEVATION
 40
0.0
  9
$THICKNESS
 40
0.0
  9
$LIMCHECK
 70
     0
  9
$BLIPMODE
 70
     0
  9
$CHAMFERA
 40
0.0
  9
$CHAMFERB
 40
0.0
  9
$SKPOLY
 70
     0
  9
$TDCREATE
 40
2449840.618888889
  9
$TDUPDATE
 40
2456598.4033033219
  9
$TDINDWG
 40
0.1780432523
  9
$TDUSRTIMER
 40
0.1780432523
  9
$USRTIMER
 70
     1
  9
$ANGBASE
 50
0.0
  9
$ANGDIR
 70
     0
  9
$PDMODE
 70
     0
  9
$PDSIZE
 40
0.0
  9
$PLINEWID
 40
0.0
  9
$COORDS
 70
     1
  9
$SPLFRAME
 70
     0
  9
$SPLINETYPE
 70
     6
  9
$SPLINESEGS
 70
     8
  9
$ATTDIA
 70
     0
  9
$ATTREQ
 70
     1
  9
$HANDLING
 70
     1
  9
$HANDSEED
  5
71D
  9
$SURFTAB1
 70
     6
  9
$SURFTAB2
 70
     6
  9
$SURFTYPE
 70
     6
  9
$SURFU
 70
     6
  9
$SURFV
 70
     6
  9
$UCSNAME
  2

  9
$UCSORG
 10
0.0
 20
0.0
 30
0.0
  9
$UCSXDIR
 10
1.0
 20
0.0
 30
0.0
  9
$UCSYDIR
 10
0.0
 20
1.0
 30
0.0
  9
$PUCSNAME
  2

  9
$PUCSORG
 10
0.0
 20
0.0
 30
0.0
  9
$PUCSXDIR
 10
1.0
 20
0.0
 30
0.0
  9
$PUCSYDIR
 10
0.0
 20
1.0
 30
0.0
  9
$USERI1
 70
     0
  9
$USERI2
 70
     1
  9
$USERI3
 70
     1
  9
$USERI4
 70
     0
  9
$USERI5
 70
     0
  9
$USERR1
 40
0.0
  9
$USERR2
 40
0.0
  9
$USERR3
 40
0.0
  9
$USERR4
 40
0.0
  9
$USERR5
 40
0.0
  9
$WORLDVIEW
 70
     1
  9
$SHADEDGE
 70
     3
  9
$SHADEDIF
 70
    70
  9
$TILEMODE
 70
     1
  9
$MAXACTVP
 70
    16
  9
$PLIMCHECK
 70
     0
  9
$PEXTMIN
 10
1.0000000000000000E+020
 20
1.0000000000000000E+020
 30
1.0000000000000000E+020
  9
$PEXTMAX
 10
-1.0000000000000000E+020
 20
-1.0000000000000000E+020
 30
-1.0000000000000000E+020
  9
$PLIMMIN
 10
0.0
 20
0.0
  9
$PLIMMAX
 10
12.0
 20
9.0
  9
$UNITMODE
 70
     0
  9
$VISRETAIN
 70
     0
  9
$PLINEGEN
 70
     0
  9
$PSLTSCALE
 70
     0
  0
ENDSEC
  0
SECTION
  2
TABLES
  0
TABLE
  2
VPORT
 70
     1
  0
VPORT
  2
*ACTIVE
 70
     0
 10
0.0
 20
0.0
 11
1.0
 21
1.0
 12
39.036165471588582
 22
26.259658875478959
 13
0.0
 23
0.0
 14
2.0
 24
2.0
 15
2.0
 25
2.0
 16
0.0
 26
0.0
 36
1.0
 17
0.0
 27
0.0
 37
0.0
 40
55.978266843203883
 41
1.831871345029239
 42
50.0
 43
0.0
 44
0.0
 50
0.0
 51
0.0
 71
     0
 72
   100
 73
     1
 74
     0
 75
     0
 76
     0
 77
     0
 78
     2
  0
ENDTAB
  0
TABLE
  2
LTYPE
 70
     4
  0
LTYPE
  2
CONTINUOUS
 70
     0
  3
Solid Line
 72
    65
 73
     0
 40
0.0
  0
LTYPE
  2
CENTER
 70
     0
  3
____ _ ____ _ ____ _ ____ _ ____ _ ____ _ ____
 72
    65
 73
     4
 40
2.0
 49
1.25
 49
-0.25
 49
0.25
 49
-0.25
  0
LTYPE
  2
HIDDEN
 70
     0
  3
_ _ _ _ _ _ _ _ _ _ _ _ _ _ _ _ _ _ _ _ _ _ _
 72
    65
 73
     2
 40
0.375
 49
0.25
 49
-0.125
  0
LTYPE
  2
PHANTOM2
 70
     0
  3
___ _ _ ___ _ _ ___ _ _ ___ _ _
 72
    65
 73
     6
 40
1.25
 49
0.625
 49
-0.125
 49
0.125
 49
-0.125
 49
0.125
 49
-0.125
  0
ENDTAB
  0
TABLE
  2
LAYER
 70
     4
  0
LAYER
  2
0
 70
     0
 62
     7
  6
CONTINUOUS
  0
LAYER
  2
1
 70
     0
 62
     1
  6
CENTER
  0
LAYER
  2
2
 70
     0
 62
     2
  6
HIDDEN
  0
LAYER
  2
3
 70
     0
 62
     3
  6
CONTINUOUS
  0
ENDTAB
  0
TABLE
  2
STYLE
 70
     2
  0
STYLE
  2
STANDARD
 70
     0
 40
0.0
 41
1.0
 50
0.0
 71
     0
 42
0.2
  3
TXT
  4
BIGFONT
  0
STYLE
  2
STANDARD1
 70
     0
 40
0.0
 41
1.0
 50
0.0
 71
     0
 42
3.0
  3
txt
  4

  0
ENDTAB
  0
TABLE
  2
VIEW
 70
     1
  0
VIEW
  2
ALL
 70
     0
 40
54.0
 10
44.198318999999998
 20
27.0
 41
0.0
 11
0.0
 21
0.0
 31
1.0
 12
0.0
 22
0.0
 32
0.0
 42
0.0
 43
0.0
 44
0.0
 50
0.0
 71
     0
  0
ENDTAB
  0
TABLE
  2
UCS
 70
     0
  0
ENDTAB
  0
TABLE
  2
APPID
 70
     4
  0
APPID
  2
ACAD
 70
     0
  0
APPID
  2
DCO15
 70
     0
  0
APPID
  2
ACAD_MLEADERVER
 70
     0
  0
APPID
  2
ACAD_NAV_VCDISPLAY
 70
     0
  0
ENDTAB
  0
TABLE
  2
DIMSTYLE
 70
     1
  0
DIMSTYLE
  2
STANDARD
 70
     0
  3

  4

  5

  6

  7

 40
1.0
 41
0.18
 42
0.0625
 43
0.38
 44
0.18
 45
0.0
 46
0.0
 47
0.0
 48
0.0
140
0.18
141
0.09
142
0.0
143
25.399999999999999
144
1.0
145
0.0
146
1.0
147
0.09
 71
     0
 72
     0
 73
     1
 74
     1
 75
     0
 76
     0
 77
     0
 78
     0
170
     0
171
     2
172
     0
173
     0
174
     0
175
     0
176
     0
177
     0
178
     0
  0
ENDTAB
  0
ENDSEC
  0
SECTION
  2
BLOCKS
  0
BLOCK
  8
0
  2
$MODEL_SPACE
 70
     0
 10
0.0
 20
0.0
 30
0.0
  3
$MODEL_SPACE
  1

  0
ENDBLK
  5
2D4
  8
0
  0
BLOCK
 67
     1
  8
0
  2
$PAPER_SPACE
 70
     0
 10
0.0
 20
0.0
 30
0.0
  3
$PAPER_SPACE
  1

  0
ENDBLK
  5
2D2
 67
     1
  8
0
  0
ENDSEC
  0
SECTION
  2
ENTITIES
  0
LINE
  5
4CD
  8
1
 10
18.926904091761092
 20
28.911941110884491
 30
0.0
 11
24.926904091761092
 21
28.911941110884491
 31
0.0
  0
LINE
  5
4CE
  8
1
 10
34.673511091761092
 20
28.911941110884491
 30
0.0
 11
53.473511091761083
 21
28.911941110884491
 31
0.0
  0
LINE
  5
4CF
  8
1
 10
61.298457091761087
 20
28.911941110884491
 30
0.0
 11
67.298457091761094
 21
28.911941110884491
 31
0.0
  0
LINE
  5
4D0
  8
1
 10
64.298457091761094
 20
31.911941110884491
 30
0.0
 11
64.298457091761094
 21
25.911941110884491
 31
0.0
  0
LINE
  5
4D1
  8
1
 10
21.926904091761092
 20
31.911941110884491
 30
0.0
 11
21.926904091761092
 21
25.911941110884491
 31
0.0
  0
CIRCLE
  5
4D2
  8
3
 10
64.298457091761094
 20
28.911941110884491
 30
0.0
 40
1.6209999999999991
  0
CIRCLE
  5
4D3
  8
0
 10
64.298457091761094
 20
28.911941110884491
 30
0.0
 40
2.0
  0
CIRCLE
  5
4D4
  8
3
 10
21.926904091761092
 20
28.911941110884491
 30
0.0
 40
1.6209999999999991
  0
CIRCLE
  5
4D5
  8
0
 10
21.926904091761092
 20
28.911941110884491
 30
0.0
 40
2.0
  0
LINE
  5
4D6
  8
3
 10
51.55251109176109
 20
30.53294111088449
 30
0.0
 11
35.79451109176108
 21
30.53294111088449
 31
0.0
  0
LINE
  5
4D7
  8
0
 10
51.17351109176105
 20
30.911941110884491
 30
0.0
 11
36.173511091761092
 21
30.911941110884491
 31
0.0
  0
LINE
  5
4D8
  8
3
 10
51.55251109176109
 20
27.290941110884489
 30
0.0
 11
35.79451109176108
 21
27.290941110884489
 31
0.0
  0
LINE
  5
4D9
  8
0
 10
51.173511091761092
 20
26.911941110884491
 30
0.0
 11
36.173511091761092
 21
26.911941110884491
 31
0.0
  0
ARC
  5
4E0
  8
0
 10
51.223511091761083
 20
28.911941110884491
 30
0.0
 40
1.25
 50
291.1001960000001
 51
68.899803999999833
  0
LINE
  5
4E3
  8
0
 10
35.673511091761078
 20
30.411941110884491
 30
0.0
 11
35.673511091761078
 21
27.411941110884491
 31
0.0
  0
LINE
  5
4E4
  8
0
 10
36.173511091761092
 20
30.911941110884491
 30
0.0
 11
35.673511091761078
 21
30.411941110884491
 31
0.0
  0
LINE
  5
4E5
  8
0
 10
35.673511091761078
 20
27.411941110884491
 30
0.0
 11
36.173511091761092
 21
26.911941110884491
 31
0.0
  0
LINE
  5
4E9
  8
0
 10
36.1735110917611
 20
30.911941110884499
 30
0.0
 11
36.173511091761092
 21
26.911941110884491
 31
0.0
  0
LINE
  5
4EA
  8
0
 10
51.673511091761092
 20
30.411941110884491
 30
0.0
 11
51.673511091761092
 21
27.411941110884491
 31
0.0
  0
LINE
  5
4EB
  8
0
 10
51.673511091761092
 20
30.411941110884491
 30
0.0
 11
51.173511091761092
 21
30.911941110884491
 31
0.0
  0
LINE
  5
4EC
  8
0
 10
51.673511091761092
 20
27.411941110884491
 30
0.0
 11
51.173511091761092
 21
26.911941110884491
 31
0.0
  0
LINE
  5
4ED
  8
0
 10
51.173511091761092
 20
30.911941110884491
 30
0.0
 11
51.173511091761092
 21
26.911941110884491
 31
0.0
  0
CIRCLE
  5
4EE
  8
0
 10
64.298457091761094
 20
28.911941110884491
 30
0.0
 40
1.25
  0
CIRCLE
  5
4EF
  8
0
 10
64.298457091761094
 20
28.911941110884491
 30
0.0
 40
1.5
  0
ARC
  5
4F2
  8
2
 10
50.423511091761092
 20
28.911941110884491
 30
0.0
 40
1.25
 50
291.1001960000001
 51
68.899803999999833
  0
LINE
  5
526
  8
0
 10
22.92690409094681
 20
29.489291379604499
 30
0.0
 11
22.92690409094681
 21
28.334590841225321
 31
0.0
  0
LINE
  5
527
  8
0
 10
22.9269040909459
 20
28.334590842164591
 30
0.0
 11
21.92690409094681
 21
27.75724057297483
 31
0.0
  0
LINE
  5
528
  8
0
 10
21.9269040917608
 20
27.75724057344549
 30
0.0
 11
20.9269040917608
 21
28.33459084263492
 31
0.0
  0
LINE
  5
529
  8
0
 10
20.926904092574802
 20
28.334590842165159
 30
0.0
 11
20.926904092574802
 21
29.489291380544351
 31
0.0
  0
LINE
  5
52A
  8
0
 10
20.926904092574802
 20
29.489291379604389
 30
0.0
 11
21.926904092574802
 21
30.06664164879416
 31
0.0
  0
LINE
  5
52B
  8
0
 10
21.9269040917608
 20
30.06664164832349
 30
0.0
 11
22.9269040917608
 21
29.489291379134059
 31
0.0
  0
LINE
  5
538
  8
2
 10
37.673511091761092
 20
30.066641648323401
 30
0.0
 11
37.673511091760972
 21
27.757240573445401
 31
0.0
  0
LINE
  5
539
  8
2
 10
35.673511091761078
 20
27.757240573445401
 30
0.0
 11
37.673511091760972
 21
27.757240573445401
 31
0.0
  0
LINE
  5
53A
  8
2
 10
35.673511091761078
 20
28.334590842165191
 30
0.0
 11
37.673511091761029
 21
28.334590842165191
 31
0.0
  0
LINE
  5
53B
  8
2
 10
35.673511091761142
 20
29.489291379604019
 30
0.0
 11
37.673511091761092
 21
29.489291379604019
 31
0.0
  0
LINE
  5
53C
  8
2
 10
35.673511091761142
 20
30.066641648323351
 30
0.0
 11
37.673511091761092
 21
30.066641648323401
 31
0.0
  0
LINE
  5
542
  8
1
 10
34.673511091761092
 20
43.579157110884488
 30
0.0
 11
53.473511091761083
 21
43.579157110884488
 31
0.0
  0
LINE
  5
543
  8
0
 10
51.173511091761092
 20
41.579157110884488
 30
0.0
 11
36.173511091761092
 21
41.579157110884488
 31
0.0
  0
LINE
  5
544
  8
3
 10
51.55251109176109
 20
41.958157110884493
 30
0.0
 11
35.79451109176108
 21
41.958157110884493
 31
0.0
  0
LINE
  5
545
  8
3
 10
51.55251109176109
 20
45.20015711088449
 30
0.0
 11
35.79451109176108
 21
45.20015711088449
 31
0.0
  0
LINE
  5
546
  8
0
 10
51.17351109176105
 20
45.579157110884488
 30
0.0
 11
36.173511091761092
 21
45.579157110884488
 31
0.0
  0
LINE
  5
547
  8
2
 10
35.673511091761142
 20
43.579157110884488
 30
0.0
 11
37.673511091761092
 21
43.579157110884488
 31
0.0
  0
LINE
  5
548
  8
2
 10
35.673511091761078
 20
44.579157110884488
 30
0.0
 11
37.673511091761029
 21
44.579157110884552
 31
0.0
  0
LINE
  5
549
  8
2
 10
35.673511091761078
 20
42.579157110884502
 30
0.0
 11
37.673511091760972
 21
42.579157110884502
 31
0.0
  0
LINE
  5
54B
  8
0
 10
35.673511091761078
 20
45.079157110884488
 30
0.0
 11
35.673511091761078
 21
42.079157110884488
 31
0.0
  0
LINE
  5
54C
  8
0
 10
36.1735110917611
 20
45.579157110884502
 30
0.0
 11
36.173511091761092
 21
41.579157110884488
 31
0.0
  0
LINE
  5
54D
  8
0
 10
35.673511091761078
 20
42.079157110884488
 30
0.0
 11
36.173511091761092
 21
41.579157110884488
 31
0.0
  0
LINE
  5
54E
  8
0
 10
36.173511091761092
 20
45.579157110884488
 30
0.0
 11
35.673511091761078
 21
45.079157110884502
 31
0.0
  0
LINE
  5
54F
  8
2
 10
37.673511091761078
 20
44.579157110884552
 30
0.0
 11
37.673511091760979
 21
42.579157110884502
 31
0.0
  0
LINE
  5
552
  8
0
 10
51.673511091761092
 20
45.079157110884502
 30
0.0
 11
51.673511091761092
 21
42.079157110884488
 31
0.0
  0
ARC
  5
553
  8
0
 10
51.223511091761083
 20
43.579157110884488
 30
0.0
 40
1.25
 50
291.1001960000001
 51
68.899803999999833
  0
LINE
  5
554
  8
0
 10
51.173511091761092
 20
45.579157110884488
 30
0.0
 11
51.173511091761092
 21
41.579157110884488
 31
0.0
  0
ARC
  5
555
  8
2
 10
50.423511091761092
 20
43.579157110884488
 30
0.0
 40
1.25
 50
291.1001960000001
 51
68.899803999999833
  0
LINE
  5
556
  8
0
 10
51.673511091761092
 20
42.079157110884488
 30
0.0
 11
51.173511091761092
 21
41.579157110884488
 31
0.0
  0
LINE
  5
557
  8
0
 10
51.673511091761092
 20
45.079157110884502
 30
0.0
 11
51.173511091761092
 21
45.579157110884488
 31
0.0
  0
LINE
  5
558
  8
1
 10
34.673511091761092
 20
15.60643511088449
 30
0.0
 11
53.473511091761083
 21
15.60643511088449
 31
0.0
  0
LINE
  5
559
  8
0
 10
51.173511091761092
 20
13.60643511088449
 30
0.0
 11
36.173511091761092
 21
13.60643511088449
 31
0.0
  0
LINE
  5
55A
  8
3
 10
51.55251109176109
 20
13.98543511088449
 30
0.0
 11
35.79451109176108
 21
13.98543511088449
 31
0.0
  0
LINE
  5
55B
  8
3
 10
51.55251109176109
 20
17.227435110884478
 30
0.0
 11
35.79451109176108
 21
17.227435110884478
 31
0.0
  0
LINE
  5
55C
  8
0
 10
51.17351109176105
 20
17.60643511088449
 30
0.0
 11
36.173511091761092
 21
17.60643511088449
 31
0.0
  0
LINE
  5
561
  8
0
 10
35.673511091761078
 20
17.10643511088448
 30
0.0
 11
35.673511091761078
 21
14.10643511088449
 31
0.0
  0
LINE
  5
562
  8
0
 10
36.1735110917611
 20
17.60643511088449
 30
0.0
 11
36.173511091761092
 21
13.60643511088449
 31
0.0
  0
LINE
  5
563
  8
0
 10
35.673511091761078
 20
14.10643511088449
 30
0.0
 11
36.173511091761092
 21
13.60643511088449
 31
0.0
  0
LINE
  5
564
  8
0
 10
36.173511091761092
 20
17.60643511088449
 30
0.0
 11
35.673511091761078
 21
17.10643511088449
 31
0.0
  0
LINE
  5
568
  8
0
 10
51.673511091761092
 20
17.10643511088449
 30
0.0
 11
51.673511091761092
 21
14.10643511088449
 31
0.0
  0
ARC
  5
569
  8
0
 10
51.223511091761083
 20
15.60643511088449
 30
0.0
 40
1.25
 50
291.1001960000001
 51
68.899803999999833
  0
LINE
  5
56A
  8
0
 10
51.173511091761092
 20
17.60643511088449
 30
0.0
 11
51.173511091761092
 21
13.60643511088449
 31
0.0
  0
ARC
  5
56B
  8
2
 10
50.423511091761092
 20
15.60643511088449
 30
0.0
 40
1.25
 50
291.1001960000001
 51
68.899803999999833
  0
LINE
  5
56C
  8
0
 10
51.673511091761092
 20
14.10643511088449
 30
0.0
 11
51.173511091761092
 21
13.60643511088449
 31
0.0
  0
LINE
  5
56D
  8
0
 10
51.673511091761092
 20
17.10643511088449
 30
0.0
 11
51.173511091761092
 21
17.60643511088449
 31
0.0
  0
LINE
  5
654
  8
2
 10
35.673511091761142
 20
15.60643511088449
 30
0.0
 11
37.673511091761092
 21
15.60643511088449
 31
0.0
  0
LINE
  5
655
  8
2
 10
35.673511091761078
 20
16.60643511088449
 30
0.0
 11
37.673511091761029
 21
16.60643511088454
 31
0.0
  0
LINE
  5
656
  8
2
 10
35.673511091761078
 20
14.60643511088449
 30
0.0
 11
37.673511091760972
 21
14.60643511088449
 31
0.0
  0
LINE
  5
657
  8
2
 10
37.673511091761078
 20
16.60643511088454
 30
0.0
 11
37.673511091760979
 21
14.60643511088449
 31
0.0
  0
TEXT
  5
6B5
  8
0
 62
     3
 10
0.0
 20
0.0
 30
0.0
 40
5.0
  1
BST4AL
  7
STANDARD1
  0
ENDSEC
  0
EOF
