  0
SECTION
  2
HEADER
  9
$ACADVER
  1
AC1009
  9
$INSBASE
 10
0.0
 20
0.0
 30
0.0
  9
$EXTMIN
 10
0.0
 20
-1.4802182810368341
 30
0.0
  9
$EXTMAX
 10
56.371737108537722
 20
34.139624000233653
 30
0.0
  9
$LIMMIN
 10
0.0
 20
0.0
  9
$LIMMAX
 10
187.5
 20
135.0
  9
$ORTHOMODE
 70
     1
  9
$REGENMODE
 70
     1
  9
$FILLMODE
 70
     1
  9
$QTEXTMODE
 70
     0
  9
$MIRRTEXT
 70
     0
  9
$DRAGMODE
 70
     2
  9
$LTSCALE
 40
2.0
  9
$OSMODE
 70
  3071
  9
$ATTMODE
 70
     1
  9
$TEXTSIZE
 40
4.0
  9
$TRACEWID
 40
0.05
  9
$TEXTSTYLE
  7
STANDARD
  9
$CLAYER
  8
0
  9
$CELTYPE
  6
BYLAYER
  9
$CECOLOR
 62
   256
  9
$DIMSCALE
 40
0.5
  9
$DIMASZ
 40
3.0
  9
$DIMEXO
 40
2.0
  9
$DIMDLI
 40
0.38
  9
$DIMRND
 40
0.0
  9
$DIMDLE
 40
0.0
  9
$DIMEXE
 40
2.0
  9
$DIMTP
 40
0.0
  9
$DIMTM
 40
0.0
  9
$DIMTXT
 40
3.0
  9
$DIMCEN
 40
0.0
  9
$DIMTSZ
 40
0.0
  9
$DIMTOL
 70
     0
  9
$DIMLIM
 70
     0
  9
$DIMTIH
 70
     0
  9
$DIMTOH
 70
     0
  9
$DIMSE1
 70
     0
  9
$DIMSE2
 70
     0
  9
$DIMTAD
 70
     1
  9
$DIMZIN
 70
     0
  9
$DIMBLK
  1

  9
$DIMASO
 70
     0
  9
$DIMSHO
 70
     0
  9
$DIMPOST
  1

  9
$DIMAPOST
  1

  9
$DIMALT
 70
     0
  9
$DIMALTD
 70
     2
  9
$DIMALTF
 40
25.399999999999999
  9
$DIMLFAC
 40
1.0
  9
$DIMTOFL
 70
     0
  9
$DIMTVP
 40
1.6000000000000001
  9
$DIMTIX
 70
     1
  9
$DIMSOXD
 70
     0
  9
$DIMSAH
 70
     0
  9
$DIMBLK1
  1

  9
$DIMBLK2
  1

  9
$DIMSTYLE
  2
STANDARD
  9
$DIMCLRD
 70
     0
  9
$DIMCLRE
 70
     0
  9
$DIMCLRT
 70
     0
  9
$DIMTFAC
 40
1.0
  9
$DIMGAP
 40
0.09
  9
$LUNITS
 70
     2
  9
$LUPREC
 70
     4
  9
$SKETCHINC
 40
0.1
  9
$FILLETRAD
 40
1.0
  9
$AUNITS
 70
     0
  9
$AUPREC
 70
     0
  9
$MENU
  1
E:\r13\win\SUPPORT\ACAD
  9
$ELEVATION
 40
0.0
  9
$PELEVATION
 40
0.0
  9
$THICKNESS
 40
0.0
  9
$LIMCHECK
 70
     0
  9
$BLIPMODE
 70
     0
  9
$CHAMFERA
 40
0.0
  9
$CHAMFERB
 40
0.0
  9
$SKPOLY
 70
     0
  9
$TDCREATE
 40
2449840.6143865739
  9
$TDUPDATE
 40
2456598.3999077892
  9
$TDINDWG
 40
0.2618644097
  9
$TDUSRTIMER
 40
0.2618644097
  9
$USRTIMER
 70
     1
  9
$ANGBASE
 50
0.0
  9
$ANGDIR
 70
     0
  9
$PDMODE
 70
     0
  9
$PDSIZE
 40
0.0
  9
$PLINEWID
 40
0.0
  9
$COORDS
 70
     1
  9
$SPLFRAME
 70
     0
  9
$SPLINETYPE
 70
     6
  9
$SPLINESEGS
 70
     8
  9
$ATTDIA
 70
     0
  9
$ATTREQ
 70
     1
  9
$HANDLING
 70
     1
  9
$HANDSEED
  5
14FC
  9
$SURFTAB1
 70
     6
  9
$SURFTAB2
 70
     6
  9
$SURFTYPE
 70
     6
  9
$SURFU
 70
     6
  9
$SURFV
 70
     6
  9
$UCSNAME
  2

  9
$UCSORG
 10
0.0
 20
0.0
 30
0.0
  9
$UCSXDIR
 10
1.0
 20
0.0
 30
0.0
  9
$UCSYDIR
 10
0.0
 20
1.0
 30
0.0
  9
$PUCSNAME
  2

  9
$PUCSORG
 10
0.0
 20
0.0
 30
0.0
  9
$PUCSXDIR
 10
1.0
 20
0.0
 30
0.0
  9
$PUCSYDIR
 10
0.0
 20
1.0
 30
0.0
  9
$USERI1
 70
     0
  9
$USERI2
 70
     1
  9
$USERI3
 70
     1
  9
$USERI4
 70
     0
  9
$USERI5
 70
     0
  9
$USERR1
 40
0.0
  9
$USERR2
 40
0.0
  9
$USERR3
 40
0.0
  9
$USERR4
 40
0.0
  9
$USERR5
 40
0.0
  9
$WORLDVIEW
 70
     1
  9
$SHADEDGE
 70
     3
  9
$SHADEDIF
 70
    70
  9
$TILEMODE
 70
     1
  9
$MAXACTVP
 70
    16
  9
$PLIMCHECK
 70
     0
  9
$PEXTMIN
 10
1.0000000000000000E+020
 20
1.0000000000000000E+020
 30
1.0000000000000000E+020
  9
$PEXTMAX
 10
-1.0000000000000000E+020
 20
-1.0000000000000000E+020
 30
-1.0000000000000000E+020
  9
$PLIMMIN
 10
0.0
 20
0.0
  9
$PLIMMAX
 10
12.0
 20
9.0
  9
$UNITMODE
 70
     0
  9
$VISRETAIN
 70
     0
  9
$PLINEGEN
 70
     0
  9
$PSLTSCALE
 70
     0
  0
ENDSEC
  0
SECTION
  2
TABLES
  0
TABLE
  2
VPORT
 70
     1
  0
VPORT
  2
*ACTIVE
 70
     0
 10
0.0
 20
0.0
 11
1.0
 21
1.0
 12
97.52905416604365
 22
66.75636307133405
 13
0.0
 23
0.0
 14
5.0
 24
5.0
 15
5.0
 25
5.0
 16
0.0
 26
0.0
 36
1.0
 17
0.0
 27
0.0
 37
0.0
 40
137.71137496815999
 41
1.831871345029239
 42
50.0
 43
0.0
 44
0.0
 50
0.0
 51
0.0
 71
     0
 72
   100
 73
     1
 74
     0
 75
     0
 76
     0
 77
     0
 78
     0
  0
ENDTAB
  0
TABLE
  2
LTYPE
 70
     4
  0
LTYPE
  2
CONTINUOUS
 70
     0
  3
Solid Line
 72
    65
 73
     0
 40
0.0
  0
LTYPE
  2
CENTER
 70
     0
  3
____ _ ____ _ ____ _ ____ _ ____ _ ____ _ ____
 72
    65
 73
     4
 40
2.0
 49
1.25
 49
-0.25
 49
0.25
 49
-0.25
  0
LTYPE
  2
HIDDEN
 70
     0
  3
_ _ _ _ _ _ _ _ _ _ _ _ _ _ _ _ _ _ _ _ _ _ _
 72
    65
 73
     2
 40
0.375
 49
0.25
 49
-0.125
  0
LTYPE
  2
PHANTOM2
 70
     0
  3
___ _ _ ___ _ _ ___ _ _ ___ _ _
 72
    65
 73
     6
 40
1.25
 49
0.625
 49
-0.125
 49
0.125
 49
-0.125
 49
0.125
 49
-0.125
  0
ENDTAB
  0
TABLE
  2
LAYER
 70
     4
  0
LAYER
  2
0
 70
     0
 62
     7
  6
CONTINUOUS
  0
LAYER
  2
1
 70
     0
 62
     1
  6
CENTER
  0
LAYER
  2
3
 70
     0
 62
     3
  6
CONTINUOUS
  0
LAYER
  2
2
 70
     0
 62
     2
  6
HIDDEN
  0
ENDTAB
  0
TABLE
  2
STYLE
 70
     2
  0
STYLE
  2
STANDARD
 70
     0
 40
0.0
 41
1.0
 50
0.0
 71
     0
 42
4.0
  3
TXT
  4
BIGFONT
  0
STYLE
  2
STANDARD1
 70
     0
 40
0.0
 41
1.0
 50
0.0
 71
     0
 42
3.0
  3
txt
  4

  0
ENDTAB
  0
TABLE
  2
VIEW
 70
     1
  0
VIEW
  2
ALL
 70
     0
 40
179.66152299999999
 10
141.903918
 20
89.830760999999995
 41
0.0
 11
0.0
 21
0.0
 31
1.0
 12
0.0
 22
0.0
 32
0.0
 42
0.0
 43
0.0
 44
0.0
 50
0.0
 71
     0
  0
ENDTAB
  0
TABLE
  2
UCS
 70
     0
  0
ENDTAB
  0
TABLE
  2
APPID
 70
     4
  0
APPID
  2
ACAD
 70
     0
  0
APPID
  2
DCO15
 70
     0
  0
APPID
  2
ACAD_MLEADERVER
 70
     0
  0
APPID
  2
ACAD_NAV_VCDISPLAY
 70
     0
  0
ENDTAB
  0
TABLE
  2
DIMSTYLE
 70
     1
  0
DIMSTYLE
  2
STANDARD
 70
     0
  3

  4

  5

  6

  7

 40
1.0
 41
0.18
 42
0.0625
 43
0.38
 44
0.18
 45
0.0
 46
0.0
 47
0.0
 48
0.0
140
0.18
141
0.09
142
0.0
143
25.399999999999999
144
1.0
145
0.0
146
1.0
147
0.09
 71
     0
 72
     0
 73
     1
 74
     1
 75
     0
 76
     0
 77
     0
 78
     0
170
     0
171
     2
172
     0
173
     0
174
     0
175
     0
176
     0
177
     0
178
     0
  0
ENDTAB
  0
ENDSEC
  0
SECTION
  2
BLOCKS
  0
BLOCK
  8
0
  2
$MODEL_SPACE
 70
     0
 10
0.0
 20
0.0
 30
0.0
  3
$MODEL_SPACE
  1

  0
ENDBLK
  5
1BD
  8
0
  0
BLOCK
 67
     1
  8
0
  2
$PAPER_SPACE
 70
     0
 10
0.0
 20
0.0
 30
0.0
  3
$PAPER_SPACE
  1

  0
ENDBLK
  5
1BB
 67
     1
  8
0
  0
ENDSEC
  0
SECTION
  2
ENTITIES
  0
ARC
  5
136F
  8
2
 10
34.300522844256278
 20
29.639624000233649
 30
0.0
 40
1.5000000000000231
 50
59.059821394894612
 51
300.94017860510547
  0
LINE
  5
1370
  8
0
 10
34.571737108537718
 20
31.48962400023365
 30
0.0
 11
35.071737108537718
 21
31.48962400023365
 31
0.0
  0
LINE
  5
1371
  8
0
 10
35.371737108537701
 20
28.589624000233648
 30
0.0
 11
35.371737108537701
 21
30.68962400023365
 31
0.0
  0
LINE
  5
1372
  8
0
 10
35.071737108537718
 20
27.789624000233669
 30
0.0
 11
35.071737108537718
 21
31.48962400023365
 31
0.0
  0
LINE
  5
1373
  8
0
 10
33.921737108537677
 20
27.139624000233649
 30
0.0
 11
33.921737108537677
 21
32.139624000233653
 31
0.0
  0
ARC
  5
1374
  8
0
 10
34.300522844256278
 20
29.639624000233681
 30
0.0
 40
1.5000000000000131
 50
300.94017860510507
 51
315.57299599919412
  0
ARC
  5
1375
  8
0
 10
34.300522844256278
 20
29.639624000233649
 30
0.0
 40
1.5000000000000231
 50
44.427004000805837
 51
59.059821394894257
  0
LINE
  5
1376
  8
0
 10
34.571737108537718
 20
27.78962400023369
 30
0.0
 11
35.071737108537718
 21
27.78962400023368
 31
0.0
  0
LINE
  5
1377
  8
0
 10
33.921737108537677
 20
27.139624000233649
 30
0.0
 11
34.571737108537718
 21
27.789624000233669
 31
0.0
  0
LINE
  5
1378
  8
0
 10
34.57173710853769
 20
31.48962400023365
 30
0.0
 11
33.921737108537677
 21
32.139624000233653
 31
0.0
  0
LINE
  5
1379
  8
1
 10
34.300522844256278
 20
33.139624000233667
 30
0.0
 11
34.300522844256278
 21
26.139624000233631
 31
0.0
  0
LINE
  5
137A
  8
0
 10
34.571737108537718
 20
27.789624000233669
 30
0.0
 11
34.571737108537718
 21
31.48962400023365
 31
0.0
  0
LINE
  5
137B
  8
0
 10
34.571737108537718
 20
12.84410703867
 30
0.0
 11
34.571737108537718
 21
16.544107038669981
 31
0.0
  0
LINE
  5
137C
  8
1
 10
34.300522844256278
 20
18.194107038669991
 30
0.0
 11
34.300522844256278
 21
11.19410703866995
 31
0.0
  0
ARC
  5
137D
  8
2
 10
34.300522844256278
 20
14.694107038669969
 30
0.0
 40
1.5000000000000231
 50
59.059821394894612
 51
300.94017860510547
  0
CIRCLE
  5
137E
  8
0
 10
51.871737108537708
 20
29.639624000233649
 30
0.0
 40
1.286556861770549
  0
CIRCLE
  5
137F
  8
0
 10
51.871737108537708
 20
29.639624000233649
 30
0.0
 40
1.8499999999999941
  0
CIRCLE
  5
1380
  8
0
 10
51.871737108537708
 20
29.639624000233649
 30
0.0
 40
1.050000000000018
  0
CIRCLE
  5
1381
  8
0
 10
51.871737108537708
 20
29.639624000233649
 30
0.0
 40
2.5
  0
LINE
  5
1382
  8
1
 10
47.371737108537708
 20
29.639624000233649
 30
0.0
 11
56.371737108537722
 21
29.639624000233649
 31
0.0
  0
LINE
  5
1383
  8
1
 10
51.871737108537708
 20
25.139624000233649
 30
0.0
 11
51.871737108537708
 21
34.139624000233653
 31
0.0
  0
CIRCLE
  5
1384
  8
3
 10
51.871737108537708
 20
29.639624000233649
 30
0.0
 40
2.066999999999815
  0
LINE
  5
1385
  8
2
 10
29.405070441192589
 20
14.694107038669969
 30
0.0
 11
28.571737108537722
 21
15.944107038669969
 31
0.0
  0
LINE
  5
1386
  8
2
 10
28.571737108537722
 20
13.444107038669969
 30
0.0
 11
29.405070441192589
 21
14.694107038669969
 31
0.0
  0
LINE
  5
1387
  8
2
 10
25.571737108537722
 20
13.444107038669969
 30
0.0
 11
28.571737108537722
 21
13.444107038669969
 31
0.0
  0
LINE
  5
1388
  8
2
 10
25.571737108537722
 20
15.944107038669969
 30
0.0
 11
28.571737108537722
 21
15.944107038669969
 31
0.0
  0
LINE
  5
1389
  8
0
 10
34.571737108537711
 20
16.544107038669971
 30
0.0
 11
33.921737108537677
 21
17.194107038669969
 31
0.0
  0
LINE
  5
138A
  8
0
 10
33.921737108537677
 20
12.194107038669969
 30
0.0
 11
34.571737108537718
 21
12.84410703867
 31
0.0
  0
LINE
  5
138B
  8
0
 10
34.571737108537718
 20
12.844107038670019
 30
0.0
 11
35.071737108537718
 21
12.84410703867001
 31
0.0
  0
ARC
  5
138C
  8
0
 10
34.300522844256278
 20
14.694107038669969
 30
0.0
 40
1.5000000000000231
 50
44.427004000805837
 51
59.059821394894257
  0
ARC
  5
138D
  8
0
 10
34.300522844256299
 20
14.694107038669999
 30
0.0
 40
1.5000000000000131
 50
300.94017860510507
 51
315.57299599919412
  0
LINE
  5
138E
  8
0
 10
33.921737108537677
 20
12.194107038669969
 30
0.0
 11
33.921737108537677
 21
17.194107038669969
 31
0.0
  0
LINE
  5
138F
  8
0
 10
35.071737108537718
 20
12.84410703867
 30
0.0
 11
35.071737108537718
 21
16.544107038669981
 31
0.0
  0
LINE
  5
1390
  8
0
 10
35.371737108537708
 20
13.64410703866999
 30
0.0
 11
35.371737108537708
 21
15.744107038669981
 31
0.0
  0
LINE
  5
1391
  8
1
 10
23.571737108537722
 20
14.694107038669969
 30
0.0
 11
37.371737108537722
 21
14.69410703866998
 31
0.0
  0
LINE
  5
1392
  8
3
 10
34.354737108537947
 20
12.62710703867023
 30
0.0
 11
25.821744441978669
 21
12.62710703867023
 31
0.0
  0
LINE
  5
1393
  8
0
 10
33.921737108538061
 20
12.194107038670341
 30
0.0
 11
26.07173710853769
 21
12.194107038670349
 31
0.0
  0
LINE
  5
1394
  8
3
 10
34.35473710853794
 20
16.761107038669731
 30
0.0
 11
25.821744441978669
 21
16.761107038669788
 31
0.0
  0
LINE
  5
1395
  8
0
 10
33.921737108538032
 20
17.194107038669621
 30
0.0
 11
26.071737108537722
 21
17.19410703866961
 31
0.0
  0
LINE
  5
1396
  8
0
 10
25.571737108537722
 20
13.060132442454769
 30
0.0
 11
25.571737108537722
 21
16.328081634885191
 31
0.0
  0
LINE
  5
1397
  8
0
 10
26.071737108537722
 20
12.194107038670349
 30
0.0
 11
26.071737108537722
 21
17.19410703866961
 31
0.0
  0
LINE
  5
1398
  8
0
 10
26.071737108537722
 20
12.194107038670349
 30
0.0
 11
25.571737108537722
 21
13.060132442454769
 31
0.0
  0
LINE
  5
1399
  8
0
 10
26.071737108537722
 20
17.19410703866961
 30
0.0
 11
25.571737108537722
 21
16.328081634885191
 31
0.0
  0
LINE
  5
139A
  8
2
 10
25.571737108537722
 20
14.694107038669969
 30
0.0
 11
28.571737108537722
 21
14.694107038669969
 31
0.0
  0
LINE
  5
139B
  8
2
 10
28.5717371085377
 20
13.444107038669969
 30
0.0
 11
28.571737108537722
 21
15.94410703866995
 31
0.0
  0
LINE
  5
139C
  8
0
 10
34.571737108537718
 20
16.544107038669971
 30
0.0
 11
35.071737108537718
 21
16.544107038669971
 31
0.0
  0
CIRCLE
  5
139D
  8
3
 10
9.0717371085377181
 20
29.639624000233649
 30
0.0
 40
2.066999999999815
  0
LINE
  5
139E
  8
2
 10
28.571737108537722
 20
31.082999672032631
 30
0.0
 11
29.40507044119261
 21
29.639624000233681
 31
0.0
  0
LINE
  5
139F
  8
2
 10
28.571737108537722
 20
28.196248328434681
 30
0.0
 11
29.40507044119261
 21
29.639624000233681
 31
0.0
  0
LINE
  5
13A0
  8
2
 10
28.571737108537722
 20
28.196248328434681
 30
0.0
 11
28.571737108537722
 21
31.082999672032692
 31
0.0
  0
LINE
  5
13A1
  8
2
 10
25.571737108537722
 20
31.082999672032692
 30
0.0
 11
28.571737108537722
 21
31.082999672032692
 31
0.0
  0
LINE
  5
13A2
  8
2
 10
25.571737108537722
 20
30.361311836132622
 30
0.0
 11
28.571737108537722
 21
30.361311836132622
 31
0.0
  0
LINE
  5
13A3
  8
2
 10
25.571737108537722
 20
28.917936164333611
 30
0.0
 11
28.571737108537722
 21
28.917936164333611
 31
0.0
  0
LINE
  5
13A4
  8
2
 10
25.571737108537722
 20
28.196248328434681
 30
0.0
 11
28.571737108537722
 21
28.196248328434681
 31
0.0
  0
LINE
  5
13A5
  8
0
 10
26.071737108537722
 20
32.13962400023329
 30
0.0
 11
25.571737108537722
 21
31.273598596448871
 31
0.0
  0
LINE
  5
13A6
  8
0
 10
26.071737108537722
 20
27.139624000234019
 30
0.0
 11
25.571737108537722
 21
28.005649404018438
 31
0.0
  0
LINE
  5
13A7
  8
0
 10
26.071737108537722
 20
27.139624000234019
 30
0.0
 11
26.071737108537722
 21
32.13962400023329
 31
0.0
  0
LINE
  5
13A8
  8
0
 10
25.571737108537722
 20
28.005649404018438
 30
0.0
 11
25.571737108537722
 21
31.273598596448871
 31
0.0
  0
LINE
  5
13A9
  8
0
 10
33.921737108538032
 20
32.13962400023329
 30
0.0
 11
26.071737108537722
 21
32.13962400023329
 31
0.0
  0
LINE
  5
13AA
  8
3
 10
34.354737108537897
 20
31.706624000233411
 30
0.0
 11
25.821744441978669
 21
31.706624000233461
 31
0.0
  0
LINE
  5
13AB
  8
0
 10
33.921737108538061
 20
27.139624000234019
 30
0.0
 11
26.07173710853769
 21
27.139624000234019
 31
0.0
  0
LINE
  5
13AC
  8
3
 10
34.35473710853794
 20
27.57262400023389
 30
0.0
 11
25.821744441978669
 21
27.572624000233901
 31
0.0
  0
LINE
  5
13AD
  8
1
 10
9.0717371085377181
 20
25.139624000233649
 30
0.0
 11
9.0717371085377181
 21
34.139624000233653
 31
0.0
  0
LINE
  5
13AE
  8
1
 10
4.5717371085377181
 20
29.639624000233649
 30
0.0
 11
13.57173710853772
 21
29.639624000233649
 31
0.0
  0
LINE
  5
13AF
  8
0
 10
10.32173710853772
 20
30.36131183672067
 30
0.0
 11
10.32173710853772
 21
28.917936163746621
 31
0.0
  0
LINE
  5
13B0
  8
0
 10
9.0717371085377181
 20
31.082999673207709
 30
0.0
 11
10.32173710853772
 21
30.36131183672067
 31
0.0
  0
LINE
  5
13B1
  8
0
 10
7.8217371085377181
 20
30.36131183672067
 30
0.0
 11
9.0717371085377181
 21
31.082999673207709
 31
0.0
  0
LINE
  5
13B2
  8
0
 10
7.8217371085377181
 20
28.917936163746621
 30
0.0
 11
7.8217371085377181
 21
30.36131183672067
 31
0.0
  0
LINE
  5
13B3
  8
0
 10
10.32173710853772
 20
28.917936163746621
 30
0.0
 11
9.0717371085377181
 21
28.196248327259578
 31
0.0
  0
LINE
  5
13B4
  8
0
 10
9.0717371085377181
 20
28.196248327259578
 30
0.0
 11
7.8217371085377181
 21
28.917936163746621
 31
0.0
  0
CIRCLE
  5
13B5
  8
0
 10
9.0717371085377181
 20
29.639624000233649
 30
0.0
 40
2.5
  0
LINE
  5
13B6
  8
1
 10
23.571737108537722
 20
29.639624000233649
 30
0.0
 11
37.371737108537722
 21
29.639624000233649
 31
0.0
  0
TEXT
  5
146B
  8
0
 62
     3
 10
0.0
 20
0.0
 30
0.0
 40
5.0
  1
BSFJ5X10
  7
STANDARD1
  0
ENDSEC
  0
EOF
