  0
SECTION
  2
HEADER
  9
$ACADVER
  1
AC1009
  9
$INSBASE
 10
0.0
 20
0.0
 30
0.0
  9
$EXTMIN
 10
0.0
 20
-2.960436562073669
 30
0.0
  9
$EXTMAX
 10
232.99999999999989
 20
232.99999999999989
 30
0.0
  9
$LIMMIN
 10
0.0
 20
0.0
  9
$LIMMAX
 10
375.0
 20
270.0
  9
$ORTHOMODE
 70
     1
  9
$REGENMODE
 70
     1
  9
$FILLMODE
 70
     1
  9
$QTEXTMODE
 70
     0
  9
$MIRRTEXT
 70
     0
  9
$DRAGMODE
 70
     2
  9
$LTSCALE
 40
10.0
  9
$OSMODE
 70
    37
  9
$ATTMODE
 70
     1
  9
$TEXTSIZE
 40
5.0
  9
$TRACEWID
 40
0.05
  9
$TEXTSTYLE
  7
STANDARD
  9
$CLAYER
  8
0
  9
$CELTYPE
  6
BYLAYER
  9
$CECOLOR
 62
   256
  9
$DIMSCALE
 40
1.0
  9
$DIMASZ
 40
3.0
  9
$DIMEXO
 40
2.0
  9
$DIMDLI
 40
0.38
  9
$DIMRND
 40
0.0
  9
$DIMDLE
 40
0.0
  9
$DIMEXE
 40
2.0
  9
$DIMTP
 40
0.0
  9
$DIMTM
 40
0.0
  9
$DIMTXT
 40
3.2000000000000002
  9
$DIMCEN
 40
0.0
  9
$DIMTSZ
 40
0.0
  9
$DIMTOL
 70
     0
  9
$DIMLIM
 70
     0
  9
$DIMTIH
 70
     0
  9
$DIMTOH
 70
     0
  9
$DIMSE1
 70
     0
  9
$DIMSE2
 70
     0
  9
$DIMTAD
 70
     1
  9
$DIMZIN
 70
     8
  9
$DIMBLK
  1

  9
$DIMASO
 70
     1
  9
$DIMSHO
 70
     0
  9
$DIMPOST
  1

  9
$DIMAPOST
  1

  9
$DIMALT
 70
     0
  9
$DIMALTD
 70
     2
  9
$DIMALTF
 40
25.399999999999999
  9
$DIMLFAC
 40
1.0
  9
$DIMTOFL
 70
     1
  9
$DIMTVP
 40
1.6000000000000001
  9
$DIMTIX
 70
     1
  9
$DIMSOXD
 70
     0
  9
$DIMSAH
 70
     0
  9
$DIMBLK1
  1

  9
$DIMBLK2
  1

  9
$DIMSTYLE
  2
STANDARD
  9
$DIMCLRD
 70
     0
  9
$DIMCLRE
 70
     0
  9
$DIMCLRT
 70
     0
  9
$DIMTFAC
 40
1.0
  9
$DIMGAP
 40
0.09
  9
$LUNITS
 70
     2
  9
$LUPREC
 70
     1
  9
$SKETCHINC
 40
0.1
  9
$FILLETRAD
 40
0.0
  9
$AUNITS
 70
     0
  9
$AUPREC
 70
     1
  9
$MENU
  1
E:\r13\win\SUPPORT\ACAD
  9
$ELEVATION
 40
0.0
  9
$PELEVATION
 40
0.0
  9
$THICKNESS
 40
0.0
  9
$LIMCHECK
 70
     0
  9
$BLIPMODE
 70
     0
  9
$CHAMFERA
 40
0.0
  9
$CHAMFERB
 40
0.0
  9
$SKPOLY
 70
     0
  9
$TDCREATE
 40
2449839.7931828708
  9
$TDUPDATE
 40
2459150.566731574
  9
$TDINDWG
 40
0.0629905093
  9
$TDUSRTIMER
 40
0.0629905093
  9
$USRTIMER
 70
     1
  9
$ANGBASE
 50
0.0
  9
$ANGDIR
 70
     0
  9
$PDMODE
 70
     0
  9
$PDSIZE
 40
0.0
  9
$PLINEWID
 40
0.0
  9
$COORDS
 70
     1
  9
$SPLFRAME
 70
     0
  9
$SPLINETYPE
 70
     6
  9
$SPLINESEGS
 70
     8
  9
$ATTDIA
 70
     0
  9
$ATTREQ
 70
     1
  9
$HANDLING
 70
     1
  9
$HANDSEED
  5
1158
  9
$SURFTAB1
 70
     6
  9
$SURFTAB2
 70
     6
  9
$SURFTYPE
 70
     6
  9
$SURFU
 70
     6
  9
$SURFV
 70
     6
  9
$UCSNAME
  2

  9
$UCSORG
 10
0.0
 20
0.0
 30
0.0
  9
$UCSXDIR
 10
1.0
 20
0.0
 30
0.0
  9
$UCSYDIR
 10
0.0
 20
1.0
 30
0.0
  9
$PUCSNAME
  2

  9
$PUCSORG
 10
0.0
 20
0.0
 30
0.0
  9
$PUCSXDIR
 10
1.0
 20
0.0
 30
0.0
  9
$PUCSYDIR
 10
0.0
 20
1.0
 30
0.0
  9
$USERI1
 70
     0
  9
$USERI2
 70
     1
  9
$USERI3
 70
     1
  9
$USERI4
 70
     0
  9
$USERI5
 70
     0
  9
$USERR1
 40
0.0
  9
$USERR2
 40
0.0
  9
$USERR3
 40
0.0
  9
$USERR4
 40
0.0
  9
$USERR5
 40
0.0
  9
$WORLDVIEW
 70
     1
  9
$SHADEDGE
 70
     3
  9
$SHADEDIF
 70
    70
  9
$TILEMODE
 70
     1
  9
$MAXACTVP
 70
    16
  9
$PLIMCHECK
 70
     0
  9
$PEXTMIN
 10
1.0000000000000000E+020
 20
1.0000000000000000E+020
 30
1.0000000000000000E+020
  9
$PEXTMAX
 10
-1.0000000000000000E+020
 20
-1.0000000000000000E+020
 30
-1.0000000000000000E+020
  9
$PLIMMIN
 10
0.0
 20
0.0
  9
$PLIMMAX
 10
12.0
 20
9.0
  9
$UNITMODE
 70
     0
  9
$VISRETAIN
 70
     0
  9
$PLINEGEN
 70
     0
  9
$PSLTSCALE
 70
     0
  0
ENDSEC
  0
SECTION
  2
TABLES
  0
TABLE
  2
VPORT
 70
     1
  0
VPORT
  2
*ACTIVE
 70
     0
 10
0.0
 20
0.0
 11
1.0
 21
1.0
 12
362.34662576687123
 22
150.0
 13
0.0
 23
0.0
 14
10.0
 24
10.0
 15
10.0
 25
10.0
 16
0.0
 26
0.0
 36
1.0
 17
0.0
 27
0.0
 37
0.0
 40
300.0
 41
2.415644171779141
 42
50.0
 43
0.0
 44
0.0
 50
0.0
 51
0.0
 71
     0
 72
   500
 73
     1
 74
     0
 75
     0
 76
     0
 77
     0
 78
     2
  0
ENDTAB
  0
TABLE
  2
LTYPE
 70
     3
  0
LTYPE
  2
CONTINUOUS
 70
     0
  3
Solid Line
 72
    65
 73
     0
 40
0.0
  0
LTYPE
  2
CENTER
 70
     0
  3
____ _ ____ _ ____ _ ____ _ ____ _ ____ _ ____
 72
    65
 73
     4
 40
2.0
 49
1.25
 49
-0.25
 49
0.25
 49
-0.25
  0
LTYPE
  2
PHANTOM2
 70
     0
  3
___ _ _ ___ _ _ ___ _ _ ___ _ _
 72
    65
 73
     6
 40
1.25
 49
0.625
 49
-0.125
 49
0.125
 49
-0.125
 49
0.125
 49
-0.125
  0
ENDTAB
  0
TABLE
  2
LAYER
 70
     4
  0
LAYER
  2
0
 70
     0
 62
     7
  6
CONTINUOUS
  0
LAYER
  2
1
 70
     0
 62
     1
  6
CENTER
  0
LAYER
  2
3
 70
     0
 62
     3
  6
CONTINUOUS
  0
LAYER
  2
DEFPOINTS
 70
     0
 62
     7
  6
CONTINUOUS
  0
ENDTAB
  0
TABLE
  2
STYLE
 70
     2
  0
STYLE
  2
STANDARD
 70
     0
 40
0.0
 41
1.0
 50
0.0
 71
     0
 42
5.0
  3
TXT
  4
BIGFONT
  0
STYLE
  2
STANDARD1
 70
     0
 40
0.0
 41
1.0
 50
0.0
 71
     0
 42
3.0
  3
txt
  4

  0
ENDTAB
  0
TABLE
  2
VIEW
 70
     1
  0
VIEW
  2
ALL
 70
     0
 40
270.0
 10
220.99159663865549
 20
135.0
 41
0.0
 11
0.0
 21
0.0
 31
1.0
 12
0.0
 22
0.0
 32
0.0
 42
0.0
 43
0.0
 44
0.0
 50
0.0
 71
     0
  0
ENDTAB
  0
TABLE
  2
UCS
 70
     0
  0
ENDTAB
  0
TABLE
  2
APPID
 70
     7
  0
APPID
  2
ACAD
 70
     0
  0
APPID
  2
ACAD_MLEADERVER
 70
     0
  0
APPID
  2
ACAD_EXEMPT_FROM_CAD_STANDARDS
 70
     0
  0
APPID
  2
ACAD_NAV_VCDISPLAY
 70
     0
  0
APPID
  2
ACAD_DSTYLE_DIMRADIAL_EXTENSION
 70
     0
  0
APPID
  2
ACAD_DSTYLE_DIMJAG
 70
     0
  0
APPID
  2
ACAD_DSTYLE_DIMTALN
 70
     0
  0
ENDTAB
  0
TABLE
  2
DIMSTYLE
 70
     1
  0
DIMSTYLE
  2
STANDARD
 70
     0
  3

  4

  5

  6

  7

 40
1.0
 41
0.18
 42
0.0625
 43
0.38
 44
0.18
 45
0.0
 46
0.0
 47
0.0
 48
0.0
140
0.18
141
0.09
142
0.0
143
25.399999999999999
144
1.0
145
0.0
146
1.0
147
0.09
 71
     0
 72
     0
 73
     1
 74
     1
 75
     0
 76
     0
 77
     0
 78
     0
170
     0
171
     2
172
     0
173
     0
174
     0
175
     0
176
     0
177
     0
178
     0
  0
ENDTAB
  0
ENDSEC
  0
SECTION
  2
BLOCKS
  0
BLOCK
  8
0
  2
$MODEL_SPACE
 70
     0
 10
0.0
 20
0.0
 30
0.0
  3
$MODEL_SPACE
  1

  0
ENDBLK
  5
1BE
  8
0
  0
BLOCK
 67
     1
  8
0
  2
$PAPER_SPACE
 70
     0
 10
0.0
 20
0.0
 30
0.0
  3
$PAPER_SPACE
  1

  0
ENDBLK
  5
1BC
 67
     1
  8
0
  0
ENDSEC
  0
SECTION
  2
ENTITIES
  0
TEXT
  5
B2A
  8
0
 62
     3
 10
0.0
 20
0.0
 30
0.0
 40
10.0
  1
BR-1/2TN-ATEX
  7
STANDARD1
  0
LINE
  5
C74
  8
1
 10
138.99999999999989
 20
159.49999999999989
 30
0.0
 11
138.99999999999989
 21
118.4999999999999
 31
0.0
  0
LINE
  5
C75
  8
1
 10
159.49999999999989
 20
138.99999999999989
 30
0.0
 11
118.5
 21
138.99999999999989
 31
0.0
  0
LINE
  5
C76
  8
0
 10
151.85008237460309
 20
130.3325099962033
 30
0.0
 11
150.9111237028371
 21
130.73107430582959
 31
0.0
  0
LINE
  5
C77
  8
0
 10
153.26944977330351
 20
136.42457708964741
 30
0.0
 11
154.21522134343871
 21
136.04246057166341
 31
0.0
  0
ARC
  5
C78
  8
0
 10
138.99999999999989
 20
138.99999999999989
 30
0.0
 40
14.499999999999989
 50
349.76910726238287
 51
10.23089273761704
  0
LINE
  5
C79
  8
0
 10
154.21522134343871
 20
141.9575394283363
 30
0.0
 11
153.26944977330351
 21
141.57542291035239
 31
0.0
  0
LINE
  5
C7A
  8
0
 10
150.9111237028371
 20
147.26892569417021
 30
0.0
 11
151.85008237460309
 21
147.6674900037965
 31
0.0
  0
ARC
  5
C7B
  8
0
 10
138.99999999999989
 20
138.99999999999989
 30
0.0
 40
14.5
 50
34.769107262382683
 51
55.230892737617019
  0
LINE
  5
C7C
  8
0
 10
147.6674900037965
 20
151.85008237460301
 30
0.0
 11
147.26892569417029
 21
150.9111237028371
 31
0.0
  0
LINE
  5
C7D
  8
0
 10
141.5754229103525
 20
153.26944977330339
 30
0.0
 11
141.95753942833639
 21
154.21522134343871
 31
0.0
  0
ARC
  5
C7E
  8
0
 10
138.99999999999989
 20
138.99999999999989
 30
0.0
 40
14.50000000000005
 50
79.769107262383571
 51
100.2308927376166
  0
LINE
  5
C7F
  8
0
 10
136.0424605716635
 20
154.21522134343871
 30
0.0
 11
136.4245770896475
 21
153.26944977330339
 31
0.0
  0
LINE
  5
C80
  8
0
 10
130.73107430582959
 20
150.9111237028371
 30
0.0
 11
130.33250999620341
 21
151.85008237460301
 31
0.0
  0
ARC
  5
C81
  8
0
 10
139.00000000000011
 20
138.9999999999998
 30
0.0
 40
14.50000000000019
 50
124.769107262384
 51
145.23089273761599
  0
LINE
  5
C82
  8
0
 10
126.1499176253968
 20
147.6674900037965
 30
0.0
 11
127.0888762971628
 21
147.26892569417021
 31
0.0
  0
ARC
  5
C83
  8
0
 10
139.0
 20
138.9999999999998
 30
0.0
 40
14.499999999999901
 50
304.76910726238282
 51
325.2308927376173
  0
LINE
  5
C84
  8
0
 10
147.26892569417021
 20
127.0888762971627
 30
0.0
 11
147.6674900037965
 21
126.1499176253968
 31
0.0
  0
LINE
  5
C85
  8
0
 10
141.95753942833639
 20
123.7847786565611
 30
0.0
 11
141.57542291035239
 21
124.73055022669639
 31
0.0
  0
ARC
  5
C86
  8
0
 10
138.99999999999989
 20
138.9999999999998
 30
0.0
 40
14.499999999999931
 50
259.76910726238361
 51
280.23089273761678
  0
LINE
  5
C87
  8
0
 10
136.4245770896475
 20
124.73055022669639
 30
0.0
 11
136.0424605716635
 21
123.7847786565611
 31
0.0
  0
LINE
  5
C88
  8
0
 10
130.33250999620341
 20
126.1499176253968
 30
0.0
 11
130.73107430582959
 21
127.0888762971627
 31
0.0
  0
ARC
  5
C89
  8
0
 10
138.99999999999989
 20
138.99999999999989
 30
0.0
 40
14.49999999999995
 50
214.7691072623839
 51
235.23089273761701
  0
LINE
  5
C8A
  8
0
 10
127.0888762971628
 20
130.73107430582959
 30
0.0
 11
126.1499176253968
 21
130.3325099962033
 31
0.0
  0
LINE
  5
C8B
  8
0
 10
123.7847786565611
 20
136.04246057166341
 30
0.0
 11
124.73055022669639
 21
136.42457708964741
 31
0.0
  0
ARC
  5
C8C
  8
0
 10
139.00000000000011
 20
138.99999999999989
 30
0.0
 40
14.500000000000099
 50
169.7691072623829
 51
190.23089273761701
  0
LINE
  5
C8D
  8
0
 10
124.73055022669639
 20
141.57542291035239
 30
0.0
 11
123.7847786565611
 21
141.95753942833639
 31
0.0
  0
CIRCLE
  5
C8E
  8
0
 10
138.99999999999989
 20
138.99999999999989
 30
0.0
 40
13.0
  0
LINE
  5
C8F
  8
0
 10
152.0
 20
198.99999999999989
 30
0.0
 11
153.49999999999989
 21
200.49999999999989
 31
0.0
  0
LINE
  5
C90
  8
0
 10
124.5
 20
200.49999999999989
 30
0.0
 11
126.0
 21
199.0
 31
0.0
  0
LINE
  5
C91
  8
0
 10
124.4999999999999
 20
200.7435162869248
 30
0.0
 11
124.4999999999999
 21
200.49999999999989
 31
0.0
  0
LINE
  5
C92
  8
0
 10
153.49999999999989
 20
200.49999999999989
 30
0.0
 11
153.49999999999989
 21
200.7435162869248
 31
0.0
  0
LINE
  5
C93
  8
0
 10
152.0
 20
198.99999999999989
 30
0.0
 11
126.0
 21
199.0
 31
0.0
  0
LINE
  5
C94
  8
0
 10
126.1499176253968
 20
201.5
 30
0.0
 11
123.7847786565611
 21
201.5
 31
0.0
  0
LINE
  5
C95
  8
0
 10
123.7847786565611
 20
201.49999999999989
 30
0.0
 11
123.7847786565611
 21
214.49999999999989
 31
0.0
  0
POLYLINE
  5
C96
  8
0
 66
     1
 10
0.0
 20
0.0
 30
0.0
  0
VERTEX
  5
1098
  8
0
 10
123.7847786565611
 20
201.49999999999989
 30
0.0
  0
VERTEX
  5
1099
  8
0
 10
123.9468251320242
 20
201.3284745898043
 30
0.0
  0
VERTEX
  5
109A
  8
0
 10
124.26552495466029
 20
200.9913512109747
 30
0.0
  0
VERTEX
  5
109B
  8
0
 10
124.57723877072191
 20
200.66191441627919
 30
0.0
  0
VERTEX
  5
109C
  8
0
 10
124.73055022669639
 20
200.49999999999989
 30
0.0
  0
SEQEND
  5
109D
  8
0
  0
LINE
  5
C97
  8
0
 10
124.73055022669639
 20
200.49999999999989
 30
0.0
 11
124.4999999999999
 21
200.49999999999989
 31
0.0
  0
POLYLINE
  5
C98
  8
0
 66
     1
 10
0.0
 20
0.0
 30
0.0
  0
VERTEX
  5
109E
  8
0
 10
126.1499176253968
 20
201.5
 30
0.0
  0
VERTEX
  5
109F
  8
0
 10
126.3107967934434
 20
201.32847458980399
 30
0.0
  0
VERTEX
  5
10A0
  8
0
 10
126.62720085083301
 20
200.99135121097399
 30
0.0
  0
VERTEX
  5
10A1
  8
0
 10
126.9366692255889
 20
200.66191441627879
 30
0.0
  0
VERTEX
  5
10A2
  8
0
 10
127.0888762971628
 20
200.49999999999989
 30
0.0
  0
SEQEND
  5
10A3
  8
0
  0
POLYLINE
  5
C99
  8
0
 66
     1
 10
0.0
 20
0.0
 30
0.0
  0
VERTEX
  5
10A4
  8
0
 10
130.73107430582959
 20
200.49999999999989
 30
0.0
  0
VERTEX
  5
10A5
  8
0
 10
130.66646623709701
 20
200.6619144162803
 30
0.0
  0
VERTEX
  5
10A6
  8
0
 10
130.53510470559939
 20
200.99135121097649
 30
0.0
  0
VERTEX
  5
10A7
  8
0
 10
130.40079915149141
 20
201.3284745898053
 30
0.0
  0
VERTEX
  5
10A8
  8
0
 10
130.33250999620341
 20
201.49999999999989
 30
0.0
  0
SEQEND
  5
10A9
  8
0
  0
POLYLINE
  5
C9A
  8
0
 66
     1
 10
0.0
 20
0.0
 30
0.0
  0
VERTEX
  5
10AA
  8
0
 10
136.0424605716635
 20
201.49999999999989
 30
0.0
  0
VERTEX
  5
10AB
  8
0
 10
136.1079315975548
 20
201.32847458980399
 30
0.0
  0
VERTEX
  5
10AC
  8
0
 10
136.23669468406891
 20
200.99135121097419
 30
0.0
  0
VERTEX
  5
10AD
  8
0
 10
136.3626352407129
 20
200.6619144162789
 30
0.0
  0
VERTEX
  5
10AE
  8
0
 10
136.4245770896475
 20
200.49999999999989
 30
0.0
  0
SEQEND
  5
10AF
  8
0
  0
POLYLINE
  5
C9B
  8
0
 66
     1
 10
0.0
 20
0.0
 30
0.0
  0
VERTEX
  5
10B0
  8
0
 10
141.5754229103525
 20
200.49999999999989
 30
0.0
  0
VERTEX
  5
10B1
  8
0
 10
141.63736475928769
 20
200.6619144162805
 30
0.0
  0
VERTEX
  5
10B2
  8
0
 10
141.76330531593209
 20
200.99135121097689
 30
0.0
  0
VERTEX
  5
10B3
  8
0
 10
141.8920684024456
 20
201.3284745898055
 30
0.0
  0
VERTEX
  5
10B4
  8
0
 10
141.95753942833639
 20
201.49999999999989
 30
0.0
  0
SEQEND
  5
10B5
  8
0
  0
POLYLINE
  5
C9C
  8
0
 66
     1
 10
0.0
 20
0.0
 30
0.0
  0
VERTEX
  5
10B6
  8
0
 10
147.6674900037965
 20
201.49999999999989
 30
0.0
  0
VERTEX
  5
10B7
  8
0
 10
147.59920084850799
 20
201.3284745898039
 30
0.0
  0
VERTEX
  5
10B8
  8
0
 10
147.4648952943995
 20
200.99135121097399
 30
0.0
  0
VERTEX
  5
10B9
  8
0
 10
147.33353376290239
 20
200.66191441627879
 30
0.0
  0
VERTEX
  5
10BA
  8
0
 10
147.26892569417029
 20
200.49999999999989
 30
0.0
  0
SEQEND
  5
10BB
  8
0
  0
LINE
  5
C9D
  8
0
 10
126.1499176253968
 20
201.49999999999989
 30
0.0
 11
126.1499176253968
 21
214.49999999999989
 31
0.0
  0
LINE
  5
C9E
  8
0
 10
127.0888762971628
 20
200.49999999999989
 30
0.0
 11
127.0888762971628
 21
214.49999999999989
 31
0.0
  0
LINE
  5
C9F
  8
0
 10
130.73107430582959
 20
200.49999999999989
 30
0.0
 11
127.0888762971628
 21
200.49999999999989
 31
0.0
  0
LINE
  5
CA0
  8
0
 10
130.33250999620341
 20
201.49999999999989
 30
0.0
 11
130.33250999620341
 21
214.49999999999989
 31
0.0
  0
LINE
  5
CA1
  8
0
 10
136.0424605716635
 20
201.49999999999989
 30
0.0
 11
130.33250999620341
 21
201.49999999999989
 31
0.0
  0
LINE
  5
CA2
  8
0
 10
136.0424605716635
 20
201.49999999999989
 30
0.0
 11
136.0424605716635
 21
214.49999999999989
 31
0.0
  0
LINE
  5
CA3
  8
0
 10
136.4245770896475
 20
200.5
 30
0.0
 11
136.4245770896475
 21
214.49999999999989
 31
0.0
  0
LINE
  5
CA4
  8
0
 10
141.5754229103525
 20
200.49999999999989
 30
0.0
 11
136.4245770896475
 21
200.49999999999989
 31
0.0
  0
LINE
  5
CA5
  8
0
 10
141.5754229103525
 20
200.49999999999989
 30
0.0
 11
141.5754229103525
 21
214.49999999999989
 31
0.0
  0
LINE
  5
CA6
  8
0
 10
141.95753942833639
 20
201.49999999999989
 30
0.0
 11
141.95753942833639
 21
214.49999999999989
 31
0.0
  0
LINE
  5
CA7
  8
0
 10
147.6674900037965
 20
201.49999999999989
 30
0.0
 11
141.95753942833639
 21
201.49999999999989
 31
0.0
  0
LINE
  5
CA8
  8
0
 10
147.6674900037965
 20
201.49999999999989
 30
0.0
 11
147.6674900037965
 21
214.49999999999989
 31
0.0
  0
LINE
  5
CA9
  8
0
 10
150.9111237028371
 20
200.49999999999989
 30
0.0
 11
147.26892569417029
 21
200.49999999999989
 31
0.0
  0
LINE
  5
CAA
  8
0
 10
150.9111237028371
 20
200.49999999999989
 30
0.0
 11
150.9111237028371
 21
214.49999999999989
 31
0.0
  0
POLYLINE
  5
CAB
  8
0
 66
     1
 10
0.0
 20
0.0
 30
0.0
  0
VERTEX
  5
10BC
  8
0
 10
151.85008237460309
 20
201.49999999999989
 30
0.0
  0
VERTEX
  5
10BD
  8
0
 10
151.68920320655681
 20
201.32847458980419
 30
0.0
  0
VERTEX
  5
10BE
  8
0
 10
151.37279914916741
 20
200.99135121097461
 30
0.0
  0
VERTEX
  5
10BF
  8
0
 10
151.0633307744113
 20
200.6619144162791
 30
0.0
  0
VERTEX
  5
10C0
  8
0
 10
150.9111237028371
 20
200.49999999999989
 30
0.0
  0
SEQEND
  5
10C1
  8
0
  0
LINE
  5
CAC
  8
0
 10
151.85008237460309
 20
201.49999999999989
 30
0.0
 11
151.85008237460309
 21
214.49999999999989
 31
0.0
  0
LINE
  5
CAD
  8
0
 10
123.7847786565611
 20
214.49999999999989
 30
0.0
 11
154.21522134343871
 21
214.49999999999989
 31
0.0
  0
LINE
  5
CAE
  8
0
 10
154.21522134343871
 20
201.49999999999989
 30
0.0
 11
151.85008237460309
 21
201.49999999999989
 31
0.0
  0
LINE
  5
CAF
  8
0
 10
154.21522134343871
 20
201.49999999999989
 30
0.0
 11
154.21522134343871
 21
214.49999999999989
 31
0.0
  0
POLYLINE
  5
CB0
  8
0
 66
     1
 10
0.0
 20
0.0
 30
0.0
  0
VERTEX
  5
10C2
  8
0
 10
153.26944977330351
 20
200.49999999999989
 30
0.0
  0
VERTEX
  5
10C3
  8
0
 10
153.4227612292791
 20
200.6619144162803
 30
0.0
  0
VERTEX
  5
10C4
  8
0
 10
153.73447504534161
 20
200.9913512109766
 30
0.0
  0
VERTEX
  5
10C5
  8
0
 10
154.05317486797671
 20
201.32847458980541
 30
0.0
  0
VERTEX
  5
10C6
  8
0
 10
154.21522134343871
 20
201.49999999999989
 30
0.0
  0
SEQEND
  5
10C7
  8
0
  0
LINE
  5
CB1
  8
0
 10
153.26944977330351
 20
200.49999999999989
 30
0.0
 11
153.49999999999989
 21
200.49999999999989
 31
0.0
  0
LINE
  5
CB6
  8
0
 10
153.09090909090909
 20
218.49999999999989
 30
0.0
 11
153.09090909090909
 21
219.99999999999989
 31
0.0
  0
LINE
  5
CB7
  8
0
 10
124.90909090909091
 20
219.99999999999989
 30
0.0
 11
124.90909090909091
 21
218.49999999999989
 31
0.0
  0
LINE
  5
CB8
  8
0
 10
154.49999999999989
 20
215.99999999999989
 30
0.0
 11
154.49999999999989
 21
218.49999999999989
 31
0.0
  0
LINE
  5
CB9
  8
0
 10
123.4999999999999
 20
218.49999999999989
 30
0.0
 11
123.4999999999999
 21
215.99999999999989
 31
0.0
  0
LINE
  5
CBA
  8
0
 10
149.33333333333329
 20
214.49999999999989
 30
0.0
 11
149.33333333333329
 21
215.99999999999989
 31
0.0
  0
LINE
  5
CBB
  8
0
 10
128.6666666666666
 20
215.99999999999989
 30
0.0
 11
128.6666666666666
 21
214.49999999999989
 31
0.0
  0
LINE
  5
CBE
  8
0
 10
153.09090909090909
 20
219.99999999999989
 30
0.0
 11
124.90909090909091
 21
219.99999999999989
 31
0.0
  0
LINE
  5
CBF
  8
0
 10
154.49999999999989
 20
218.49999999999989
 30
0.0
 11
123.4999999999999
 21
218.49999999999989
 31
0.0
  0
LINE
  5
CC0
  8
0
 10
154.49999999999989
 20
215.99999999999989
 30
0.0
 11
123.4999999999999
 21
215.99999999999989
 31
0.0
  0
LINE
  5
CC3
  8
1
 10
138.99999999999989
 20
232.99999999999989
 30
0.0
 11
138.99999999999989
 21
193.99999999999989
 31
0.0
  0
LINE
  5
CC4
  8
1
 10
139.0
 20
44.999999999999972
 30
0.0
 11
138.99999999999989
 21
83.999999999999943
 31
0.0
  0
LINE
  5
CC7
  8
0
 10
123.4999999999999
 20
61.999999999999972
 30
0.0
 11
154.49999999999989
 21
61.999999999999972
 31
0.0
  0
LINE
  5
CC8
  8
0
 10
123.4999999999999
 20
59.499999999999972
 30
0.0
 11
154.49999999999989
 21
59.499999999999972
 31
0.0
  0
LINE
  5
CC9
  8
0
 10
124.90909090909091
 20
57.999999999999972
 30
0.0
 11
153.09090909090909
 21
57.999999999999972
 31
0.0
  0
LINE
  5
CCC
  8
0
 10
149.33333333333329
 20
61.999999999999972
 30
0.0
 11
149.33333333333329
 21
63.499999999999972
 31
0.0
  0
LINE
  5
CCD
  8
0
 10
128.6666666666666
 20
63.499999999999972
 30
0.0
 11
128.6666666666666
 21
61.999999999999972
 31
0.0
  0
LINE
  5
CCE
  8
0
 10
154.49999999999989
 20
59.499999999999972
 30
0.0
 11
154.49999999999989
 21
61.999999999999972
 31
0.0
  0
LINE
  5
CCF
  8
0
 10
123.4999999999999
 20
61.999999999999972
 30
0.0
 11
123.4999999999999
 21
59.499999999999972
 31
0.0
  0
LINE
  5
CD0
  8
0
 10
153.09090909090909
 20
57.999999999999972
 30
0.0
 11
153.09090909090909
 21
59.499999999999972
 31
0.0
  0
LINE
  5
CD1
  8
0
 10
124.90909090909091
 20
59.499999999999972
 30
0.0
 11
124.90909090909091
 21
57.999999999999972
 31
0.0
  0
LINE
  5
CD6
  8
0
 10
124.73055022669639
 20
77.500000000000028
 30
0.0
 11
124.4999999999999
 21
77.500000000000028
 31
0.0
  0
POLYLINE
  5
CD7
  8
0
 66
     1
 10
0.0
 20
0.0
 30
0.0
  0
VERTEX
  5
10C8
  8
0
 10
124.73055022669639
 20
77.499999999999972
 30
0.0
  0
VERTEX
  5
10C9
  8
0
 10
124.5772387707208
 20
77.338085583719561
 30
0.0
  0
VERTEX
  5
10CA
  8
0
 10
124.2655249546583
 20
77.008648789023283
 30
0.0
  0
VERTEX
  5
10CB
  8
0
 10
123.94682513202321
 20
76.671525410194505
 30
0.0
  0
VERTEX
  5
10CC
  8
0
 10
123.7847786565611
 20
76.499999999999972
 30
0.0
  0
SEQEND
  5
10CD
  8
0
  0
LINE
  5
CD8
  8
0
 10
123.7847786565611
 20
76.499999999999972
 30
0.0
 11
123.7847786565611
 21
63.499999999999972
 31
0.0
  0
LINE
  5
CD9
  8
0
 10
123.7847786565611
 20
76.499999999999972
 30
0.0
 11
126.1499176253968
 21
76.499999999999972
 31
0.0
  0
LINE
  5
CDA
  8
0
 10
154.21522134343871
 20
63.499999999999972
 30
0.0
 11
123.7847786565611
 21
63.499999999999972
 31
0.0
  0
LINE
  5
CDB
  8
0
 10
126.1499176253968
 20
76.499999999999972
 30
0.0
 11
126.1499176253968
 21
63.499999999999972
 31
0.0
  0
POLYLINE
  5
CDC
  8
0
 66
     1
 10
0.0
 20
0.0
 30
0.0
  0
VERTEX
  5
10CE
  8
0
 10
126.1499176253968
 20
76.499999999999972
 30
0.0
  0
VERTEX
  5
10CF
  8
0
 10
126.3107967934431
 20
76.671525410195642
 30
0.0
  0
VERTEX
  5
10D0
  8
0
 10
126.62720085083249
 20
77.00864878902533
 30
0.0
  0
VERTEX
  5
10D1
  8
0
 10
126.9366692255886
 20
77.338085583720755
 30
0.0
  0
VERTEX
  5
10D2
  8
0
 10
127.0888762971628
 20
77.499999999999972
 30
0.0
  0
SEQEND
  5
10D3
  8
0
  0
LINE
  5
CDD
  8
0
 10
127.0888762971628
 20
77.499999999999972
 30
0.0
 11
127.0888762971628
 21
63.499999999999972
 31
0.0
  0
LINE
  5
CDE
  8
0
 10
127.0888762971628
 20
77.500000000000028
 30
0.0
 11
130.73107430582959
 21
77.500000000000028
 31
0.0
  0
LINE
  5
CDF
  8
0
 10
130.33250999620341
 20
76.499999999999972
 30
0.0
 11
130.33250999620341
 21
63.499999999999972
 31
0.0
  0
LINE
  5
CE0
  8
0
 10
130.33250999620341
 20
76.499999999999972
 30
0.0
 11
136.0424605716635
 21
76.499999999999972
 31
0.0
  0
LINE
  5
CE1
  8
0
 10
136.0424605716635
 20
76.499999999999972
 30
0.0
 11
136.0424605716635
 21
63.499999999999972
 31
0.0
  0
LINE
  5
CE2
  8
0
 10
136.4245770896475
 20
77.499999999999972
 30
0.0
 11
136.4245770896475
 21
63.499999999999972
 31
0.0
  0
LINE
  5
CE3
  8
0
 10
136.4245770896475
 20
77.499999999999972
 30
0.0
 11
141.5754229103525
 21
77.499999999999972
 31
0.0
  0
LINE
  5
CE4
  8
0
 10
141.5754229103525
 20
77.499999999999915
 30
0.0
 11
141.5754229103525
 21
63.499999999999972
 31
0.0
  0
LINE
  5
CE5
  8
0
 10
141.95753942833639
 20
76.499999999999972
 30
0.0
 11
141.95753942833639
 21
63.499999999999972
 31
0.0
  0
LINE
  5
CE6
  8
0
 10
141.95753942833639
 20
76.499999999999972
 30
0.0
 11
147.6674900037965
 21
76.499999999999972
 31
0.0
  0
LINE
  5
CE7
  8
0
 10
147.6674900037965
 20
76.499999999999972
 30
0.0
 11
147.6674900037965
 21
63.499999999999972
 31
0.0
  0
LINE
  5
CE8
  8
0
 10
147.26892569417021
 20
77.499999999999972
 30
0.0
 11
150.91112370283719
 21
77.499999999999972
 31
0.0
  0
LINE
  5
CE9
  8
0
 10
150.91112370283719
 20
77.499999999999972
 30
0.0
 11
150.91112370283719
 21
63.499999999999972
 31
0.0
  0
LINE
  5
CEA
  8
0
 10
151.85008237460309
 20
76.499999999999972
 30
0.0
 11
151.85008237460309
 21
63.499999999999972
 31
0.0
  0
POLYLINE
  5
CEB
  8
0
 66
     1
 10
0.0
 20
0.0
 30
0.0
  0
VERTEX
  5
10D4
  8
0
 10
130.33250999620341
 20
76.499999999999972
 30
0.0
  0
VERTEX
  5
10D5
  8
0
 10
130.4007991514919
 20
76.671525410195983
 30
0.0
  0
VERTEX
  5
10D6
  8
0
 10
130.53510470560039
 20
77.008648789025884
 30
0.0
  0
VERTEX
  5
10D7
  8
0
 10
130.6664662370975
 20
77.338085583721025
 30
0.0
  0
VERTEX
  5
10D8
  8
0
 10
130.73107430582959
 20
77.499999999999972
 30
0.0
  0
SEQEND
  5
10D9
  8
0
  0
POLYLINE
  5
CEC
  8
0
 66
     1
 10
0.0
 20
0.0
 30
0.0
  0
VERTEX
  5
10DA
  8
0
 10
136.4245770896475
 20
77.499999999999972
 30
0.0
  0
VERTEX
  5
10DB
  8
0
 10
136.36263524071231
 20
77.338085583719391
 30
0.0
  0
VERTEX
  5
10DC
  8
0
 10
136.2366946840678
 20
77.008648789022942
 30
0.0
  0
VERTEX
  5
10DD
  8
0
 10
136.1079315975542
 20
76.671525410194334
 30
0.0
  0
VERTEX
  5
10DE
  8
0
 10
136.0424605716635
 20
76.499999999999972
 30
0.0
  0
SEQEND
  5
10DF
  8
0
  0
POLYLINE
  5
CED
  8
0
 66
     1
 10
0.0
 20
0.0
 30
0.0
  0
VERTEX
  5
10E0
  8
0
 10
141.95753942833639
 20
76.499999999999972
 30
0.0
  0
VERTEX
  5
10E1
  8
0
 10
141.89206840244509
 20
76.671525410195869
 30
0.0
  0
VERTEX
  5
10E2
  8
0
 10
141.76330531593101
 20
77.008648789025727
 30
0.0
  0
VERTEX
  5
10E3
  8
0
 10
141.63736475928701
 20
77.338085583720982
 30
0.0
  0
VERTEX
  5
10E4
  8
0
 10
141.5754229103525
 20
77.499999999999972
 30
0.0
  0
SEQEND
  5
10E5
  8
0
  0
POLYLINE
  5
CEE
  8
0
 66
     1
 10
0.0
 20
0.0
 30
0.0
  0
VERTEX
  5
10E6
  8
0
 10
147.26892569417021
 20
77.499999999999972
 30
0.0
  0
VERTEX
  5
10E7
  8
0
 10
147.3335337629029
 20
77.338085583719604
 30
0.0
  0
VERTEX
  5
10E8
  8
0
 10
147.46489529440049
 20
77.008648789023397
 30
0.0
  0
VERTEX
  5
10E9
  8
0
 10
147.59920084850859
 20
76.671525410194562
 30
0.0
  0
VERTEX
  5
10EA
  8
0
 10
147.6674900037965
 20
76.499999999999972
 30
0.0
  0
SEQEND
  5
10EB
  8
0
  0
POLYLINE
  5
CEF
  8
0
 66
     1
 10
0.0
 20
0.0
 30
0.0
  0
VERTEX
  5
10EC
  8
0
 10
151.85008237460309
 20
76.499999999999915
 30
0.0
  0
VERTEX
  5
10ED
  8
0
 10
151.6892032065565
 20
76.671525410195926
 30
0.0
  0
VERTEX
  5
10EE
  8
0
 10
151.37279914916689
 20
77.008648789025841
 30
0.0
  0
VERTEX
  5
10EF
  8
0
 10
151.06333077441101
 20
77.338085583721025
 30
0.0
  0
VERTEX
  5
10F0
  8
0
 10
150.91112370283719
 20
77.499999999999972
 30
0.0
  0
SEQEND
  5
10F1
  8
0
  0
LINE
  5
CF0
  8
0
 10
153.26944977330351
 20
77.500000000000028
 30
0.0
 11
153.49999999999989
 21
77.500000000000028
 31
0.0
  0
POLYLINE
  5
CF1
  8
0
 66
     1
 10
0.0
 20
0.0
 30
0.0
  0
VERTEX
  5
10F2
  8
0
 10
154.21522134343871
 20
76.499999999999972
 30
0.0
  0
VERTEX
  5
10F3
  8
0
 10
154.0531748679756
 20
76.671525410195585
 30
0.0
  0
VERTEX
  5
10F4
  8
0
 10
153.73447504533971
 20
77.008648789025216
 30
0.0
  0
VERTEX
  5
10F5
  8
0
 10
153.422761229278
 20
77.338085583720698
 30
0.0
  0
VERTEX
  5
10F6
  8
0
 10
153.26944977330351
 20
77.499999999999972
 30
0.0
  0
SEQEND
  5
10F7
  8
0
  0
LINE
  5
CF2
  8
0
 10
154.21522134343871
 20
76.499999999999972
 30
0.0
 11
154.21522134343871
 21
63.499999999999972
 31
0.0
  0
LINE
  5
CF3
  8
0
 10
151.85008237460309
 20
76.499999999999915
 30
0.0
 11
154.21522134343871
 21
76.499999999999915
 31
0.0
  0
LINE
  5
CF4
  8
0
 10
126.0
 20
78.999999999999972
 30
0.0
 11
151.99999999999989
 21
78.999999999999915
 31
0.0
  0
LINE
  5
CF5
  8
0
 10
124.4999999999999
 20
77.500000000000028
 30
0.0
 11
124.4999999999999
 21
77.256483713075085
 31
0.0
  0
LINE
  5
CF6
  8
0
 10
153.49999999999989
 20
77.256483713075085
 30
0.0
 11
153.49999999999989
 21
77.500000000000028
 31
0.0
  0
LINE
  5
CF7
  8
0
 10
153.49999999999989
 20
77.499999999999972
 30
0.0
 11
151.99999999999989
 21
78.999999999999915
 31
0.0
  0
LINE
  5
CF8
  8
0
 10
126.0
 20
78.999999999999972
 30
0.0
 11
124.5
 21
77.499999999999972
 31
0.0
  0
LINE
  5
CF9
  8
0
 10
198.99999999999989
 20
125.9999999999999
 30
0.0
 11
200.49999999999989
 21
124.4999999999999
 31
0.0
  0
LINE
  5
CFA
  8
0
 10
200.49999999999989
 20
153.49999999999989
 30
0.0
 11
199.0
 21
151.99999999999989
 31
0.0
  0
LINE
  5
CFB
  8
0
 10
200.7435162869248
 20
153.49999999999989
 30
0.0
 11
200.49999999999989
 21
153.49999999999989
 31
0.0
  0
LINE
  5
CFC
  8
0
 10
200.49999999999989
 20
124.4999999999999
 30
0.0
 11
200.7435162869248
 21
124.4999999999999
 31
0.0
  0
LINE
  5
CFD
  8
0
 10
198.99999999999989
 20
125.9999999999999
 30
0.0
 11
199.0
 21
151.99999999999989
 31
0.0
  0
LINE
  5
CFE
  8
0
 10
201.5
 20
151.85008237460309
 30
0.0
 11
201.5
 21
154.21522134343871
 31
0.0
  0
LINE
  5
CFF
  8
0
 10
201.5
 20
154.21522134343871
 30
0.0
 11
214.5
 21
154.21522134343871
 31
0.0
  0
POLYLINE
  5
D00
  8
0
 66
     1
 10
0.0
 20
0.0
 30
0.0
  0
VERTEX
  5
10F8
  8
0
 10
201.5
 20
154.21522134343871
 30
0.0
  0
VERTEX
  5
10F9
  8
0
 10
201.3284745898043
 20
154.0531748679756
 30
0.0
  0
VERTEX
  5
10FA
  8
0
 10
200.9913512109747
 20
153.73447504533971
 30
0.0
  0
VERTEX
  5
10FB
  8
0
 10
200.66191441627919
 20
153.422761229278
 30
0.0
  0
VERTEX
  5
10FC
  8
0
 10
200.49999999999989
 20
153.26944977330351
 30
0.0
  0
SEQEND
  5
10FD
  8
0
  0
LINE
  5
D01
  8
0
 10
200.49999999999989
 20
153.26944977330351
 30
0.0
 11
200.49999999999989
 21
153.49999999999989
 31
0.0
  0
POLYLINE
  5
D02
  8
0
 66
     1
 10
0.0
 20
0.0
 30
0.0
  0
VERTEX
  5
10FE
  8
0
 10
201.5
 20
151.85008237460309
 30
0.0
  0
VERTEX
  5
10FF
  8
0
 10
201.32847458980399
 20
151.6892032065565
 30
0.0
  0
VERTEX
  5
1100
  8
0
 10
200.9913512109741
 20
151.37279914916681
 30
0.0
  0
VERTEX
  5
1101
  8
0
 10
200.6619144162789
 20
151.06333077441101
 30
0.0
  0
VERTEX
  5
1102
  8
0
 10
200.49999999999989
 20
150.91112370283719
 30
0.0
  0
SEQEND
  5
1103
  8
0
  0
POLYLINE
  5
D03
  8
0
 66
     1
 10
0.0
 20
0.0
 30
0.0
  0
VERTEX
  5
1104
  8
0
 10
200.49999999999989
 20
147.26892569417021
 30
0.0
  0
VERTEX
  5
1105
  8
0
 10
200.6619144162803
 20
147.3335337629029
 30
0.0
  0
VERTEX
  5
1106
  8
0
 10
200.99135121097649
 20
147.46489529440049
 30
0.0
  0
VERTEX
  5
1107
  8
0
 10
201.32847458980541
 20
147.59920084850859
 30
0.0
  0
VERTEX
  5
1108
  8
0
 10
201.5
 20
147.6674900037965
 30
0.0
  0
SEQEND
  5
1109
  8
0
  0
POLYLINE
  5
D04
  8
0
 66
     1
 10
0.0
 20
0.0
 30
0.0
  0
VERTEX
  5
110A
  8
0
 10
201.5
 20
141.9575394283363
 30
0.0
  0
VERTEX
  5
110B
  8
0
 10
201.32847458980399
 20
141.89206840244509
 30
0.0
  0
VERTEX
  5
110C
  8
0
 10
200.99135121097419
 20
141.76330531593101
 30
0.0
  0
VERTEX
  5
110D
  8
0
 10
200.6619144162789
 20
141.63736475928701
 30
0.0
  0
VERTEX
  5
110E
  8
0
 10
200.49999999999989
 20
141.57542291035239
 30
0.0
  0
SEQEND
  5
110F
  8
0
  0
POLYLINE
  5
D05
  8
0
 66
     1
 10
0.0
 20
0.0
 30
0.0
  0
VERTEX
  5
1110
  8
0
 10
200.49999999999989
 20
136.4245770896475
 30
0.0
  0
VERTEX
  5
1111
  8
0
 10
200.6619144162805
 20
136.36263524071219
 30
0.0
  0
VERTEX
  5
1112
  8
0
 10
200.991351210977
 20
136.2366946840678
 30
0.0
  0
VERTEX
  5
1113
  8
0
 10
201.32847458980561
 20
136.1079315975542
 30
0.0
  0
VERTEX
  5
1114
  8
0
 10
201.5
 20
136.0424605716635
 30
0.0
  0
SEQEND
  5
1115
  8
0
  0
POLYLINE
  5
D06
  8
0
 66
     1
 10
0.0
 20
0.0
 30
0.0
  0
VERTEX
  5
1116
  8
0
 10
201.5
 20
130.33250999620341
 30
0.0
  0
VERTEX
  5
1117
  8
0
 10
201.3284745898039
 20
130.4007991514919
 30
0.0
  0
VERTEX
  5
1118
  8
0
 10
200.99135121097399
 20
130.5351047056003
 30
0.0
  0
VERTEX
  5
1119
  8
0
 10
200.6619144162789
 20
130.6664662370975
 30
0.0
  0
VERTEX
  5
111A
  8
0
 10
200.49999999999989
 20
130.73107430582959
 30
0.0
  0
SEQEND
  5
111B
  8
0
  0
LINE
  5
D07
  8
0
 10
201.5
 20
151.85008237460309
 30
0.0
 11
214.5
 21
151.85008237460309
 31
0.0
  0
LINE
  5
D08
  8
0
 10
200.49999999999989
 20
150.91112370283719
 30
0.0
 11
214.5
 21
150.91112370283719
 31
0.0
  0
LINE
  5
D09
  8
0
 10
200.49999999999989
 20
147.26892569417021
 30
0.0
 11
200.49999999999989
 21
150.91112370283719
 31
0.0
  0
LINE
  5
D0A
  8
0
 10
201.5
 20
147.6674900037965
 30
0.0
 11
214.5
 21
147.6674900037965
 31
0.0
  0
LINE
  5
D0B
  8
0
 10
201.5
 20
141.9575394283363
 30
0.0
 11
201.5
 21
147.6674900037965
 31
0.0
  0
LINE
  5
D0C
  8
0
 10
201.5
 20
141.9575394283363
 30
0.0
 11
214.5
 21
141.9575394283363
 31
0.0
  0
LINE
  5
D0D
  8
0
 10
200.5
 20
141.57542291035239
 30
0.0
 11
214.5
 21
141.57542291035239
 31
0.0
  0
LINE
  5
D0E
  8
0
 10
200.49999999999989
 20
136.4245770896475
 30
0.0
 11
200.49999999999989
 21
141.57542291035239
 31
0.0
  0
LINE
  5
D0F
  8
0
 10
200.49999999999989
 20
136.4245770896475
 30
0.0
 11
214.5
 21
136.4245770896475
 31
0.0
  0
LINE
  5
D10
  8
0
 10
201.5
 20
136.0424605716635
 30
0.0
 11
214.5
 21
136.0424605716635
 31
0.0
  0
LINE
  5
D11
  8
0
 10
201.5
 20
130.3325099962033
 30
0.0
 11
201.5
 21
136.0424605716635
 31
0.0
  0
LINE
  5
D12
  8
0
 10
201.5
 20
130.3325099962033
 30
0.0
 11
214.5
 21
130.3325099962033
 31
0.0
  0
LINE
  5
D13
  8
0
 10
200.49999999999989
 20
127.0888762971627
 30
0.0
 11
200.49999999999989
 21
130.73107430582959
 31
0.0
  0
LINE
  5
D14
  8
0
 10
200.49999999999989
 20
127.0888762971627
 30
0.0
 11
214.5
 21
127.0888762971627
 31
0.0
  0
POLYLINE
  5
D15
  8
0
 66
     1
 10
0.0
 20
0.0
 30
0.0
  0
VERTEX
  5
111C
  8
0
 10
201.5
 20
126.1499176253968
 30
0.0
  0
VERTEX
  5
111D
  8
0
 10
201.3284745898043
 20
126.3107967934431
 30
0.0
  0
VERTEX
  5
111E
  8
0
 10
200.99135121097461
 20
126.62720085083249
 30
0.0
  0
VERTEX
  5
111F
  8
0
 10
200.66191441627919
 20
126.9366692255886
 30
0.0
  0
VERTEX
  5
1120
  8
0
 10
200.49999999999989
 20
127.0888762971627
 30
0.0
  0
SEQEND
  5
1121
  8
0
  0
LINE
  5
D16
  8
0
 10
201.5
 20
126.1499176253968
 30
0.0
 11
214.5
 21
126.1499176253968
 31
0.0
  0
LINE
  5
D17
  8
0
 10
214.5
 20
154.21522134343871
 30
0.0
 11
214.5
 21
123.7847786565611
 31
0.0
  0
LINE
  5
D18
  8
0
 10
201.5
 20
123.7847786565611
 30
0.0
 11
201.5
 21
126.1499176253968
 31
0.0
  0
LINE
  5
D19
  8
0
 10
201.5
 20
123.7847786565611
 30
0.0
 11
214.5
 21
123.7847786565611
 31
0.0
  0
POLYLINE
  5
D1A
  8
0
 66
     1
 10
0.0
 20
0.0
 30
0.0
  0
VERTEX
  5
1122
  8
0
 10
200.49999999999989
 20
124.73055022669639
 30
0.0
  0
VERTEX
  5
1123
  8
0
 10
200.66191441628041
 20
124.5772387707207
 30
0.0
  0
VERTEX
  5
1124
  8
0
 10
200.9913512109766
 20
124.2655249546583
 30
0.0
  0
VERTEX
  5
1125
  8
0
 10
201.32847458980541
 20
123.94682513202309
 30
0.0
  0
VERTEX
  5
1126
  8
0
 10
201.5
 20
123.7847786565611
 30
0.0
  0
SEQEND
  5
1127
  8
0
  0
LINE
  5
D1B
  8
0
 10
200.49999999999989
 20
124.73055022669639
 30
0.0
 11
200.49999999999989
 21
124.4999999999999
 31
0.0
  0
LINE
  5
D20
  8
0
 10
218.5
 20
124.90909090909081
 30
0.0
 11
219.99999999999989
 21
124.90909090909081
 31
0.0
  0
LINE
  5
D21
  8
0
 10
219.99999999999989
 20
153.09090909090909
 30
0.0
 11
218.5
 21
153.09090909090909
 31
0.0
  0
LINE
  5
D22
  8
0
 10
216.0
 20
123.4999999999999
 30
0.0
 11
218.5
 21
123.4999999999999
 31
0.0
  0
LINE
  5
D23
  8
0
 10
218.5
 20
154.49999999999989
 30
0.0
 11
216.0
 21
154.49999999999989
 31
0.0
  0
LINE
  5
D24
  8
0
 10
214.5
 20
128.66666666666649
 30
0.0
 11
216.0
 21
128.66666666666649
 31
0.0
  0
LINE
  5
D25
  8
0
 10
216.0
 20
149.33333333333329
 30
0.0
 11
214.5
 21
149.33333333333329
 31
0.0
  0
LINE
  5
D28
  8
0
 10
219.99999999999989
 20
124.90909090909081
 30
0.0
 11
219.99999999999989
 21
153.09090909090909
 31
0.0
  0
LINE
  5
D29
  8
0
 10
218.5
 20
123.4999999999999
 30
0.0
 11
218.5
 21
154.49999999999989
 31
0.0
  0
LINE
  5
D2A
  8
0
 10
216.0
 20
123.4999999999999
 30
0.0
 11
216.0
 21
154.49999999999989
 31
0.0
  0
LINE
  5
D2D
  8
1
 10
232.99999999999989
 20
138.99999999999989
 30
0.0
 11
193.99999999999989
 21
138.99999999999989
 31
0.0
  0
LINE
  5
D2E
  8
1
 10
45.0
 20
138.99999999999989
 30
0.0
 11
83.999999999999957
 21
138.99999999999989
 31
0.0
  0
LINE
  5
D31
  8
0
 10
62.0
 20
154.49999999999989
 30
0.0
 11
62.0
 21
123.5
 31
0.0
  0
LINE
  5
D32
  8
0
 10
59.5
 20
154.49999999999989
 30
0.0
 11
59.5
 21
123.5
 31
0.0
  0
LINE
  5
D33
  8
0
 10
58.0
 20
153.09090909090909
 30
0.0
 11
58.0
 21
124.90909090909081
 31
0.0
  0
LINE
  5
D36
  8
0
 10
62.0
 20
128.6666666666666
 30
0.0
 11
63.5
 21
128.6666666666666
 31
0.0
  0
LINE
  5
D37
  8
0
 10
63.5
 20
149.33333333333329
 30
0.0
 11
62.0
 21
149.33333333333329
 31
0.0
  0
LINE
  5
D38
  8
0
 10
59.5
 20
123.5
 30
0.0
 11
62.0
 21
123.5
 31
0.0
  0
LINE
  5
D39
  8
0
 10
62.0
 20
154.49999999999989
 30
0.0
 11
59.5
 21
154.49999999999989
 31
0.0
  0
LINE
  5
D3A
  8
0
 10
58.0
 20
124.90909090909081
 30
0.0
 11
59.5
 21
124.90909090909081
 31
0.0
  0
LINE
  5
D3B
  8
0
 10
59.5
 20
153.09090909090909
 30
0.0
 11
58.0
 21
153.09090909090909
 31
0.0
  0
LINE
  5
D40
  8
0
 10
77.500000000000071
 20
153.26944977330351
 30
0.0
 11
77.500000000000071
 21
153.49999999999989
 31
0.0
  0
POLYLINE
  5
D41
  8
0
 66
     1
 10
0.0
 20
0.0
 30
0.0
  0
VERTEX
  5
1128
  8
0
 10
77.500000000000014
 20
153.26944977330351
 30
0.0
  0
VERTEX
  5
1129
  8
0
 10
77.338085583719604
 20
153.4227612292791
 30
0.0
  0
VERTEX
  5
112A
  8
0
 10
77.008648789023326
 20
153.73447504534161
 30
0.0
  0
VERTEX
  5
112B
  8
0
 10
76.671525410194533
 20
154.05317486797671
 30
0.0
  0
VERTEX
  5
112C
  8
0
 10
76.500000000000014
 20
154.21522134343871
 30
0.0
  0
SEQEND
  5
112D
  8
0
  0
LINE
  5
D42
  8
0
 10
76.500000000000014
 20
154.21522134343871
 30
0.0
 11
63.5
 21
154.21522134343871
 31
0.0
  0
LINE
  5
D43
  8
0
 10
76.500000000000014
 20
154.21522134343871
 30
0.0
 11
76.500000000000014
 21
151.85008237460309
 31
0.0
  0
LINE
  5
D44
  8
0
 10
63.5
 20
123.7847786565612
 30
0.0
 11
63.5
 21
154.21522134343871
 31
0.0
  0
LINE
  5
D45
  8
0
 10
76.500000000000014
 20
151.85008237460309
 30
0.0
 11
63.5
 21
151.85008237460309
 31
0.0
  0
POLYLINE
  5
D46
  8
0
 66
     1
 10
0.0
 20
0.0
 30
0.0
  0
VERTEX
  5
112E
  8
0
 10
76.500000000000014
 20
151.85008237460309
 30
0.0
  0
VERTEX
  5
112F
  8
0
 10
76.671525410195684
 20
151.68920320655681
 30
0.0
  0
VERTEX
  5
1130
  8
0
 10
77.008648789025372
 20
151.37279914916741
 30
0.0
  0
VERTEX
  5
1131
  8
0
 10
77.338085583720783
 20
151.0633307744113
 30
0.0
  0
VERTEX
  5
1132
  8
0
 10
77.500000000000014
 20
150.9111237028371
 30
0.0
  0
SEQEND
  5
1133
  8
0
  0
LINE
  5
D47
  8
0
 10
77.500000000000014
 20
150.9111237028371
 30
0.0
 11
63.5
 21
150.9111237028371
 31
0.0
  0
LINE
  5
D48
  8
0
 10
77.500000000000071
 20
150.9111237028371
 30
0.0
 11
77.500000000000071
 21
147.26892569417029
 31
0.0
  0
LINE
  5
D49
  8
0
 10
76.500000000000014
 20
147.66749000379659
 30
0.0
 11
63.5
 21
147.66749000379659
 31
0.0
  0
LINE
  5
D4A
  8
0
 10
76.500000000000014
 20
147.66749000379659
 30
0.0
 11
76.5
 21
141.95753942833639
 31
0.0
  0
LINE
  5
D4B
  8
0
 10
76.5
 20
141.95753942833639
 30
0.0
 11
63.5
 21
141.95753942833639
 31
0.0
  0
LINE
  5
D4C
  8
0
 10
77.5
 20
141.57542291035239
 30
0.0
 11
63.5
 21
141.57542291035239
 31
0.0
  0
LINE
  5
D4D
  8
0
 10
77.5
 20
141.57542291035239
 30
0.0
 11
77.5
 21
136.4245770896475
 31
0.0
  0
LINE
  5
D4E
  8
0
 10
77.499999999999943
 20
136.4245770896475
 30
0.0
 11
63.5
 21
136.4245770896475
 31
0.0
  0
LINE
  5
D4F
  8
0
 10
76.5
 20
136.0424605716635
 30
0.0
 11
63.5
 21
136.0424605716635
 31
0.0
  0
LINE
  5
D50
  8
0
 10
76.5
 20
136.0424605716635
 30
0.0
 11
76.5
 21
130.3325099962033
 31
0.0
  0
LINE
  5
D51
  8
0
 10
76.5
 20
130.3325099962033
 30
0.0
 11
63.5
 21
130.3325099962033
 31
0.0
  0
LINE
  5
D52
  8
0
 10
77.5
 20
130.73107430582959
 30
0.0
 11
77.5
 21
127.0888762971627
 31
0.0
  0
LINE
  5
D53
  8
0
 10
77.5
 20
127.0888762971627
 30
0.0
 11
63.5
 21
127.0888762971627
 31
0.0
  0
LINE
  5
D54
  8
0
 10
76.5
 20
126.1499176253968
 30
0.0
 11
63.5
 21
126.1499176253968
 31
0.0
  0
POLYLINE
  5
D55
  8
0
 66
     1
 10
0.0
 20
0.0
 30
0.0
  0
VERTEX
  5
1134
  8
0
 10
76.500000000000014
 20
147.6674900037965
 30
0.0
  0
VERTEX
  5
1135
  8
0
 10
76.671525410196026
 20
147.59920084850799
 30
0.0
  0
VERTEX
  5
1136
  8
0
 10
77.008648789025941
 20
147.4648952943995
 30
0.0
  0
VERTEX
  5
1137
  8
0
 10
77.338085583721082
 20
147.33353376290239
 30
0.0
  0
VERTEX
  5
1138
  8
0
 10
77.500000000000014
 20
147.26892569417029
 30
0.0
  0
SEQEND
  5
1139
  8
0
  0
POLYLINE
  5
D56
  8
0
 66
     1
 10
0.0
 20
0.0
 30
0.0
  0
VERTEX
  5
113A
  8
0
 10
77.5
 20
141.57542291035239
 30
0.0
  0
VERTEX
  5
113B
  8
0
 10
77.338085583719419
 20
141.63736475928769
 30
0.0
  0
VERTEX
  5
113C
  8
0
 10
77.008648789022971
 20
141.76330531593209
 30
0.0
  0
VERTEX
  5
113D
  8
0
 10
76.671525410194363
 20
141.89206840244569
 30
0.0
  0
VERTEX
  5
113E
  8
0
 10
76.5
 20
141.95753942833639
 30
0.0
  0
SEQEND
  5
113F
  8
0
  0
POLYLINE
  5
D57
  8
0
 66
     1
 10
0.0
 20
0.0
 30
0.0
  0
VERTEX
  5
1140
  8
0
 10
76.5
 20
136.0424605716635
 30
0.0
  0
VERTEX
  5
1141
  8
0
 10
76.671525410195883
 20
136.1079315975548
 30
0.0
  0
VERTEX
  5
1142
  8
0
 10
77.008648789025756
 20
136.23669468406891
 30
0.0
  0
VERTEX
  5
1143
  8
0
 10
77.338085583721011
 20
136.3626352407129
 30
0.0
  0
VERTEX
  5
1144
  8
0
 10
77.5
 20
136.4245770896475
 30
0.0
  0
SEQEND
  5
1145
  8
0
  0
POLYLINE
  5
D58
  8
0
 66
     1
 10
0.0
 20
0.0
 30
0.0
  0
VERTEX
  5
1146
  8
0
 10
77.5
 20
130.73107430582959
 30
0.0
  0
VERTEX
  5
1147
  8
0
 10
77.338085583719646
 20
130.6664662370969
 30
0.0
  0
VERTEX
  5
1148
  8
0
 10
77.008648789023425
 20
130.53510470559939
 30
0.0
  0
VERTEX
  5
1149
  8
0
 10
76.67152541019459
 20
130.4007991514913
 30
0.0
  0
VERTEX
  5
114A
  8
0
 10
76.5
 20
130.3325099962033
 30
0.0
  0
SEQEND
  5
114B
  8
0
  0
POLYLINE
  5
D59
  8
0
 66
     1
 10
0.0
 20
0.0
 30
0.0
  0
VERTEX
  5
114C
  8
0
 10
76.499999999999943
 20
126.1499176253968
 30
0.0
  0
VERTEX
  5
114D
  8
0
 10
76.671525410195954
 20
126.3107967934433
 30
0.0
  0
VERTEX
  5
114E
  8
0
 10
77.00864878902587
 20
126.62720085083311
 30
0.0
  0
VERTEX
  5
114F
  8
0
 10
77.338085583721067
 20
126.9366692255889
 30
0.0
  0
VERTEX
  5
1150
  8
0
 10
77.5
 20
127.0888762971627
 30
0.0
  0
SEQEND
  5
1151
  8
0
  0
LINE
  5
D5A
  8
0
 10
77.500000000000057
 20
124.73055022669639
 30
0.0
 11
77.500000000000057
 21
124.5
 31
0.0
  0
POLYLINE
  5
D5B
  8
0
 66
     1
 10
0.0
 20
0.0
 30
0.0
  0
VERTEX
  5
1152
  8
0
 10
76.5
 20
123.7847786565612
 30
0.0
  0
VERTEX
  5
1153
  8
0
 10
76.671525410195613
 20
123.9468251320243
 30
0.0
  0
VERTEX
  5
1154
  8
0
 10
77.008648789025244
 20
124.26552495466019
 30
0.0
  0
VERTEX
  5
1155
  8
0
 10
77.338085583720726
 20
124.57723877072191
 30
0.0
  0
VERTEX
  5
1156
  8
0
 10
77.5
 20
124.73055022669639
 30
0.0
  0
SEQEND
  5
1157
  8
0
  0
LINE
  5
D5C
  8
0
 10
76.5
 20
123.7847786565612
 30
0.0
 11
63.5
 21
123.7847786565612
 31
0.0
  0
LINE
  5
D5D
  8
0
 10
76.499999999999943
 20
126.1499176253968
 30
0.0
 11
76.499999999999943
 21
123.7847786565612
 31
0.0
  0
LINE
  5
D5E
  8
0
 10
79.000000000000014
 20
152.0
 30
0.0
 11
78.999999999999943
 21
126.0
 31
0.0
  0
LINE
  5
D5F
  8
0
 10
77.500000000000071
 20
153.49999999999989
 30
0.0
 11
77.256483713075127
 21
153.49999999999989
 31
0.0
  0
LINE
  5
D60
  8
0
 10
77.256483713075113
 20
124.5
 30
0.0
 11
77.500000000000057
 21
124.5
 31
0.0
  0
LINE
  5
D61
  8
0
 10
77.5
 20
124.5
 30
0.0
 11
78.999999999999943
 21
126.0
 31
0.0
  0
LINE
  5
D62
  8
0
 10
79.000000000000014
 20
152.0
 30
0.0
 11
77.500000000000014
 21
153.49999999999989
 31
0.0
  0
CIRCLE
  5
D64
  8
0
 10
138.99999999999989
 20
138.99999999999989
 30
0.0
 40
15.5
  0
LINE
  5
F1B
  8
0
 10
226.4999999999996
 20
148.31549999999979
 30
0.0
 11
227.99999999999949
 21
148.31549999999979
 31
0.0
  0
LINE
  5
F1C
  8
3
 10
219.99999999999989
 20
129.6844999999999
 30
0.0
 11
226.4999999999996
 21
129.6844999999999
 31
0.0
  0
LINE
  5
F1D
  8
0
 10
226.4999999999996
 20
128.52249999999989
 30
0.0
 11
226.4999999999996
 21
149.47749999999991
 31
0.0
  0
LINE
  5
F1E
  8
0
 10
227.99999999999949
 20
129.68450000000001
 30
0.0
 11
227.99999999999949
 21
148.31549999999979
 31
0.0
  0
LINE
  5
F1F
  8
0
 10
219.99999999999989
 20
128.52249999999989
 30
0.0
 11
226.4999999999996
 21
128.52249999999989
 31
0.0
  0
LINE
  5
F20
  8
0
 10
226.4999999999996
 20
129.68450000000001
 30
0.0
 11
227.99999999999949
 21
129.68450000000001
 31
0.0
  0
LINE
  5
F21
  8
0
 10
219.99999999999989
 20
149.47749999999991
 30
0.0
 11
226.4999999999996
 21
149.47749999999991
 31
0.0
  0
LINE
  5
F22
  8
3
 10
219.99999999999989
 20
148.31549999999999
 30
0.0
 11
226.4999999999996
 21
148.3154999999999
 31
0.0
  0
LINE
  5
F6A
  8
3
 10
148.31549999999959
 20
57.999999999999972
 30
0.0
 11
148.31549999999939
 21
51.500000000000291
 31
0.0
  0
LINE
  5
F6B
  8
0
 10
149.47749999999951
 20
57.999999999999972
 30
0.0
 11
149.47749999999951
 21
51.500000000000291
 31
0.0
  0
LINE
  5
F6C
  8
0
 10
129.68449999999959
 20
51.500000000000291
 30
0.0
 11
129.68449999999959
 21
50.000000000000291
 31
0.0
  0
LINE
  5
F6D
  8
0
 10
128.52249999999941
 20
57.999999999999979
 30
0.0
 11
128.52249999999961
 21
51.500000000000291
 31
0.0
  0
LINE
  5
F6E
  8
0
 10
129.68449999999959
 20
50.000000000000291
 30
0.0
 11
148.31549999999939
 21
50.000000000000291
 31
0.0
  0
LINE
  5
F6F
  8
0
 10
128.52249999999961
 20
51.500000000000291
 30
0.0
 11
149.47749999999951
 21
51.500000000000291
 31
0.0
  0
LINE
  5
F70
  8
3
 10
129.6844999999995
 20
57.999999999999979
 30
0.0
 11
129.68449999999959
 21
51.500000000000291
 31
0.0
  0
LINE
  5
F71
  8
0
 10
148.31549999999939
 20
51.500000000000291
 30
0.0
 11
148.31549999999939
 21
50.000000000000291
 31
0.0
  0
LINE
  5
FF7
  8
0
 10
148.31549999999979
 20
226.49999999999969
 30
0.0
 11
148.31549999999979
 21
227.9999999999996
 31
0.0
  0
LINE
  5
FF8
  8
3
 10
129.6844999999999
 20
219.99999999999989
 30
0.0
 11
129.68450000000001
 21
226.49999999999969
 31
0.0
  0
LINE
  5
FF9
  8
0
 10
128.52250000000001
 20
226.49999999999969
 30
0.0
 11
149.47749999999991
 21
226.49999999999969
 31
0.0
  0
LINE
  5
FFA
  8
0
 10
129.68450000000001
 20
227.9999999999996
 30
0.0
 11
148.31549999999979
 21
227.9999999999996
 31
0.0
  0
LINE
  5
FFB
  8
0
 10
128.52249999999981
 20
219.99999999999989
 30
0.0
 11
128.52250000000001
 21
226.49999999999969
 31
0.0
  0
LINE
  5
FFC
  8
0
 10
129.68450000000001
 20
226.49999999999969
 30
0.0
 11
129.68450000000001
 21
227.9999999999996
 31
0.0
  0
LINE
  5
FFD
  8
0
 10
149.47749999999991
 20
219.99999999999989
 30
0.0
 11
149.47749999999991
 21
226.49999999999969
 31
0.0
  0
LINE
  5
FFE
  8
3
 10
148.31549999999999
 20
219.99999999999989
 30
0.0
 11
148.31549999999979
 21
226.49999999999969
 31
0.0
  0
LINE
  5
102A
  8
3
 10
58.0
 20
148.3154999999995
 30
0.0
 11
51.500000000000341
 21
148.3154999999995
 31
0.0
  0
LINE
  5
102B
  8
0
 10
58.0
 20
149.47749999999951
 30
0.0
 11
51.500000000000341
 21
149.47749999999951
 31
0.0
  0
LINE
  5
102C
  8
0
 10
51.500000000000341
 20
129.68449999999959
 30
0.0
 11
50.000000000000341
 21
129.68449999999959
 31
0.0
  0
LINE
  5
102D
  8
0
 10
58.0
 20
128.5224999999995
 30
0.0
 11
51.500000000000341
 21
128.5224999999995
 31
0.0
  0
LINE
  5
102E
  8
0
 10
50.000000000000341
 20
129.68449999999959
 30
0.0
 11
50.000000000000341
 21
148.31549999999939
 31
0.0
  0
LINE
  5
102F
  8
0
 10
51.500000000000341
 20
128.5224999999995
 30
0.0
 11
51.500000000000341
 21
149.47749999999951
 31
0.0
  0
LINE
  5
1030
  8
3
 10
58.0
 20
129.68449999999939
 30
0.0
 11
51.500000000000341
 21
129.6844999999995
 31
0.0
  0
LINE
  5
1031
  8
0
 10
51.500000000000341
 20
148.31549999999939
 30
0.0
 11
50.000000000000341
 21
148.31549999999939
 31
0.0
  0
ENDSEC
  0
EOF
