  0
SECTION
  2
HEADER
  9
$ACADVER
  1
AC1009
  9
$INSBASE
 10
0.0
 20
0.0
 30
0.0
  9
$EXTMIN
 10
0.0
 20
-1.4802182810368341
 30
0.0
  9
$EXTMAX
 10
75.05618775705608
 20
45.06218185456131
 30
0.0
  9
$LIMMIN
 10
0.0
 20
0.0
  9
$LIMMAX
 10
270.0
 20
175.0
  9
$ORTHOMODE
 70
     1
  9
$REGENMODE
 70
     1
  9
$FILLMODE
 70
     1
  9
$QTEXTMODE
 70
     0
  9
$MIRRTEXT
 70
     0
  9
$DRAGMODE
 70
     2
  9
$LTSCALE
 40
10.0
  9
$OSMODE
 70
  3071
  9
$ATTMODE
 70
     1
  9
$TEXTSIZE
 40
0.2
  9
$TRACEWID
 40
0.05
  9
$TEXTSTYLE
  7
STANDARD
  9
$CLAYER
  8
3
  9
$CELTYPE
  6
BYLAYER
  9
$CECOLOR
 62
   256
  9
$DIMSCALE
 40
1.0
  9
$DIMASZ
 40
3.0
  9
$DIMEXO
 40
2.0
  9
$DIMDLI
 40
0.38
  9
$DIMRND
 40
0.0
  9
$DIMDLE
 40
0.0
  9
$DIMEXE
 40
2.0
  9
$DIMTP
 40
0.0
  9
$DIMTM
 40
0.0
  9
$DIMTXT
 40
3.2000000000000002
  9
$DIMCEN
 40
0.0
  9
$DIMTSZ
 40
0.0
  9
$DIMTOL
 70
     0
  9
$DIMLIM
 70
     0
  9
$DIMTIH
 70
     0
  9
$DIMTOH
 70
     0
  9
$DIMSE1
 70
     0
  9
$DIMSE2
 70
     0
  9
$DIMTAD
 70
     1
  9
$DIMZIN
 70
     0
  9
$DIMBLK
  1

  9
$DIMASO
 70
     0
  9
$DIMSHO
 70
     0
  9
$DIMPOST
  1

  9
$DIMAPOST
  1

  9
$DIMALT
 70
     0
  9
$DIMALTD
 70
     2
  9
$DIMALTF
 40
25.399999999999999
  9
$DIMLFAC
 40
1.0
  9
$DIMTOFL
 70
     1
  9
$DIMTVP
 40
1.6000000000000001
  9
$DIMTIX
 70
     1
  9
$DIMSOXD
 70
     0
  9
$DIMSAH
 70
     0
  9
$DIMBLK1
  1

  9
$DIMBLK2
  1

  9
$DIMSTYLE
  2
STANDARD
  9
$DIMCLRD
 70
     0
  9
$DIMCLRE
 70
     0
  9
$DIMCLRT
 70
     0
  9
$DIMTFAC
 40
1.0
  9
$DIMGAP
 40
0.09
  9
$LUNITS
 70
     2
  9
$LUPREC
 70
     4
  9
$SKETCHINC
 40
0.1
  9
$FILLETRAD
 40
0.0
  9
$AUNITS
 70
     1
  9
$AUPREC
 70
     4
  9
$MENU
  1
E:\r13\win\SUPPORT\ACAD
  9
$ELEVATION
 40
0.0
  9
$PELEVATION
 40
0.0
  9
$THICKNESS
 40
0.0
  9
$LIMCHECK
 70
     0
  9
$BLIPMODE
 70
     0
  9
$CHAMFERA
 40
0.0
  9
$CHAMFERB
 40
0.0
  9
$SKPOLY
 70
     0
  9
$TDCREATE
 40
2449839.7803587969
  9
$TDUPDATE
 40
2456598.4287025351
  9
$TDINDWG
 40
0.0229174306
  9
$TDUSRTIMER
 40
0.0229174306
  9
$USRTIMER
 70
     1
  9
$ANGBASE
 50
0.0
  9
$ANGDIR
 70
     0
  9
$PDMODE
 70
     0
  9
$PDSIZE
 40
0.0
  9
$PLINEWID
 40
0.0
  9
$COORDS
 70
     1
  9
$SPLFRAME
 70
     0
  9
$SPLINETYPE
 70
     6
  9
$SPLINESEGS
 70
     8
  9
$ATTDIA
 70
     0
  9
$ATTREQ
 70
     1
  9
$HANDLING
 70
     1
  9
$HANDSEED
  5
716
  9
$SURFTAB1
 70
     6
  9
$SURFTAB2
 70
     6
  9
$SURFTYPE
 70
     6
  9
$SURFU
 70
     6
  9
$SURFV
 70
     6
  9
$UCSNAME
  2

  9
$UCSORG
 10
0.0
 20
0.0
 30
0.0
  9
$UCSXDIR
 10
1.0
 20
0.0
 30
0.0
  9
$UCSYDIR
 10
0.0
 20
1.0
 30
0.0
  9
$PUCSNAME
  2

  9
$PUCSORG
 10
0.0
 20
0.0
 30
0.0
  9
$PUCSXDIR
 10
1.0
 20
0.0
 30
0.0
  9
$PUCSYDIR
 10
0.0
 20
1.0
 30
0.0
  9
$USERI1
 70
     0
  9
$USERI2
 70
     1
  9
$USERI3
 70
     0
  9
$USERI4
 70
     0
  9
$USERI5
 70
     0
  9
$USERR1
 40
0.0
  9
$USERR2
 40
0.0
  9
$USERR3
 40
0.0
  9
$USERR4
 40
0.0
  9
$USERR5
 40
0.0
  9
$WORLDVIEW
 70
     1
  9
$SHADEDGE
 70
     3
  9
$SHADEDIF
 70
    70
  9
$TILEMODE
 70
     1
  9
$MAXACTVP
 70
    16
  9
$PLIMCHECK
 70
     0
  9
$PEXTMIN
 10
1.0000000000000000E+020
 20
1.0000000000000000E+020
 30
1.0000000000000000E+020
  9
$PEXTMAX
 10
-1.0000000000000000E+020
 20
-1.0000000000000000E+020
 30
-1.0000000000000000E+020
  9
$PLIMMIN
 10
0.0
 20
0.0
  9
$PLIMMAX
 10
12.0
 20
9.0
  9
$UNITMODE
 70
     0
  9
$VISRETAIN
 70
     0
  9
$PLINEGEN
 70
     0
  9
$PSLTSCALE
 70
     0
  0
ENDSEC
  0
SECTION
  2
TABLES
  0
TABLE
  2
VPORT
 70
     1
  0
VPORT
  2
*ACTIVE
 70
     0
 10
0.0
 20
0.0
 11
1.0
 21
1.0
 12
139.88615432881801
 22
86.756324970927466
 13
0.0
 23
0.0
 14
10.0
 24
10.0
 15
10.0
 25
10.0
 16
0.0
 26
0.0
 36
1.0
 17
0.0
 27
0.0
 37
0.0
 40
178.07019624700729
 41
1.831871345029239
 42
50.0
 43
0.0
 44
0.0
 50
0.0
 51
0.0
 71
     0
 72
   500
 73
     1
 74
     0
 75
     0
 76
     0
 77
     0
 78
     2
  0
ENDTAB
  0
TABLE
  2
LTYPE
 70
     4
  0
LTYPE
  2
CONTINUOUS
 70
     0
  3
Solid Line
 72
    65
 73
     0
 40
0.0
  0
LTYPE
  2
CENTER
 70
     0
  3
____ _ ____ _ ____ _ ____ _ ____ _ ____ _ ____
 72
    65
 73
     4
 40
2.0
 49
1.25
 49
-0.25
 49
0.25
 49
-0.25
  0
LTYPE
  2
HIDDEN
 70
     0
  3
__ __ __ __ __ __ __ __ __ __ __ __ __ __ __ __
 72
    65
 73
     2
 40
0.375
 49
0.25
 49
-0.125
  0
LTYPE
  2
PHANTOM2
 70
     0
  3
___ _ _ ___ _ _ ___ _ _ ___ _ _
 72
    65
 73
     6
 40
1.25
 49
0.625
 49
-0.125
 49
0.125
 49
-0.125
 49
0.125
 49
-0.125
  0
ENDTAB
  0
TABLE
  2
LAYER
 70
     5
  0
LAYER
  2
0
 70
     0
 62
     7
  6
CONTINUOUS
  0
LAYER
  2
1
 70
     0
 62
     1
  6
CENTER
  0
LAYER
  2
2
 70
     0
 62
     2
  6
HIDDEN
  0
LAYER
  2
3
 70
     0
 62
     3
  6
CONTINUOUS
  0
LAYER
  2
ITTEN
 70
     0
 62
     1
  6
CENTER
  0
ENDTAB
  0
TABLE
  2
STYLE
 70
     2
  0
STYLE
  2
STANDARD
 70
     0
 40
0.0
 41
1.0
 50
0.0
 71
     0
 42
0.2
  3
TXT
  4
BIGFONT
  0
STYLE
  2
STANDARD1
 70
     0
 40
0.0
 41
1.0
 50
0.0
 71
     0
 42
3.0
  3
txt
  4

  0
ENDTAB
  0
TABLE
  2
VIEW
 70
     1
  0
VIEW
  2
ALL
 70
     0
 40
179.5384664489153
 10
135.0
 20
89.769233224457665
 41
0.0
 11
0.0
 21
0.0
 31
1.0
 12
0.0
 22
0.0
 32
0.0
 42
0.0
 43
0.0
 44
0.0
 50
0.0
 71
     0
  0
ENDTAB
  0
TABLE
  2
UCS
 70
     0
  0
ENDTAB
  0
TABLE
  2
APPID
 70
     5
  0
APPID
  2
ACAD
 70
     0
  0
APPID
  2
GENIUS_GENODEF_13
 70
     0
  0
APPID
  2
GENIUS_GENOBJ-N-FIL_13
 70
     0
  0
APPID
  2
ACAD_MLEADERVER
 70
     0
  0
APPID
  2
ACAD_NAV_VCDISPLAY
 70
     0
  0
ENDTAB
  0
TABLE
  2
DIMSTYLE
 70
     1
  0
DIMSTYLE
  2
STANDARD
 70
     0
  3

  4

  5

  6

  7

 40
1.0
 41
0.18
 42
0.0625
 43
0.38
 44
0.18
 45
0.0
 46
0.0
 47
0.0
 48
0.0
140
0.18
141
0.09
142
0.0
143
25.399999999999999
144
1.0
145
0.0
146
1.0
147
0.09
 71
     0
 72
     0
 73
     1
 74
     1
 75
     0
 76
     0
 77
     0
 78
     0
170
     0
171
     2
172
     0
173
     0
174
     0
175
     0
176
     0
177
     0
178
     0
  0
ENDTAB
  0
ENDSEC
  0
SECTION
  2
BLOCKS
  0
BLOCK
  8
0
  2
$MODEL_SPACE
 70
     0
 10
0.0
 20
0.0
 30
0.0
  3
$MODEL_SPACE
  1

  0
ENDBLK
  5
5C8
  8
0
  0
BLOCK
 67
     1
  8
0
  2
$PAPER_SPACE
 70
     0
 10
0.0
 20
0.0
 30
0.0
  3
$PAPER_SPACE
  1

  0
ENDBLK
  5
5C6
 67
     1
  8
0
  0
ENDSEC
  0
SECTION
  2
ENTITIES
  0
LINE
  5
556
  8
1
 10
55.05618775705608
 20
35.062181854561317
 30
0.0
 11
75.05618775705608
 21
35.062181854561317
 31
0.0
  0
CIRCLE
  5
557
  8
0
 10
65.05618775705608
 20
35.062181854561317
 30
0.0
 40
8.0
  0
LINE
  5
558
  8
1
 10
13.2422410930256
 20
35.062181854561317
 30
0.0
 11
45.242241093025598
 21
35.062181854561317
 31
0.0
  0
LINE
  5
559
  8
0
 10
15.2422410930256
 20
29.928206854561331
 30
0.0
 11
16.742241093025601
 21
29.06218185456132
 31
0.0
  0
LINE
  5
55A
  8
0
 10
15.2422410930256
 20
40.196156854561302
 30
0.0
 11
16.742241093025601
 21
41.06218185456131
 31
0.0
  0
LINE
  5
55B
  8
0
 10
15.2422410930256
 20
40.196156854561302
 30
0.0
 11
15.2422410930256
 21
29.928206854561331
 31
0.0
  0
ARC
  5
55C
  8
0
 10
39.242241093025598
 20
31.06218185456132
 30
0.0
 40
4.0
 50
214.812242
 51
0.0
  0
ARC
  5
55D
  8
0
 10
39.242241093025598
 20
39.062181854561317
 30
0.0
 40
4.0
 50
0.0
 51
145.187758
  0
LINE
  5
55E
  8
0
 10
35.958132093025597
 20
41.345737854561321
 30
0.0
 11
35.958132093025597
 21
28.778625854561309
 31
0.0
  0
LINE
  5
55F
  8
0
 10
31.242241093025601
 20
43.06218185456131
 30
0.0
 11
31.242241093025601
 21
27.06218185456132
 31
0.0
  0
LINE
  5
560
  8
0
 10
16.742241093025601
 20
41.06218185456131
 30
0.0
 11
16.742241093025601
 21
29.06218185456132
 31
0.0
  0
LINE
  5
561
  8
0
 10
27.242241093025601
 20
41.06218185456131
 30
0.0
 11
27.242241093025601
 21
29.06218185456132
 31
0.0
  0
LINE
  5
562
  8
0
 10
27.242241093025601
 20
27.06218185456132
 30
0.0
 11
31.242241093025601
 21
27.06218185456132
 31
0.0
  0
LINE
  5
563
  8
0
 10
16.742241093025601
 20
29.06218185456132
 30
0.0
 11
27.242241093025601
 21
29.06218185456132
 31
0.0
  0
LINE
  5
564
  8
0
 10
27.242241093025601
 20
29.06218185456132
 30
0.0
 11
27.242241093025601
 21
27.06218185456132
 31
0.0
  0
LINE
  5
565
  8
0
 10
31.242241093025601
 20
27.06218185456132
 30
0.0
 11
35.958132093025597
 21
28.778625854561309
 31
0.0
  0
LINE
  5
566
  8
0
 10
27.242241093025601
 20
43.06218185456131
 30
0.0
 11
31.242241093025601
 21
43.06218185456131
 31
0.0
  0
LINE
  5
568
  8
0
 10
16.742241093025601
 20
41.06218185456131
 30
0.0
 11
27.242241093025601
 21
41.06218185456131
 31
0.0
  0
LINE
  5
569
  8
0
 10
27.242241093025601
 20
41.06218185456131
 30
0.0
 11
27.242241093025601
 21
43.06218185456131
 31
0.0
  0
LINE
  5
56A
  8
0
 10
31.242241093025601
 20
43.06218185456131
 30
0.0
 11
35.958132093025597
 21
41.345737854561321
 31
0.0
  0
LINE
  5
56B
  8
1
 10
39.242241093025598
 20
45.06218185456131
 30
0.0
 11
39.242241093025598
 21
25.06218185456132
 31
0.0
  0
LINE
  5
56C
  8
0
 10
43.242241093025591
 20
39.062181854561317
 30
0.0
 11
43.242241093025591
 21
31.06218185456132
 31
0.0
  0
LINE
  5
56D
  8
1
 10
65.05618775705608
 20
25.06218185456132
 30
0.0
 11
65.05618775705608
 21
45.06218185456131
 31
0.0
  0
CIRCLE
  5
56E
  8
0
 10
65.05618775705608
 20
35.062181854561317
 30
0.0
 40
2.1000000000000001
  0
CIRCLE
  5
56F
  8
3
 10
65.05618775705608
 20
35.062181854561317
 30
0.0
 40
2.5
  0
LINE
  5
582
  8
2
 10
42.242241093026053
 20
37.162181854561041
 30
0.0
 11
30.242241093025829
 21
37.162181854561041
 31
0.0
  0
LINE
  5
583
  8
2
 10
29.02980552772776
 20
35.062181854561302
 30
0.0
 11
30.242241093025829
 21
37.162181854561041
 31
0.0
  0
LINE
  5
584
  8
2
 10
42.642241093026122
 20
37.562181854561103
 30
0.0
 11
33.242241093025598
 21
37.562181854561103
 31
0.0
  0
LINE
  5
585
  8
2
 10
42.242241093026053
 20
37.162181854561041
 30
0.0
 11
43.242241093025591
 21
38.162181854560579
 31
0.0
  0
LINE
  5
586
  8
2
 10
32.549420769997951
 20
37.162181854561041
 30
0.0
 11
33.242241093025612
 21
37.562181854561103
 31
0.0
  0
LINE
  5
587
  8
2
 10
29.02980552772776
 20
35.062181854561302
 30
0.0
 11
30.242241093025829
 21
32.962181854561571
 31
0.0
  0
LINE
  5
588
  8
2
 10
32.549420769997951
 20
32.962181854561571
 30
0.0
 11
33.242241093025612
 21
32.562181854561501
 31
0.0
  0
LINE
  5
589
  8
2
 10
30.242241093025829
 20
37.162181854561041
 30
0.0
 11
30.242241093025829
 21
32.962181854561571
 31
0.0
  0
LINE
  5
58A
  8
2
 10
33.242241093025598
 20
37.562181854561103
 30
0.0
 11
33.242241093025598
 21
32.562181854561501
 31
0.0
  0
LINE
  5
58B
  8
2
 10
42.242241093026053
 20
32.962181854561571
 30
0.0
 11
42.242241093026053
 21
37.162181854561041
 31
0.0
  0
LINE
  5
58C
  8
2
 10
42.242241093026053
 20
32.962181854561571
 30
0.0
 11
43.242241093025591
 21
31.962181854562019
 31
0.0
  0
LINE
  5
58D
  8
2
 10
42.642241093026122
 20
32.562181854561501
 30
0.0
 11
33.242241093025598
 21
32.562181854561501
 31
0.0
  0
LINE
  5
58E
  8
2
 10
42.242241093026053
 20
32.962181854561571
 30
0.0
 11
30.242241093025829
 21
32.962181854561571
 31
0.0
  0
LINE
  5
591
  8
ITTEN
 10
27.242241093025601
 20
35.061681854561307
 30
0.0
 11
27.242241093025601
 21
35.062681854561319
 31
0.0
  0
LINE
  5
592
  8
ITTEN
 10
27.2427410930256
 20
35.062181854561317
 30
0.0
 11
27.241741093025599
 21
35.062181854561317
 31
0.0
  0
TEXT
  5
685
  8
0
 62
     3
 10
0.0
 20
0.0
 30
0.0
 40
5.0
  1
BJ791-16001
  7
STANDARD1
  0
ENDSEC
  0
EOF
