  0
SECTION
  2
HEADER
  9
$ACADVER
  1
AC1009
  9
$INSBASE
 10
0.0
 20
0.0
 30
0.0
  9
$EXTMIN
 10
0.0
 20
-2.960436562073669
 30
0.0
  9
$EXTMAX
 10
128.15000000000009
 20
222.15000000000009
 30
0.0
  9
$LIMMIN
 10
0.0
 20
0.0
  9
$LIMMAX
 10
12.0
 20
9.0
  9
$ORTHOMODE
 70
     1
  9
$REGENMODE
 70
     1
  9
$FILLMODE
 70
     1
  9
$QTEXTMODE
 70
     0
  9
$MIRRTEXT
 70
     0
  9
$DRAGMODE
 70
     2
  9
$LTSCALE
 40
10.0
  9
$OSMODE
 70
    37
  9
$ATTMODE
 70
     1
  9
$TEXTSIZE
 40
0.2
  9
$TRACEWID
 40
0.05
  9
$TEXTSTYLE
  7
STANDARD
  9
$CLAYER
  8
0
  9
$CELTYPE
  6
BYLAYER
  9
$CECOLOR
 62
   256
  9
$DIMSCALE
 40
1.0
  9
$DIMASZ
 40
0.18
  9
$DIMEXO
 40
0.0625
  9
$DIMDLI
 40
0.38
  9
$DIMRND
 40
0.0
  9
$DIMDLE
 40
0.0
  9
$DIMEXE
 40
0.18
  9
$DIMTP
 40
0.0
  9
$DIMTM
 40
0.0
  9
$DIMTXT
 40
1.5
  9
$DIMCEN
 40
0.0
  9
$DIMTSZ
 40
0.0
  9
$DIMTOL
 70
     0
  9
$DIMLIM
 70
     0
  9
$DIMTIH
 70
     1
  9
$DIMTOH
 70
     1
  9
$DIMSE1
 70
     0
  9
$DIMSE2
 70
     0
  9
$DIMTAD
 70
     0
  9
$DIMZIN
 70
     8
  9
$DIMBLK
  1

  9
$DIMASO
 70
     1
  9
$DIMSHO
 70
     1
  9
$DIMPOST
  1

  9
$DIMAPOST
  1

  9
$DIMALT
 70
     0
  9
$DIMALTD
 70
     2
  9
$DIMALTF
 40
25.399999999999999
  9
$DIMLFAC
 40
1.0
  9
$DIMTOFL
 70
     0
  9
$DIMTVP
 40
0.0
  9
$DIMTIX
 70
     0
  9
$DIMSOXD
 70
     0
  9
$DIMSAH
 70
     0
  9
$DIMBLK1
  1

  9
$DIMBLK2
  1

  9
$DIMSTYLE
  2
STANDARD
  9
$DIMCLRD
 70
     0
  9
$DIMCLRE
 70
     0
  9
$DIMCLRT
 70
     0
  9
$DIMTFAC
 40
1.0
  9
$DIMGAP
 40
0.5
  9
$LUNITS
 70
     2
  9
$LUPREC
 70
     4
  9
$SKETCHINC
 40
0.1
  9
$FILLETRAD
 40
0.5
  9
$AUNITS
 70
     0
  9
$AUPREC
 70
     0
  9
$MENU
  1
.
  9
$ELEVATION
 40
0.0
  9
$PELEVATION
 40
0.0
  9
$THICKNESS
 40
0.0
  9
$LIMCHECK
 70
     0
  9
$BLIPMODE
 70
     0
  9
$CHAMFERA
 40
0.25
  9
$CHAMFERB
 40
0.25
  9
$SKPOLY
 70
     0
  9
$TDCREATE
 40
2453083.4120647679
  9
$TDUPDATE
 40
2456812.4014307871
  9
$TDINDWG
 40
0.4842900926
  9
$TDUSRTIMER
 40
0.4842899769
  9
$USRTIMER
 70
     1
  9
$ANGBASE
 50
0.0
  9
$ANGDIR
 70
     0
  9
$PDMODE
 70
     0
  9
$PDSIZE
 40
0.0
  9
$PLINEWID
 40
0.0
  9
$COORDS
 70
     1
  9
$SPLFRAME
 70
     0
  9
$SPLINETYPE
 70
     6
  9
$SPLINESEGS
 70
     8
  9
$ATTDIA
 70
     0
  9
$ATTREQ
 70
     1
  9
$HANDLING
 70
     1
  9
$HANDSEED
  5
2A8B
  9
$SURFTAB1
 70
     6
  9
$SURFTAB2
 70
     6
  9
$SURFTYPE
 70
     6
  9
$SURFU
 70
     6
  9
$SURFV
 70
     6
  9
$UCSNAME
  2

  9
$UCSORG
 10
0.0
 20
0.0
 30
0.0
  9
$UCSXDIR
 10
1.0
 20
0.0
 30
0.0
  9
$UCSYDIR
 10
0.0
 20
1.0
 30
0.0
  9
$PUCSNAME
  2

  9
$PUCSORG
 10
0.0
 20
0.0
 30
0.0
  9
$PUCSXDIR
 10
1.0
 20
0.0
 30
0.0
  9
$PUCSYDIR
 10
0.0
 20
1.0
 30
0.0
  9
$USERI1
 70
     0
  9
$USERI2
 70
     1
  9
$USERI3
 70
     0
  9
$USERI4
 70
     0
  9
$USERI5
 70
     0
  9
$USERR1
 40
0.0
  9
$USERR2
 40
0.0
  9
$USERR3
 40
0.0
  9
$USERR4
 40
0.0
  9
$USERR5
 40
0.0
  9
$WORLDVIEW
 70
     1
  9
$SHADEDGE
 70
     3
  9
$SHADEDIF
 70
    70
  9
$TILEMODE
 70
     1
  9
$MAXACTVP
 70
    64
  9
$PLIMCHECK
 70
     0
  9
$PEXTMIN
 10
0.0
 20
0.0
 30
0.0
  9
$PEXTMAX
 10
0.0
 20
0.0
 30
0.0
  9
$PLIMMIN
 10
0.0
 20
0.0
  9
$PLIMMAX
 10
12.0
 20
9.0
  9
$UNITMODE
 70
     0
  9
$VISRETAIN
 70
     1
  9
$PLINEGEN
 70
     0
  9
$PSLTSCALE
 70
     1
  0
ENDSEC
  0
SECTION
  2
TABLES
  0
TABLE
  2
VPORT
 70
     1
  0
VPORT
  2
*ACTIVE
 70
     0
 10
0.0
 20
0.0
 11
1.0
 21
1.0
 12
235.63977746870651
 22
135.0
 13
0.0
 23
0.0
 14
0.5
 24
0.5
 15
0.5
 25
0.5
 16
0.0
 26
0.0
 36
1.0
 17
0.0
 27
0.0
 37
0.0
 40
270.0
 41
1.7454798331015291
 42
50.0
 43
0.0
 44
0.0
 50
0.0
 51
0.0
 71
     0
 72
  1000
 73
     1
 74
     2
 75
     0
 76
     0
 77
     0
 78
     0
  0
ENDTAB
  0
TABLE
  2
LTYPE
 70
     3
  0
LTYPE
  2
CONTINUOUS
 70
     0
  3
Solid Line
 72
    65
 73
     0
 40
0.0
  0
LTYPE
  2
CENTER
 70
     0
  3
____ _ ____ _ ____ _ ____ _ ____ _ ____ _ ____
 72
    65
 73
     4
 40
2.0
 49
1.25
 49
-0.25
 49
0.25
 49
-0.25
  0
LTYPE
  2
PHANTOM2
 70
     0
  3
___ _ _ ___ _ _ ___ _ _ ___ _ _
 72
    65
 73
     6
 40
1.25
 49
0.625
 49
-0.125
 49
0.125
 49
-0.125
 49
0.125
 49
-0.125
  0
ENDTAB
  0
TABLE
  2
LAYER
 70
     3
  0
LAYER
  2
0
 70
     0
 62
     7
  6
CONTINUOUS
  0
LAYER
  2
1
 70
     0
 62
     1
  6
CENTER
  0
LAYER
  2
DEFPOINTS
 70
     0
 62
     7
  6
CONTINUOUS
  0
ENDTAB
  0
TABLE
  2
STYLE
 70
     2
  0
STYLE
  2
STANDARD
 70
     0
 40
0.0
 41
1.0
 50
0.0
 71
     0
 42
0.2
  3
simplex.shx
  4
bigfont.shx
  0
STYLE
  2
STANDARD1
 70
     0
 40
0.0
 41
1.0
 50
0.0
 71
     0
 42
3.0
  3
txt
  4

  0
ENDTAB
  0
TABLE
  2
VIEW
 70
     0
  0
ENDTAB
  0
TABLE
  2
UCS
 70
     0
  0
ENDTAB
  0
TABLE
  2
APPID
 70
     7
  0
APPID
  2
ACAD
 70
     0
  0
APPID
  2
DCO15
 70
     0
  0
APPID
  2
ACAD_MLEADERVER
 70
     0
  0
APPID
  2
ACAD_DSTYLE_DIMJAG
 70
     0
  0
APPID
  2
ACAD_DSTYLE_DIMTALN
 70
     0
  0
APPID
  2
ACAD_EXEMPT_FROM_CAD_STANDARDS
 70
     0
  0
APPID
  2
ACAD_NAV_VCDISPLAY
 70
     0
  0
ENDTAB
  0
TABLE
  2
DIMSTYLE
 70
     1
  0
DIMSTYLE
  2
STANDARD
 70
     0
  3

  4

  5

  6

  7

 40
1.0
 41
0.18
 42
0.0625
 43
0.38
 44
0.18
 45
0.0
 46
0.0
 47
0.0
 48
0.0
140
1.5
141
0.0
142
0.0
143
25.399999999999999
144
1.0
145
0.0
146
1.0
147
0.5
 71
     0
 72
     0
 73
     1
 74
     1
 75
     0
 76
     0
 77
     0
 78
     8
170
     0
171
     2
172
     0
173
     0
174
     0
175
     0
176
     0
177
     0
178
     0
  0
ENDTAB
  0
ENDSEC
  0
SECTION
  2
BLOCKS
  0
BLOCK
  8
0
  2
$MODEL_SPACE
 70
     0
 10
0.0
 20
0.0
 30
0.0
  3
$MODEL_SPACE
  1

  0
ENDBLK
  5
21
  8
0
  0
BLOCK
 67
     1
  8
0
  2
$PAPER_SPACE
 70
     0
 10
0.0
 20
0.0
 30
0.0
  3
$PAPER_SPACE
  1

  0
ENDBLK
  5
5B
 67
     1
  8
0
  0
ENDSEC
  0
SECTION
  2
ENTITIES
  0
LINE
  5
20F5
  8
0
 10
45.699999999999889
 20
50.0
 30
0.0
 11
54.30000000000009
 21
50.0
 31
0.0
  0
LINE
  5
20FA
  8
0
 10
56.79999999999999
 20
119.0
 30
0.0
 11
43.200000000000053
 21
119.0
 31
0.0
  0
LINE
  5
20FE
  8
0
 10
58.150000000000112
 20
141.19999999999999
 30
0.0
 11
41.850000000000009
 21
141.19999999999999
 31
0.0
  0
LINE
  5
211A
  8
0
 10
42.950000000000053
 20
136.09999999999999
 30
0.0
 11
42.950000000000053
 21
119.25
 31
0.0
  0
LINE
  5
2123
  8
1
 10
50.00000000000005
 20
164.0
 30
0.0
 11
50.0
 21
45.0
 31
0.0
  0
LINE
  5
2124
  8
0
 10
45.000000000000071
 20
119.0
 30
0.0
 11
45.00000000000005
 21
59.000000000000028
 31
0.0
  0
LINE
  5
2126
  8
0
 10
44.999999999999908
 20
52.0
 30
0.0
 11
55.000000000000071
 21
52.0
 31
0.0
  0
LINE
  5
2127
  8
0
 10
44.999999999999908
 20
52.0
 30
0.0
 11
45.699999999999889
 21
50.0
 31
0.0
  0
ARC
  5
2128
  8
0
 10
45.850000000000009
 20
57.413336834737777
 30
0.0
 40
1.8
 50
118.17864274052209
 51
241.8213572594758
  0
ARC
  5
212D
  8
0
 10
41.328147606452617
 20
57.413336834737663
 30
0.0
 40
4.0
 50
336.63009422995827
 51
23.36990577004433
  0
LINE
  5
212F
  8
0
 10
44.999999999999957
 20
55.826673669475547
 30
0.0
 11
44.999999999999957
 21
52.0
 31
0.0
  0
LINE
  5
2137
  8
0
 10
55.000000000000021
 20
55.826673669475547
 30
0.0
 11
55.000000000000021
 21
52.0
 31
0.0
  0
ARC
  5
2138
  8
0
 10
58.671852393547361
 20
57.413336834737663
 30
0.0
 40
4.0
 50
156.6300942299556
 51
203.3699057700417
  0
ARC
  5
2139
  8
0
 10
54.14999999999997
 20
57.413336834737777
 30
0.0
 40
1.8
 50
298.1786427405242
 51
61.821357259477871
  0
LINE
  5
213A
  8
0
 10
55.000000000000071
 20
52.0
 30
0.0
 11
54.30000000000009
 21
50.0
 31
0.0
  0
LINE
  5
213B
  8
0
 10
54.999999999999908
 20
119.0
 30
0.0
 11
54.999999999999929
 21
59.000000000000028
 31
0.0
  0
LINE
  5
213E
  8
0
 10
42.950000000000053
 20
119.25
 30
0.0
 11
43.200000000000053
 21
119.0
 31
0.0
  0
LINE
  5
213F
  8
0
 10
57.04999999999999
 20
119.25
 30
0.0
 11
56.79999999999999
 21
119.0
 31
0.0
  0
LINE
  5
2140
  8
0
 10
57.050000000000011
 20
136.09999999999999
 30
0.0
 11
57.04999999999999
 21
119.25
 31
0.0
  0
LINE
  5
2141
  8
0
 10
42.950000000000053
 20
119.25
 30
0.0
 11
57.04999999999999
 21
119.25
 31
0.0
  0
LINE
  5
2142
  8
0
 10
53.350000000000072
 20
145.0
 30
0.0
 11
46.650000000000048
 21
145.0
 31
0.0
  0
LINE
  5
2143
  8
0
 10
46.150000000000048
 20
144.5
 30
0.0
 11
46.150000000000048
 21
141.19999999999999
 31
0.0
  0
ARC
  5
2144
  8
0
 10
46.650000000000048
 20
144.5
 30
0.0
 40
0.5
 50
90.0
 51
179.99999999999989
  0
LINE
  5
2146
  8
0
 10
53.850000000000072
 20
144.5
 30
0.0
 11
53.850000000000072
 21
141.19999999999999
 31
0.0
  0
ARC
  5
2147
  8
0
 10
53.350000000000072
 20
144.5
 30
0.0
 40
0.5
 50
0.0000000000001018
 51
90.0
  0
LINE
  5
2148
  8
0
 10
46.150000000000048
 20
144.5
 30
0.0
 11
53.850000000000072
 21
144.5
 31
0.0
  0
LINE
  5
214C
  8
0
 10
41.850000000000009
 20
141.19999999999999
 30
0.0
 11
41.84999999999998
 21
140.15000000000001
 31
0.0
  0
LINE
  5
214D
  8
0
 10
58.150000000000112
 20
136.5
 30
0.0
 11
41.850000000000009
 21
136.5
 31
0.0
  0
ARC
  5
214E
  8
0
 10
42.550000000000047
 20
136.09999999999999
 30
0.0
 40
0.4
 50
0.0
 51
90.0
  0
LINE
  5
214F
  8
0
 10
42.950000000000053
 20
136.09999999999999
 30
0.0
 11
57.04999999999999
 21
136.09999999999999
 31
0.0
  0
ARC
  5
2153
  8
0
 10
50.0
 20
145.0
 30
0.0
 40
14.0
 50
334.50484429944851
 51
205.49515570055189
  0
ARC
  5
2154
  8
0
 10
50.0
 20
145.0
 30
0.0
 40
11.4
 50
336.47916205531112
 51
203.52083794468919
  0
LINE
  5
2156
  8
0
 10
41.850000000000037
 20
140.15000000000001
 30
0.0
 11
40.00562658292187
 21
140.15000000000001
 31
0.0
  0
LINE
  5
2157
  8
0
 10
41.850000000000009
 20
137.55000000000001
 30
0.0
 11
39.619850675447843
 21
137.55000000000001
 31
0.0
  0
ARC
  5
2160
  8
0
 10
39.619850675447843
 20
140.05000000000001
 30
0.0
 40
2.5
 50
205.49515570055161
 51
270.0
  0
ARC
  5
2161
  8
0
 10
40.00562658292187
 20
140.65000000000001
 30
0.0
 40
0.5
 50
203.5208379446882
 51
270.0
  0
LINE
  5
2162
  8
0
 10
39.619850675447843
 20
137.55000000000001
 30
0.0
 11
40.00562658292187
 21
140.15000000000001
 31
0.0
  0
LINE
  5
2163
  8
0
 10
39.547169086725511
 20
140.45045871559631
 30
0.0
 11
37.363296474458238
 21
138.97391304347829
 31
0.0
  0
ARC
  5
216B
  8
0
 10
34.971376488751488
 20
138.84999999999999
 30
0.0
 40
7.0003900898093523
 50
349.29782378478558
 51
10.702176215215079
  0
LINE
  5
216C
  8
0
 10
41.850000000000037
 20
137.55000000000001
 30
0.0
 11
41.850000000000037
 21
136.5
 31
0.0
  0
LINE
  5
216D
  8
0
 10
58.150000000000077
 20
137.55000000000001
 30
0.0
 11
58.150000000000077
 21
136.5
 31
0.0
  0
ARC
  5
216E
  8
0
 10
65.028623511248639
 20
138.84999999999999
 30
0.0
 40
7.0003900898093523
 50
169.2978237847849
 51
190.70217621521431
  0
LINE
  5
216F
  8
0
 10
60.452830913274617
 20
140.45045871559631
 30
0.0
 11
62.636703525541883
 21
138.97391304347829
 31
0.0
  0
LINE
  5
2170
  8
0
 10
60.380149324552292
 20
137.55000000000001
 30
0.0
 11
59.994373417078251
 21
140.15000000000001
 31
0.0
  0
ARC
  5
2171
  8
0
 10
59.994373417078251
 20
140.65000000000001
 30
0.0
 40
0.5
 50
270.0
 51
336.4791620553118
  0
ARC
  5
2172
  8
0
 10
60.380149324552292
 20
140.05000000000001
 30
0.0
 40
2.5
 50
270.0
 51
334.50484429944839
  0
LINE
  5
2173
  8
0
 10
58.150000000000112
 20
137.55000000000001
 30
0.0
 11
60.380149324552292
 21
137.55000000000001
 31
0.0
  0
LINE
  5
2174
  8
0
 10
58.150000000000077
 20
140.15000000000001
 30
0.0
 11
59.994373417078251
 21
140.15000000000001
 31
0.0
  0
ARC
  5
2175
  8
0
 10
57.450000000000081
 20
136.09999999999999
 30
0.0
 40
0.4
 50
90.0
 51
180.0
  0
LINE
  5
2176
  8
0
 10
58.150000000000112
 20
141.19999999999999
 30
0.0
 11
58.150000000000141
 21
140.15000000000001
 31
0.0
  0
ARC
  5
217D
  8
0
 10
127.4500000000001
 20
136.09999999999999
 30
0.0
 40
0.4
 50
90.0
 51
180.0
  0
LINE
  5
2185
  8
0
 10
128.15000000000001
 20
141.19999999999999
 30
0.0
 11
128.15000000000001
 21
136.5
 31
0.0
  0
LINE
  5
2186
  8
0
 10
111.84999999999999
 20
141.19999999999999
 30
0.0
 11
111.84999999999999
 21
136.5
 31
0.0
  0
LINE
  5
218E
  8
0
 10
112.95
 20
136.09999999999999
 30
0.0
 11
127.05
 21
136.09999999999999
 31
0.0
  0
ARC
  5
218F
  8
0
 10
112.55
 20
136.09999999999999
 30
0.0
 40
0.4
 50
0.0
 51
90.0
  0
LINE
  5
2190
  8
0
 10
128.15000000000009
 20
136.5
 30
0.0
 11
111.84999999999999
 21
136.5
 31
0.0
  0
LINE
  5
2192
  8
0
 10
116.15000000000001
 20
144.5
 30
0.0
 11
118.7
 21
144.5
 31
0.0
  0
ARC
  5
2193
  8
0
 10
123.34999999999999
 20
144.5
 30
0.0
 40
0.5
 50
0.0000000000001018
 51
90.0
  0
LINE
  5
2194
  8
0
 10
123.84999999999999
 20
144.5
 30
0.0
 11
123.84999999999999
 21
141.19999999999999
 31
0.0
  0
ARC
  5
2195
  8
0
 10
116.65000000000001
 20
144.5
 30
0.0
 40
0.5
 50
90.0
 51
179.99999999999989
  0
LINE
  5
2196
  8
0
 10
116.15000000000001
 20
144.5
 30
0.0
 11
116.15000000000001
 21
141.19999999999999
 31
0.0
  0
LINE
  5
2197
  8
0
 10
123.34999999999999
 20
145.0
 30
0.0
 11
121.3
 21
145.0
 31
0.0
  0
LINE
  5
2198
  8
0
 10
112.95
 20
119.25
 30
0.0
 11
127.05
 21
119.25
 31
0.0
  0
LINE
  5
2199
  8
0
 10
127.05
 20
136.09999999999999
 30
0.0
 11
127.05
 21
119.25
 31
0.0
  0
LINE
  5
219A
  8
0
 10
127.05
 20
119.25
 30
0.0
 11
126.8
 21
119.0
 31
0.0
  0
LINE
  5
219B
  8
0
 10
112.95
 20
119.25
 30
0.0
 11
113.2
 21
119.0
 31
0.0
  0
LINE
  5
219C
  8
0
 10
124.9999999999999
 20
119.0
 30
0.0
 11
124.9999999999999
 21
52.0
 31
0.0
  0
LINE
  5
219D
  8
0
 10
125.0
 20
52.0
 30
0.0
 11
124.3
 21
50.0
 31
0.0
  0
LINE
  5
21A4
  8
0
 10
114.9999999999999
 20
52.0
 30
0.0
 11
115.6999999999998
 21
50.0
 31
0.0
  0
LINE
  5
21A5
  8
0
 10
114.9999999999999
 20
52.0
 30
0.0
 11
125.0
 21
52.0
 31
0.0
  0
LINE
  5
21A6
  8
0
 10
115.0
 20
119.0
 30
0.0
 11
115.0
 21
52.0
 31
0.0
  0
LINE
  5
21A7
  8
0
 10
112.95
 20
136.09999999999999
 30
0.0
 11
112.95
 21
119.25
 31
0.0
  0
LINE
  5
21A8
  8
0
 10
128.15000000000009
 20
141.19999999999999
 30
0.0
 11
121.3
 21
141.19999999999999
 31
0.0
  0
LINE
  5
21A9
  8
0
 10
126.8
 20
119.0
 30
0.0
 11
113.2
 21
119.0
 31
0.0
  0
LINE
  5
21AA
  8
0
 10
115.6999999999998
 20
50.0
 30
0.0
 11
124.3
 21
50.0
 31
0.0
  0
LINE
  5
21AB
  8
1
 10
120.0
 20
164.0
 30
0.0
 11
119.9999999999999
 21
45.0
 31
0.0
  0
LINE
  5
21AC
  8
0
 10
121.3
 20
157.69999999999999
 30
0.0
 11
121.3
 21
138.84999999999999
 31
0.0
  0
LINE
  5
21AD
  8
0
 10
118.7
 20
157.69999999999999
 30
0.0
 11
118.7
 21
138.84999999999999
 31
0.0
  0
CIRCLE
  5
21B0
  8
0
 10
119.9999999999999
 20
57.413336834737798
 30
0.0
 40
1.5866631652621019
  0
ARC
  5
21B2
  8
0
 10
120.0
 20
138.84999999999999
 30
0.0
 40
1.3000000000000109
 50
180.0
 51
0.0
  0
ARC
  5
21B4
  8
0
 10
120.0
 20
157.69999999999999
 30
0.0
 40
1.3000000000000109
 50
0.0
 51
180.0
  0
LINE
  5
21B5
  8
0
 10
118.7
 20
145.0
 30
0.0
 11
116.65000000000001
 21
145.0
 31
0.0
  0
LINE
  5
21B6
  8
0
 10
121.3
 20
144.5
 30
0.0
 11
123.84999999999999
 21
144.5
 31
0.0
  0
LINE
  5
21B7
  8
0
 10
118.7
 20
141.19999999999999
 30
0.0
 11
111.84999999999999
 21
141.19999999999999
 31
0.0
  0
POLYLINE
  5
21BA
  8
0
 10
118.70000000000002
 20
140.15000000000003
 30
0.0
 66
     1
 70
     8
  0
VERTEX
  8
0
  5
2A09
 10
118.700
 20
140.150
 30
0.000000
  70
    32
  0
VERTEX
  8
0
  5
2A0A
 10
118.700
 20
140.121
 30
0.000000
  70
    32
  0
VERTEX
  8
0
  5
2A0B
 10
118.702
 20
140.092
 30
0.000000
  70
    32
  0
VERTEX
  8
0
  5
2A0C
 10
118.704
 20
140.063
 30
0.000000
  70
    32
  0
VERTEX
  8
0
  5
2A0D
 10
118.706
 20
140.035
 30
0.000000
  70
    32
  0
VERTEX
  8
0
  5
2A0E
 10
118.710
 20
140.006
 30
0.000000
  70
    32
  0
VERTEX
  8
0
  5
2A0F
 10
118.714
 20
139.977
 30
0.000000
  70
    32
  0
VERTEX
  8
0
  5
2A10
 10
118.719
 20
139.949
 30
0.000000
  70
    32
  0
VERTEX
  8
0
  5
2A11
 10
118.725
 20
139.921
 30
0.000000
  70
    32
  0
VERTEX
  8
0
  5
2A12
 10
118.732
 20
139.892
 30
0.000000
  70
    32
  0
VERTEX
  8
0
  5
2A13
 10
118.739
 20
139.864
 30
0.000000
  70
    32
  0
VERTEX
  8
0
  5
2A14
 10
118.747
 20
139.836
 30
0.000000
  70
    32
  0
VERTEX
  8
0
  5
2A15
 10
118.756
 20
139.809
 30
0.000000
  70
    32
  0
VERTEX
  8
0
  5
2A16
 10
118.766
 20
139.781
 30
0.000000
  70
    32
  0
VERTEX
  8
0
  5
2A17
 10
118.776
 20
139.754
 30
0.000000
  70
    32
  0
VERTEX
  8
0
  5
2A18
 10
118.787
 20
139.727
 30
0.000000
  70
    32
  0
VERTEX
  8
0
  5
2A19
 10
118.799
 20
139.700
 30
0.000000
  70
    32
  0
VERTEX
  8
0
  5
2A1A
 10
118.812
 20
139.673
 30
0.000000
  70
    32
  0
VERTEX
  8
0
  5
2A1B
 10
118.825
 20
139.647
 30
0.000000
  70
    32
  0
VERTEX
  8
0
  5
2A1C
 10
118.839
 20
139.621
 30
0.000000
  70
    32
  0
VERTEX
  8
0
  5
2A1D
 10
118.854
 20
139.596
 30
0.000000
  70
    32
  0
VERTEX
  8
0
  5
2A1E
 10
118.869
 20
139.570
 30
0.000000
  70
    32
  0
VERTEX
  8
0
  5
2A1F
 10
118.885
 20
139.545
 30
0.000000
  70
    32
  0
VERTEX
  8
0
  5
2A20
 10
118.902
 20
139.521
 30
0.000000
  70
    32
  0
VERTEX
  8
0
  5
2A21
 10
118.919
 20
139.497
 30
0.000000
  70
    32
  0
VERTEX
  8
0
  5
2A22
 10
118.937
 20
139.473
 30
0.000000
  70
    32
  0
VERTEX
  8
0
  5
2A23
 10
118.956
 20
139.449
 30
0.000000
  70
    32
  0
VERTEX
  8
0
  5
2A24
 10
118.975
 20
139.426
 30
0.000000
  70
    32
  0
VERTEX
  8
0
  5
2A25
 10
118.995
 20
139.404
 30
0.000000
  70
    32
  0
VERTEX
  8
0
  5
2A26
 10
119.016
 20
139.382
 30
0.000000
  70
    32
  0
VERTEX
  8
0
  5
2A27
 10
119.037
 20
139.360
 30
0.000000
  70
    32
  0
VERTEX
  8
0
  5
2A28
 10
119.058
 20
139.339
 30
0.000000
  70
    32
  0
VERTEX
  8
0
  5
2A29
 10
119.081
 20
139.318
 30
0.000000
  70
    32
  0
VERTEX
  8
0
  5
2A2A
 10
119.104
 20
139.298
 30
0.000000
  70
    32
  0
VERTEX
  8
0
  5
2A2B
 10
119.127
 20
139.279
 30
0.000000
  70
    32
  0
VERTEX
  8
0
  5
2A2C
 10
119.151
 20
139.259
 30
0.000000
  70
    32
  0
VERTEX
  8
0
  5
2A2D
 10
119.175
 20
139.241
 30
0.000000
  70
    32
  0
VERTEX
  8
0
  5
2A2E
 10
119.200
 20
139.223
 30
0.000000
  70
    32
  0
VERTEX
  8
0
  5
2A2F
 10
119.226
 20
139.205
 30
0.000000
  70
    32
  0
VERTEX
  8
0
  5
2A30
 10
119.251
 20
139.188
 30
0.000000
  70
    32
  0
VERTEX
  8
0
  5
2A31
 10
119.278
 20
139.172
 30
0.000000
  70
    32
  0
VERTEX
  8
0
  5
2A32
 10
119.305
 20
139.156
 30
0.000000
  70
    32
  0
VERTEX
  8
0
  5
2A33
 10
119.332
 20
139.141
 30
0.000000
  70
    32
  0
VERTEX
  8
0
  5
2A34
 10
119.359
 20
139.127
 30
0.000000
  70
    32
  0
VERTEX
  8
0
  5
2A35
 10
119.387
 20
139.113
 30
0.000000
  70
    32
  0
VERTEX
  8
0
  5
2A36
 10
119.416
 20
139.099
 30
0.000000
  70
    32
  0
VERTEX
  8
0
  5
2A37
 10
119.444
 20
139.087
 30
0.000000
  70
    32
  0
VERTEX
  8
0
  5
2A38
 10
119.473
 20
139.075
 30
0.000000
  70
    32
  0
VERTEX
  8
0
  5
2A39
 10
119.503
 20
139.063
 30
0.000000
  70
    32
  0
VERTEX
  8
0
  5
2A3A
 10
119.532
 20
139.053
 30
0.000000
  70
    32
  0
VERTEX
  8
0
  5
2A3B
 10
119.562
 20
139.043
 30
0.000000
  70
    32
  0
VERTEX
  8
0
  5
2A3C
 10
119.592
 20
139.033
 30
0.000000
  70
    32
  0
VERTEX
  8
0
  5
2A3D
 10
119.623
 20
139.025
 30
0.000000
  70
    32
  0
VERTEX
  8
0
  5
2A3E
 10
119.653
 20
139.017
 30
0.000000
  70
    32
  0
VERTEX
  8
0
  5
2A3F
 10
119.684
 20
139.009
 30
0.000000
  70
    32
  0
VERTEX
  8
0
  5
2A40
 10
119.715
 20
139.002
 30
0.000000
  70
    32
  0
VERTEX
  8
0
  5
2A41
 10
119.746
 20
138.997
 30
0.000000
  70
    32
  0
VERTEX
  8
0
  5
2A42
 10
119.778
 20
138.991
 30
0.000000
  70
    32
  0
VERTEX
  8
0
  5
2A43
 10
119.809
 20
138.987
 30
0.000000
  70
    32
  0
VERTEX
  8
0
  5
2A44
 10
119.841
 20
138.983
 30
0.000000
  70
    32
  0
VERTEX
  8
0
  5
2A45
 10
119.873
 20
138.980
 30
0.000000
  70
    32
  0
VERTEX
  8
0
  5
2A46
 10
119.904
 20
138.977
 30
0.000000
  70
    32
  0
VERTEX
  8
0
  5
2A47
 10
119.936
 20
138.975
 30
0.000000
  70
    32
  0
VERTEX
  8
0
  5
2A48
 10
119.968
 20
138.974
 30
0.000000
  70
    32
  0
VERTEX
  8
0
  5
2A49
 10
120.000
 20
138.974
 30
0.000000
  70
    32
  0
VERTEX
  8
0
  5
2A4A
 10
120.032
 20
138.974
 30
0.000000
  70
    32
  0
VERTEX
  8
0
  5
2A4B
 10
120.064
 20
138.975
 30
0.000000
  70
    32
  0
VERTEX
  8
0
  5
2A4C
 10
120.096
 20
138.977
 30
0.000000
  70
    32
  0
VERTEX
  8
0
  5
2A4D
 10
120.127
 20
138.980
 30
0.000000
  70
    32
  0
VERTEX
  8
0
  5
2A4E
 10
120.159
 20
138.983
 30
0.000000
  70
    32
  0
VERTEX
  8
0
  5
2A4F
 10
120.191
 20
138.987
 30
0.000000
  70
    32
  0
VERTEX
  8
0
  5
2A50
 10
120.222
 20
138.991
 30
0.000000
  70
    32
  0
VERTEX
  8
0
  5
2A51
 10
120.254
 20
138.997
 30
0.000000
  70
    32
  0
VERTEX
  8
0
  5
2A52
 10
120.285
 20
139.002
 30
0.000000
  70
    32
  0
VERTEX
  8
0
  5
2A53
 10
120.316
 20
139.009
 30
0.000000
  70
    32
  0
VERTEX
  8
0
  5
2A54
 10
120.347
 20
139.017
 30
0.000000
  70
    32
  0
VERTEX
  8
0
  5
2A55
 10
120.377
 20
139.025
 30
0.000000
  70
    32
  0
VERTEX
  8
0
  5
2A56
 10
120.408
 20
139.033
 30
0.000000
  70
    32
  0
VERTEX
  8
0
  5
2A57
 10
120.438
 20
139.043
 30
0.000000
  70
    32
  0
VERTEX
  8
0
  5
2A58
 10
120.468
 20
139.053
 30
0.000000
  70
    32
  0
VERTEX
  8
0
  5
2A59
 10
120.497
 20
139.063
 30
0.000000
  70
    32
  0
VERTEX
  8
0
  5
2A5A
 10
120.527
 20
139.075
 30
0.000000
  70
    32
  0
VERTEX
  8
0
  5
2A5B
 10
120.556
 20
139.087
 30
0.000000
  70
    32
  0
VERTEX
  8
0
  5
2A5C
 10
120.584
 20
139.099
 30
0.000000
  70
    32
  0
VERTEX
  8
0
  5
2A5D
 10
120.613
 20
139.113
 30
0.000000
  70
    32
  0
VERTEX
  8
0
  5
2A5E
 10
120.641
 20
139.127
 30
0.000000
  70
    32
  0
VERTEX
  8
0
  5
2A5F
 10
120.668
 20
139.141
 30
0.000000
  70
    32
  0
VERTEX
  8
0
  5
2A60
 10
120.695
 20
139.156
 30
0.000000
  70
    32
  0
VERTEX
  8
0
  5
2A61
 10
120.722
 20
139.172
 30
0.000000
  70
    32
  0
VERTEX
  8
0
  5
2A62
 10
120.749
 20
139.188
 30
0.000000
  70
    32
  0
VERTEX
  8
0
  5
2A63
 10
120.774
 20
139.205
 30
0.000000
  70
    32
  0
VERTEX
  8
0
  5
2A64
 10
120.800
 20
139.223
 30
0.000000
  70
    32
  0
VERTEX
  8
0
  5
2A65
 10
120.825
 20
139.241
 30
0.000000
  70
    32
  0
VERTEX
  8
0
  5
2A66
 10
120.849
 20
139.259
 30
0.000000
  70
    32
  0
VERTEX
  8
0
  5
2A67
 10
120.873
 20
139.279
 30
0.000000
  70
    32
  0
VERTEX
  8
0
  5
2A68
 10
120.896
 20
139.298
 30
0.000000
  70
    32
  0
VERTEX
  8
0
  5
2A69
 10
120.919
 20
139.318
 30
0.000000
  70
    32
  0
VERTEX
  8
0
  5
2A6A
 10
120.942
 20
139.339
 30
0.000000
  70
    32
  0
VERTEX
  8
0
  5
2A6B
 10
120.963
 20
139.360
 30
0.000000
  70
    32
  0
VERTEX
  8
0
  5
2A6C
 10
120.984
 20
139.382
 30
0.000000
  70
    32
  0
VERTEX
  8
0
  5
2A6D
 10
121.005
 20
139.404
 30
0.000000
  70
    32
  0
VERTEX
  8
0
  5
2A6E
 10
121.025
 20
139.426
 30
0.000000
  70
    32
  0
VERTEX
  8
0
  5
2A6F
 10
121.044
 20
139.449
 30
0.000000
  70
    32
  0
VERTEX
  8
0
  5
2A70
 10
121.063
 20
139.473
 30
0.000000
  70
    32
  0
VERTEX
  8
0
  5
2A71
 10
121.081
 20
139.497
 30
0.000000
  70
    32
  0
VERTEX
  8
0
  5
2A72
 10
121.098
 20
139.521
 30
0.000000
  70
    32
  0
VERTEX
  8
0
  5
2A73
 10
121.115
 20
139.545
 30
0.000000
  70
    32
  0
VERTEX
  8
0
  5
2A74
 10
121.131
 20
139.570
 30
0.000000
  70
    32
  0
VERTEX
  8
0
  5
2A75
 10
121.146
 20
139.596
 30
0.000000
  70
    32
  0
VERTEX
  8
0
  5
2A76
 10
121.161
 20
139.621
 30
0.000000
  70
    32
  0
VERTEX
  8
0
  5
2A77
 10
121.175
 20
139.647
 30
0.000000
  70
    32
  0
VERTEX
  8
0
  5
2A78
 10
121.188
 20
139.673
 30
0.000000
  70
    32
  0
VERTEX
  8
0
  5
2A79
 10
121.201
 20
139.700
 30
0.000000
  70
    32
  0
VERTEX
  8
0
  5
2A7A
 10
121.213
 20
139.727
 30
0.000000
  70
    32
  0
VERTEX
  8
0
  5
2A7B
 10
121.224
 20
139.754
 30
0.000000
  70
    32
  0
VERTEX
  8
0
  5
2A7C
 10
121.234
 20
139.781
 30
0.000000
  70
    32
  0
VERTEX
  8
0
  5
2A7D
 10
121.244
 20
139.809
 30
0.000000
  70
    32
  0
VERTEX
  8
0
  5
2A7E
 10
121.253
 20
139.836
 30
0.000000
  70
    32
  0
VERTEX
  8
0
  5
2A7F
 10
121.261
 20
139.864
 30
0.000000
  70
    32
  0
VERTEX
  8
0
  5
2A80
 10
121.268
 20
139.892
 30
0.000000
  70
    32
  0
VERTEX
  8
0
  5
2A81
 10
121.275
 20
139.921
 30
0.000000
  70
    32
  0
VERTEX
  8
0
  5
2A82
 10
121.281
 20
139.949
 30
0.000000
  70
    32
  0
VERTEX
  8
0
  5
2A83
 10
121.286
 20
139.977
 30
0.000000
  70
    32
  0
VERTEX
  8
0
  5
2A84
 10
121.290
 20
140.006
 30
0.000000
  70
    32
  0
VERTEX
  8
0
  5
2A85
 10
121.294
 20
140.035
 30
0.000000
  70
    32
  0
VERTEX
  8
0
  5
2A86
 10
121.296
 20
140.063
 30
0.000000
  70
    32
  0
VERTEX
  8
0
  5
2A87
 10
121.298
 20
140.092
 30
0.000000
  70
    32
  0
VERTEX
  8
0
  5
2A88
 10
121.300
 20
140.121
 30
0.000000
  70
    32
  0
VERTEX
  8
0
  5
2A89
 10
121.300
 20
140.150
 30
0.000000
  70
    32
  0
SEQEND
  8
0
  5
2A8A
  0
LINE
  5
21BF
  8
1
 10
31.000000000000231
 20
209.0
 30
0.0
 11
69.000000000000057
 21
209.0
 31
0.0
  0
LINE
  5
21C0
  8
1
 10
50.000000000000107
 20
195.84999999999991
 30
0.0
 11
50.000000000000107
 21
222.15000000000009
 31
0.0
  0
ARC
  5
21C1
  8
0
 10
50.000000000000078
 20
209.0
 30
0.0
 40
3.3500000000000512
 50
22.833822119480541
 51
157.1661778805194
  0
ARC
  5
21C2
  8
0
 10
50.000000000000078
 20
209.0
 30
0.0
 40
3.8500000000000512
 50
19.734514891196451
 51
160.26548510880349
  0
ARC
  5
21C3
  8
0
 10
50.000000000000078
 20
209.0
 30
0.0
 40
8.1500000000000892
 50
9.1784097342403879
 51
170.8215902657596
  0
LINE
  5
21C4
  8
0
 10
37.30000000000021
 20
207.69999999999999
 30
0.0
 11
62.700000000000038
 21
207.69999999999999
 31
0.0
  0
LINE
  5
21C5
  8
0
 10
37.30000000000021
 20
210.30000000000001
 30
0.0
 11
62.700000000000038
 21
210.30000000000001
 31
0.0
  0
ARC
  5
21C6
  8
0
 10
62.700000000000038
 20
209.0
 30
0.0
 40
1.2999999999999969
 50
270.0
 51
90.0
  0
ARC
  5
21C7
  8
0
 10
37.30000000000021
 20
209.0
 30
0.0
 40
1.2999999999999969
 50
90.0
 51
270.0
  0
ARC
  5
21C8
  8
0
 10
50.000000000000078
 20
209.0
 30
0.0
 40
3.3500000000000512
 50
202.83382211947989
 51
337.16617788052008
  0
ARC
  5
21C9
  8
0
 10
50.000000000000078
 20
209.0
 30
0.0
 40
3.8500000000000512
 50
199.7345148911958
 51
340.265485108804
  0
ARC
  5
21CA
  8
0
 10
50.000000000000078
 20
209.0
 30
0.0
 40
8.1500000000000892
 50
189.1784097342402
 51
350.82159026575982
  0
TEXT
  5
2298
  8
0
 62
     3
 10
0.0
 20
0.0
 30
0.0
 40
10.0
  1
BJ775-10060-SUS
  7
STANDARD1
  0
ENDSEC
  0
EOF
