  0
SECTION
  2
HEADER
  9
$ACADVER
  1
AC1009
  9
$INSBASE
 10
0.0
 20
0.0
 30
0.0
  9
$EXTMIN
 10
0.0
 20
-2.960436562073669
 30
0.0
  9
$EXTMAX
 10
126.75
 20
213.75
 30
0.0
  9
$LIMMIN
 10
0.0
 20
0.0
  9
$LIMMAX
 10
12.0
 20
9.0
  9
$ORTHOMODE
 70
     1
  9
$REGENMODE
 70
     1
  9
$FILLMODE
 70
     1
  9
$QTEXTMODE
 70
     0
  9
$MIRRTEXT
 70
     0
  9
$DRAGMODE
 70
     2
  9
$LTSCALE
 40
10.0
  9
$OSMODE
 70
    37
  9
$ATTMODE
 70
     1
  9
$TEXTSIZE
 40
0.2
  9
$TRACEWID
 40
0.05
  9
$TEXTSTYLE
  7
STANDARD
  9
$CLAYER
  8
0
  9
$CELTYPE
  6
BYLAYER
  9
$CECOLOR
 62
   256
  9
$DIMSCALE
 40
1.0
  9
$DIMASZ
 40
0.18
  9
$DIMEXO
 40
0.0625
  9
$DIMDLI
 40
0.38
  9
$DIMRND
 40
0.0
  9
$DIMDLE
 40
0.0
  9
$DIMEXE
 40
0.18
  9
$DIMTP
 40
0.0
  9
$DIMTM
 40
0.0
  9
$DIMTXT
 40
2.0
  9
$DIMCEN
 40
0.09
  9
$DIMTSZ
 40
0.0
  9
$DIMTOL
 70
     0
  9
$DIMLIM
 70
     0
  9
$DIMTIH
 70
     1
  9
$DIMTOH
 70
     1
  9
$DIMSE1
 70
     0
  9
$DIMSE2
 70
     0
  9
$DIMTAD
 70
     0
  9
$DIMZIN
 70
     0
  9
$DIMBLK
  1

  9
$DIMASO
 70
     1
  9
$DIMSHO
 70
     1
  9
$DIMPOST
  1

  9
$DIMAPOST
  1

  9
$DIMALT
 70
     0
  9
$DIMALTD
 70
     2
  9
$DIMALTF
 40
25.399999999999999
  9
$DIMLFAC
 40
1.0
  9
$DIMTOFL
 70
     0
  9
$DIMTVP
 40
0.0
  9
$DIMTIX
 70
     0
  9
$DIMSOXD
 70
     0
  9
$DIMSAH
 70
     0
  9
$DIMBLK1
  1

  9
$DIMBLK2
  1

  9
$DIMSTYLE
  2
STANDARD
  9
$DIMCLRD
 70
     0
  9
$DIMCLRE
 70
     0
  9
$DIMCLRT
 70
     0
  9
$DIMTFAC
 40
1.0
  9
$DIMGAP
 40
0.09
  9
$LUNITS
 70
     2
  9
$LUPREC
 70
     4
  9
$SKETCHINC
 40
0.1
  9
$FILLETRAD
 40
2.5
  9
$AUNITS
 70
     0
  9
$AUPREC
 70
     0
  9
$MENU
  1
.
  9
$ELEVATION
 40
0.0
  9
$PELEVATION
 40
0.0
  9
$THICKNESS
 40
0.0
  9
$LIMCHECK
 70
     0
  9
$BLIPMODE
 70
     0
  9
$CHAMFERA
 40
0.25
  9
$CHAMFERB
 40
0.25
  9
$SKPOLY
 70
     0
  9
$TDCREATE
 40
2453083.4120647679
  9
$TDUPDATE
 40
2456812.401332743
  9
$TDINDWG
 40
0.4440218056
  9
$TDUSRTIMER
 40
0.4440216898
  9
$USRTIMER
 70
     1
  9
$ANGBASE
 50
0.0
  9
$ANGDIR
 70
     0
  9
$PDMODE
 70
     0
  9
$PDSIZE
 40
0.0
  9
$PLINEWID
 40
0.0
  9
$COORDS
 70
     1
  9
$SPLFRAME
 70
     0
  9
$SPLINETYPE
 70
     6
  9
$SPLINESEGS
 70
     8
  9
$ATTDIA
 70
     0
  9
$ATTREQ
 70
     1
  9
$HANDLING
 70
     1
  9
$HANDSEED
  5
2564
  9
$SURFTAB1
 70
     6
  9
$SURFTAB2
 70
     6
  9
$SURFTYPE
 70
     6
  9
$SURFU
 70
     6
  9
$SURFV
 70
     6
  9
$UCSNAME
  2

  9
$UCSORG
 10
0.0
 20
0.0
 30
0.0
  9
$UCSXDIR
 10
1.0
 20
0.0
 30
0.0
  9
$UCSYDIR
 10
0.0
 20
1.0
 30
0.0
  9
$PUCSNAME
  2

  9
$PUCSORG
 10
0.0
 20
0.0
 30
0.0
  9
$PUCSXDIR
 10
1.0
 20
0.0
 30
0.0
  9
$PUCSYDIR
 10
0.0
 20
1.0
 30
0.0
  9
$USERI1
 70
     0
  9
$USERI2
 70
     1
  9
$USERI3
 70
     0
  9
$USERI4
 70
     0
  9
$USERI5
 70
     0
  9
$USERR1
 40
0.0
  9
$USERR2
 40
0.0
  9
$USERR3
 40
0.0
  9
$USERR4
 40
0.0
  9
$USERR5
 40
0.0
  9
$WORLDVIEW
 70
     1
  9
$SHADEDGE
 70
     3
  9
$SHADEDIF
 70
    70
  9
$TILEMODE
 70
     1
  9
$MAXACTVP
 70
    64
  9
$PLIMCHECK
 70
     0
  9
$PEXTMIN
 10
0.0
 20
0.0
 30
0.0
  9
$PEXTMAX
 10
0.0
 20
0.0
 30
0.0
  9
$PLIMMIN
 10
0.0
 20
0.0
  9
$PLIMMAX
 10
12.0
 20
9.0
  9
$UNITMODE
 70
     0
  9
$VISRETAIN
 70
     1
  9
$PLINEGEN
 70
     0
  9
$PSLTSCALE
 70
     1
  0
ENDSEC
  0
SECTION
  2
TABLES
  0
TABLE
  2
VPORT
 70
     1
  0
VPORT
  2
*ACTIVE
 70
     0
 10
0.0
 20
0.0
 11
1.0
 21
1.0
 12
235.63977746870651
 22
135.0
 13
0.0
 23
0.0
 14
0.5
 24
0.5
 15
0.5
 25
0.5
 16
0.0
 26
0.0
 36
1.0
 17
0.0
 27
0.0
 37
0.0
 40
270.0
 41
1.7454798331015291
 42
50.0
 43
0.0
 44
0.0
 50
0.0
 51
0.0
 71
     0
 72
  1000
 73
     1
 74
     2
 75
     0
 76
     0
 77
     0
 78
     0
  0
ENDTAB
  0
TABLE
  2
LTYPE
 70
     3
  0
LTYPE
  2
CONTINUOUS
 70
     0
  3
Solid Line
 72
    65
 73
     0
 40
0.0
  0
LTYPE
  2
CENTER
 70
     0
  3
____ _ ____ _ ____ _ ____ _ ____ _ ____ _ ____
 72
    65
 73
     4
 40
2.0
 49
1.25
 49
-0.25
 49
0.25
 49
-0.25
  0
LTYPE
  2
PHANTOM2
 70
     0
  3
___ _ _ ___ _ _ ___ _ _ ___ _ _
 72
    65
 73
     6
 40
1.25
 49
0.625
 49
-0.125
 49
0.125
 49
-0.125
 49
0.125
 49
-0.125
  0
ENDTAB
  0
TABLE
  2
LAYER
 70
     3
  0
LAYER
  2
0
 70
     0
 62
     7
  6
CONTINUOUS
  0
LAYER
  2
1
 70
     0
 62
     1
  6
CENTER
  0
LAYER
  2
DEFPOINTS
 70
     0
 62
     7
  6
CONTINUOUS
  0
ENDTAB
  0
TABLE
  2
STYLE
 70
     2
  0
STYLE
  2
STANDARD
 70
     0
 40
0.0
 41
1.0
 50
0.0
 71
     0
 42
0.2
  3
simplex.shx
  4
bigfont.shx
  0
STYLE
  2
STANDARD1
 70
     0
 40
0.0
 41
1.0
 50
0.0
 71
     0
 42
3.0
  3
txt
  4

  0
ENDTAB
  0
TABLE
  2
VIEW
 70
     0
  0
ENDTAB
  0
TABLE
  2
UCS
 70
     0
  0
ENDTAB
  0
TABLE
  2
APPID
 70
     7
  0
APPID
  2
ACAD
 70
     0
  0
APPID
  2
DCO15
 70
     0
  0
APPID
  2
ACAD_MLEADERVER
 70
     0
  0
APPID
  2
ACAD_DSTYLE_DIMJAG
 70
     0
  0
APPID
  2
ACAD_DSTYLE_DIMTALN
 70
     0
  0
APPID
  2
ACAD_EXEMPT_FROM_CAD_STANDARDS
 70
     0
  0
APPID
  2
ACAD_NAV_VCDISPLAY
 70
     0
  0
ENDTAB
  0
TABLE
  2
DIMSTYLE
 70
     1
  0
DIMSTYLE
  2
STANDARD
 70
     0
  3

  4

  5

  6

  7

 40
1.0
 41
0.18
 42
0.0625
 43
0.38
 44
0.18
 45
0.0
 46
0.0
 47
0.0
 48
0.0
140
2.0
141
0.09
142
0.0
143
25.399999999999999
144
1.0
145
0.0
146
1.0
147
0.09
 71
     0
 72
     0
 73
     1
 74
     1
 75
     0
 76
     0
 77
     0
 78
     0
170
     0
171
     2
172
     0
173
     0
174
     0
175
     0
176
     0
177
     0
178
     0
  0
ENDTAB
  0
ENDSEC
  0
SECTION
  2
BLOCKS
  0
BLOCK
  8
0
  2
$MODEL_SPACE
 70
     0
 10
0.0
 20
0.0
 30
0.0
  3
$MODEL_SPACE
  1

  0
ENDBLK
  5
21
  8
0
  0
BLOCK
 67
     1
  8
0
  2
$PAPER_SPACE
 70
     0
 10
0.0
 20
0.0
 30
0.0
  3
$PAPER_SPACE
  1

  0
ENDBLK
  5
5B
 67
     1
  8
0
  0
ENDSEC
  0
SECTION
  2
ENTITIES
  0
LINE
  5
1B33
  8
0
 10
52.74320000000003
 20
140.0
 30
0.0
 11
47.250000000000028
 21
140.0
 31
0.0
  0
LINE
  5
1B35
  8
0
 10
54.549999999999997
 20
134.80000000000001
 30
0.0
 11
45.450000000000038
 21
134.80000000000001
 31
0.0
  0
LINE
  5
1B36
  8
0
 10
44.750000000000107
 20
118.0
 30
0.0
 11
55.250000000000021
 21
118.0
 31
0.0
  0
LINE
  5
1B49
  8
0
 10
39.572752040926652
 20
130.65000000000001
 30
0.0
 11
43.251759534307958
 21
130.65000000000001
 31
0.0
  0
LINE
  5
1B59
  8
0
 10
44.500000000000007
 20
129.19999999999999
 30
0.0
 11
44.50000000000005
 21
118.25
 31
0.0
  0
LINE
  5
1B61
  8
1
 10
50.000000000000028
 20
157.0
 30
0.0
 11
50.0
 21
45.0
 31
0.0
  0
LINE
  5
1B8E
  8
0
 10
44.50000000000005
 20
118.25
 30
0.0
 11
44.75000000000005
 21
118.0
 31
0.0
  0
LINE
  5
1B92
  8
0
 10
44.50000000000005
 20
118.25
 30
0.0
 11
55.500000000000007
 21
118.25
 31
0.0
  0
LINE
  5
1B93
  8
0
 10
46.750000000000028
 20
139.5
 30
0.0
 11
46.750000000000028
 21
134.80000000000001
 31
0.0
  0
ARC
  5
1B94
  8
0
 10
47.250000000000028
 20
139.5
 30
0.0
 40
0.5
 50
90.0
 51
180.0
  0
ARC
  5
1B95
  8
0
 10
52.750000000000028
 20
139.5
 30
0.0
 40
0.5
 50
0.0
 51
90.0
  0
LINE
  5
1B96
  8
0
 10
53.250000000000021
 20
139.5
 30
0.0
 11
53.250000000000021
 21
134.80000000000001
 31
0.0
  0
LINE
  5
1B97
  8
0
 10
46.750000000000028
 20
139.5
 30
0.0
 11
53.25
 21
139.5
 31
0.0
  0
ARC
  5
1B9F
  8
0
 10
44.100000000000023
 20
129.19999999999999
 30
0.0
 40
0.4
 50
0.0000000000002036
 51
90.000000000000384
  0
LINE
  5
1BA1
  8
0
 10
44.500000000000028
 20
129.19999999999999
 30
0.0
 11
55.500000000000071
 21
129.1999999999999
 31
0.0
  0
ARC
  5
1BA6
  8
0
 10
50.000000000000028
 20
138.0
 30
0.0
 40
14.0
 50
335.05556515712118
 51
204.94443484287851
  0
ARC
  5
1BA7
  8
0
 10
50.000000000000028
 20
138.0
 30
0.0
 40
11.4
 50
336.03051768224032
 51
203.9694823177594
  0
LINE
  5
1BAB
  8
0
 10
39.765865937950643
 20
133.25
 30
0.0
 11
43.250000000000057
 21
133.25
 31
0.0
  0
ARC
  5
1BB8
  8
0
 10
36.239312422903687
 20
131.94525496411759
 30
0.0
 40
7.1310658328410703
 50
349.45741120961537
 51
10.542588790384521
  0
ARC
  5
1BDF
  8
0
 10
55.900000000000077
 20
129.19999999999999
 30
0.0
 40
0.4
 50
89.999999999999616
 51
179.9999999999998
  0
LINE
  5
1BE0
  8
0
 10
55.500000000000043
 20
118.25
 30
0.0
 11
55.250000000000043
 21
118.0
 31
0.0
  0
LINE
  5
1BE1
  8
0
 10
55.50000000000005
 20
129.1999999999999
 30
0.0
 11
55.500000000000043
 21
118.25
 31
0.0
  0
LINE
  5
1BEC
  8
0
 10
125.5
 20
118.25
 30
0.0
 11
125.25
 21
118.0
 31
0.0
  0
LINE
  5
1BF8
  8
0
 10
114.5
 20
118.2499999999999
 30
0.0
 11
125.5
 21
118.25
 31
0.0
  0
LINE
  5
1BF9
  8
0
 10
114.5
 20
118.25
 30
0.0
 11
114.75
 21
118.0
 31
0.0
  0
LINE
  5
1C0A
  8
0
 10
114.7500000000001
 20
118.0
 30
0.0
 11
125.25
 21
118.0
 31
0.0
  0
LINE
  5
1C0E
  8
1
 10
120.0
 20
157.0
 30
0.0
 11
120.0
 21
44.999999999999972
 31
0.0
  0
LINE
  5
1C12
  8
0
 10
121.3
 20
150.6999999999999
 30
0.0
 11
121.3
 21
131.96420000000001
 31
0.0
  0
LINE
  5
1C13
  8
0
 10
118.7
 20
150.6999999999999
 30
0.0
 11
118.7
 21
131.96420000000001
 31
0.0
  0
ARC
  5
1C15
  8
0
 10
120.0
 20
150.6999999999999
 30
0.0
 40
1.3000000000000109
 50
0.0
 51
180.0
  0
ARC
  5
1C17
  8
0
 10
120.0
 20
131.96420000000001
 30
0.0
 40
1.3000000000000109
 50
180.0
 51
0.0
  0
LINE
  5
1C2A
  8
1
 10
31.0
 20
202.0
 30
0.0
 11
69.0
 21
202.0
 31
0.0
  0
ARC
  5
1C2D
  8
0
 10
50.0
 20
202.0
 30
0.0
 40
6.75
 50
11.104123748466479
 51
168.89587625153351
  0
LINE
  5
1C2E
  8
0
 10
37.299999999999997
 20
203.30000000000001
 30
0.0
 11
62.70000000000001
 21
203.30000000000001
 31
0.0
  0
LINE
  5
1C2F
  8
0
 10
37.299999999999997
 20
200.69999999999999
 30
0.0
 11
62.70000000000001
 21
200.69999999999999
 31
0.0
  0
ARC
  5
1C32
  8
0
 10
62.70000000000001
 20
202.0
 30
0.0
 40
1.2999999999999969
 50
270.0
 51
90.0
  0
LINE
  5
1C37
  8
1
 10
50.0
 20
190.25
 30
0.0
 11
50.0
 21
213.75
 31
0.0
  0
ARC
  5
1C38
  8
0
 10
50.0
 20
202.0
 30
0.0
 40
6.75
 50
191.10412374846649
 51
348.89587625153348
  0
ARC
  5
1C4B
  8
0
 10
50.0
 20
202.0
 30
0.0
 40
2.7432000000000012
 50
28.28769445223859
 51
151.71230554776139
  0
ARC
  5
1C4C
  8
0
 10
50.0
 20
202.0
 30
0.0
 40
3.2499999999999569
 50
23.578178478202421
 51
156.4218215217976
  0
ARC
  5
1C4D
  8
0
 10
50.0
 20
202.0
 30
0.0
 40
2.7432000000000012
 50
208.2876944522381
 51
331.71230554776167
  0
ARC
  5
1C4E
  8
0
 10
50.0
 20
202.0
 30
0.0
 40
3.2499999999999569
 50
203.5781784782022
 51
336.42182152179782
  0
LINE
  5
1C5D
  8
0
 10
56.750000000000043
 20
134.30000000000001
 30
0.0
 11
43.250000000000028
 21
134.30000000000001
 31
0.0
  0
LINE
  5
1C61
  8
0
 10
45.450000000000031
 20
134.80000000000001
 30
0.0
 11
45.450000000000031
 21
134.30000000000001
 31
0.0
  0
LINE
  5
1C64
  8
0
 10
56.750000000000043
 20
129.59999999999999
 30
0.0
 11
43.250000000000028
 21
129.59999999999999
 31
0.0
  0
LINE
  5
1C66
  8
0
 10
43.250000000000028
 20
134.30000000000001
 30
0.0
 11
43.250000000000028
 21
133.2500000000002
 31
0.0
  0
LINE
  5
1C69
  8
0
 10
43.250000000000028
 20
130.64050992823499
 30
0.0
 11
43.250000000000028
 21
129.59999999999999
 31
0.0
  0
ARC
  5
1C6A
  8
0
 10
39.765865937950629
 20
133.44999999999999
 30
0.0
 40
0.2
 50
203.9694823177592
 51
270.0000000000021
  0
ARC
  5
1C6B
  8
0
 10
39.572752040926652
 20
133.15000000000001
 30
0.0
 40
2.5
 50
204.94443484287851
 51
270.0
  0
LINE
  5
1C6C
  8
0
 10
39.765865937950643
 20
133.25
 30
0.0
 11
39.572752040926652
 21
130.65000000000001
 31
0.0
  0
LINE
  5
1C6D
  8
0
 10
39.583113543985448
 20
133.36875000000001
 30
0.0
 11
37.305959006345468
 21
132.09565217391301
 31
0.0
  0
LINE
  5
1C79
  8
0
 10
54.549999999999997
 20
134.80000000000001
 30
0.0
 11
54.549999999999997
 21
134.30000000000001
 31
0.0
  0
LINE
  5
1C7A
  8
0
 10
60.416886456014588
 20
133.36875000000001
 30
0.0
 11
62.694040993654561
 21
132.09565217391301
 31
0.0
  0
LINE
  5
1C7B
  8
0
 10
60.234134062049399
 20
133.25
 30
0.0
 11
60.427247959073391
 21
130.65000000000001
 31
0.0
  0
ARC
  5
1C7C
  8
0
 10
60.427247959073391
 20
133.15000000000001
 30
0.0
 40
2.5
 50
270.0
 51
335.05556515712152
  0
ARC
  5
1C7D
  8
0
 10
60.234134062049407
 20
133.44999999999999
 30
0.0
 40
0.2
 50
269.99999999999801
 51
336.03051768224071
  0
LINE
  5
1C7E
  8
0
 10
56.75
 20
130.64050992823499
 30
0.0
 11
56.75
 21
129.59999999999999
 31
0.0
  0
LINE
  5
1C7F
  8
0
 10
56.75
 20
134.30000000000001
 30
0.0
 11
56.75
 21
133.2500000000002
 31
0.0
  0
ARC
  5
1C80
  8
0
 10
63.760687577096348
 20
131.94525496411759
 30
0.0
 40
7.1310658328410703
 50
169.45741120961549
 51
190.54258879038451
  0
LINE
  5
1C81
  8
0
 10
60.234134062049399
 20
133.25
 30
0.0
 11
56.749999999999972
 21
133.25
 31
0.0
  0
LINE
  5
1C82
  8
0
 10
60.427247959073391
 20
130.65000000000001
 30
0.0
 11
56.748240465692078
 21
130.65000000000001
 31
0.0
  0
ARC
  5
1C84
  8
0
 10
50.0
 20
202.0
 30
0.0
 40
4.5499999999999678
 50
16.601549599020601
 51
163.3984504009793
  0
ARC
  5
1C85
  8
0
 10
50.0
 20
202.0
 30
0.0
 40
4.5499999999999678
 50
196.60154959902039
 51
343.39845040097958
  0
LINE
  5
1C88
  8
0
 10
126.75
 20
134.30000000000001
 30
0.0
 11
126.75
 21
129.59999999999999
 31
0.0
  0
LINE
  5
1C89
  8
0
 10
124.55
 20
134.80000000000001
 30
0.0
 11
124.55
 21
134.2999999999999
 31
0.0
  0
LINE
  5
1C8A
  8
0
 10
113.25
 20
134.30000000000001
 30
0.0
 11
113.25
 21
129.59999999999999
 31
0.0
  0
LINE
  5
1C8C
  8
0
 10
126.75
 20
129.59999999999999
 30
0.0
 11
113.25
 21
129.59999999999999
 31
0.0
  0
LINE
  5
1C8D
  8
0
 10
115.45
 20
134.80000000000001
 30
0.0
 11
115.45
 21
134.2999999999999
 31
0.0
  0
LINE
  5
1C8E
  8
0
 10
126.75
 20
134.30000000000001
 30
0.0
 11
121.3
 21
134.2999999999999
 31
0.0
  0
ARC
  5
1C8F
  8
0
 10
125.90000000000011
 20
129.19999999999999
 30
0.0
 40
0.4
 50
89.999999999999588
 51
179.9999999999998
  0
LINE
  5
1C91
  8
0
 10
114.5
 20
129.19999999999999
 30
0.0
 11
125.5000000000001
 21
129.1999999999999
 31
0.0
  0
ARC
  5
1C92
  8
0
 10
114.09999999999999
 20
129.19999999999999
 30
0.0
 40
0.4
 50
0.0000000000002036
 51
90.000000000000398
  0
LINE
  5
1C93
  8
0
 10
116.75
 20
139.5
 30
0.0
 11
118.7
 21
139.5
 31
0.0
  0
LINE
  5
1C94
  8
0
 10
123.25
 20
139.5
 30
0.0
 11
123.25
 21
134.80000000000001
 31
0.0
  0
ARC
  5
1C95
  8
0
 10
122.75
 20
139.5
 30
0.0
 40
0.5
 50
0.0
 51
90.0
  0
ARC
  5
1C96
  8
0
 10
117.25
 20
139.5
 30
0.0
 40
0.5
 50
90.0
 51
180.0
  0
LINE
  5
1C97
  8
0
 10
116.75
 20
139.5
 30
0.0
 11
116.75
 21
134.80000000000001
 31
0.0
  0
LINE
  5
1C98
  8
0
 10
124.55
 20
134.80000000000001
 30
0.0
 11
121.3
 21
134.80000000000001
 31
0.0
  0
LINE
  5
1C99
  8
0
 10
122.7432
 20
140.0
 30
0.0
 11
121.3
 21
140.0
 31
0.0
  0
LINE
  5
1C9A
  8
0
 10
125.5
 20
129.1999999999999
 30
0.0
 11
125.5
 21
118.25
 31
0.0
  0
LINE
  5
1C9B
  8
0
 10
114.5
 20
129.19999999999999
 30
0.0
 11
114.5
 21
118.25
 31
0.0
  0
LINE
  5
1C9C
  8
0
 10
118.7
 20
140.0
 30
0.0
 11
117.25
 21
140.0
 31
0.0
  0
LINE
  5
1C9D
  8
0
 10
121.3
 20
139.5
 30
0.0
 11
123.25
 21
139.5
 31
0.0
  0
LINE
  5
1C9E
  8
0
 10
118.7
 20
134.80000000000001
 30
0.0
 11
115.45
 21
134.80000000000001
 31
0.0
  0
LINE
  5
1C9F
  8
0
 10
118.7
 20
134.2999999999999
 30
0.0
 11
113.25
 21
134.30000000000001
 31
0.0
  0
POLYLINE
  5
1CA2
  8
0
 10
118.69999999999997
 20
133.25000000000003
 30
0.0
 66
     1
 70
     8
  0
VERTEX
  8
0
  5
24E2
 10
118.700
 20
133.250
 30
0.000000
  70
    32
  0
VERTEX
  8
0
  5
24E3
 10
118.700
 20
133.222
 30
0.000000
  70
    32
  0
VERTEX
  8
0
  5
24E4
 10
118.702
 20
133.193
 30
0.000000
  70
    32
  0
VERTEX
  8
0
  5
24E5
 10
118.704
 20
133.165
 30
0.000000
  70
    32
  0
VERTEX
  8
0
  5
24E6
 10
118.706
 20
133.137
 30
0.000000
  70
    32
  0
VERTEX
  8
0
  5
24E7
 10
118.710
 20
133.109
 30
0.000000
  70
    32
  0
VERTEX
  8
0
  5
24E8
 10
118.714
 20
133.081
 30
0.000000
  70
    32
  0
VERTEX
  8
0
  5
24E9
 10
118.719
 20
133.053
 30
0.000000
  70
    32
  0
VERTEX
  8
0
  5
24EA
 10
118.725
 20
133.025
 30
0.000000
  70
    32
  0
VERTEX
  8
0
  5
24EB
 10
118.732
 20
132.997
 30
0.000000
  70
    32
  0
VERTEX
  8
0
  5
24EC
 10
118.739
 20
132.970
 30
0.000000
  70
    32
  0
VERTEX
  8
0
  5
24ED
 10
118.747
 20
132.942
 30
0.000000
  70
    32
  0
VERTEX
  8
0
  5
24EE
 10
118.756
 20
132.915
 30
0.000000
  70
    32
  0
VERTEX
  8
0
  5
24EF
 10
118.766
 20
132.888
 30
0.000000
  70
    32
  0
VERTEX
  8
0
  5
24F0
 10
118.776
 20
132.861
 30
0.000000
  70
    32
  0
VERTEX
  8
0
  5
24F1
 10
118.787
 20
132.835
 30
0.000000
  70
    32
  0
VERTEX
  8
0
  5
24F2
 10
118.799
 20
132.808
 30
0.000000
  70
    32
  0
VERTEX
  8
0
  5
24F3
 10
118.812
 20
132.782
 30
0.000000
  70
    32
  0
VERTEX
  8
0
  5
24F4
 10
118.825
 20
132.756
 30
0.000000
  70
    32
  0
VERTEX
  8
0
  5
24F5
 10
118.839
 20
132.731
 30
0.000000
  70
    32
  0
VERTEX
  8
0
  5
24F6
 10
118.854
 20
132.706
 30
0.000000
  70
    32
  0
VERTEX
  8
0
  5
24F7
 10
118.869
 20
132.681
 30
0.000000
  70
    32
  0
VERTEX
  8
0
  5
24F8
 10
118.885
 20
132.657
 30
0.000000
  70
    32
  0
VERTEX
  8
0
  5
24F9
 10
118.902
 20
132.632
 30
0.000000
  70
    32
  0
VERTEX
  8
0
  5
24FA
 10
118.919
 20
132.609
 30
0.000000
  70
    32
  0
VERTEX
  8
0
  5
24FB
 10
118.937
 20
132.585
 30
0.000000
  70
    32
  0
VERTEX
  8
0
  5
24FC
 10
118.956
 20
132.562
 30
0.000000
  70
    32
  0
VERTEX
  8
0
  5
24FD
 10
118.975
 20
132.540
 30
0.000000
  70
    32
  0
VERTEX
  8
0
  5
24FE
 10
118.995
 20
132.518
 30
0.000000
  70
    32
  0
VERTEX
  8
0
  5
24FF
 10
119.016
 20
132.496
 30
0.000000
  70
    32
  0
VERTEX
  8
0
  5
2500
 10
119.037
 20
132.475
 30
0.000000
  70
    32
  0
VERTEX
  8
0
  5
2501
 10
119.058
 20
132.454
 30
0.000000
  70
    32
  0
VERTEX
  8
0
  5
2502
 10
119.081
 20
132.434
 30
0.000000
  70
    32
  0
VERTEX
  8
0
  5
2503
 10
119.104
 20
132.414
 30
0.000000
  70
    32
  0
VERTEX
  8
0
  5
2504
 10
119.127
 20
132.395
 30
0.000000
  70
    32
  0
VERTEX
  8
0
  5
2505
 10
119.151
 20
132.376
 30
0.000000
  70
    32
  0
VERTEX
  8
0
  5
2506
 10
119.175
 20
132.358
 30
0.000000
  70
    32
  0
VERTEX
  8
0
  5
2507
 10
119.200
 20
132.340
 30
0.000000
  70
    32
  0
VERTEX
  8
0
  5
2508
 10
119.226
 20
132.323
 30
0.000000
  70
    32
  0
VERTEX
  8
0
  5
2509
 10
119.251
 20
132.306
 30
0.000000
  70
    32
  0
VERTEX
  8
0
  5
250A
 10
119.278
 20
132.290
 30
0.000000
  70
    32
  0
VERTEX
  8
0
  5
250B
 10
119.305
 20
132.275
 30
0.000000
  70
    32
  0
VERTEX
  8
0
  5
250C
 10
119.332
 20
132.260
 30
0.000000
  70
    32
  0
VERTEX
  8
0
  5
250D
 10
119.359
 20
132.246
 30
0.000000
  70
    32
  0
VERTEX
  8
0
  5
250E
 10
119.387
 20
132.232
 30
0.000000
  70
    32
  0
VERTEX
  8
0
  5
250F
 10
119.416
 20
132.219
 30
0.000000
  70
    32
  0
VERTEX
  8
0
  5
2510
 10
119.444
 20
132.206
 30
0.000000
  70
    32
  0
VERTEX
  8
0
  5
2511
 10
119.473
 20
132.195
 30
0.000000
  70
    32
  0
VERTEX
  8
0
  5
2512
 10
119.503
 20
132.184
 30
0.000000
  70
    32
  0
VERTEX
  8
0
  5
2513
 10
119.532
 20
132.173
 30
0.000000
  70
    32
  0
VERTEX
  8
0
  5
2514
 10
119.562
 20
132.163
 30
0.000000
  70
    32
  0
VERTEX
  8
0
  5
2515
 10
119.592
 20
132.154
 30
0.000000
  70
    32
  0
VERTEX
  8
0
  5
2516
 10
119.623
 20
132.145
 30
0.000000
  70
    32
  0
VERTEX
  8
0
  5
2517
 10
119.653
 20
132.137
 30
0.000000
  70
    32
  0
VERTEX
  8
0
  5
2518
 10
119.684
 20
132.130
 30
0.000000
  70
    32
  0
VERTEX
  8
0
  5
2519
 10
119.715
 20
132.124
 30
0.000000
  70
    32
  0
VERTEX
  8
0
  5
251A
 10
119.746
 20
132.118
 30
0.000000
  70
    32
  0
VERTEX
  8
0
  5
251B
 10
119.778
 20
132.113
 30
0.000000
  70
    32
  0
VERTEX
  8
0
  5
251C
 10
119.809
 20
132.108
 30
0.000000
  70
    32
  0
VERTEX
  8
0
  5
251D
 10
119.841
 20
132.104
 30
0.000000
  70
    32
  0
VERTEX
  8
0
  5
251E
 10
119.873
 20
132.101
 30
0.000000
  70
    32
  0
VERTEX
  8
0
  5
251F
 10
119.904
 20
132.099
 30
0.000000
  70
    32
  0
VERTEX
  8
0
  5
2520
 10
119.936
 20
132.097
 30
0.000000
  70
    32
  0
VERTEX
  8
0
  5
2521
 10
119.968
 20
132.096
 30
0.000000
  70
    32
  0
VERTEX
  8
0
  5
2522
 10
120.000
 20
132.096
 30
0.000000
  70
    32
  0
VERTEX
  8
0
  5
2523
 10
120.032
 20
132.096
 30
0.000000
  70
    32
  0
VERTEX
  8
0
  5
2524
 10
120.064
 20
132.097
 30
0.000000
  70
    32
  0
VERTEX
  8
0
  5
2525
 10
120.096
 20
132.099
 30
0.000000
  70
    32
  0
VERTEX
  8
0
  5
2526
 10
120.127
 20
132.101
 30
0.000000
  70
    32
  0
VERTEX
  8
0
  5
2527
 10
120.159
 20
132.104
 30
0.000000
  70
    32
  0
VERTEX
  8
0
  5
2528
 10
120.191
 20
132.108
 30
0.000000
  70
    32
  0
VERTEX
  8
0
  5
2529
 10
120.222
 20
132.113
 30
0.000000
  70
    32
  0
VERTEX
  8
0
  5
252A
 10
120.254
 20
132.118
 30
0.000000
  70
    32
  0
VERTEX
  8
0
  5
252B
 10
120.285
 20
132.124
 30
0.000000
  70
    32
  0
VERTEX
  8
0
  5
252C
 10
120.316
 20
132.130
 30
0.000000
  70
    32
  0
VERTEX
  8
0
  5
252D
 10
120.347
 20
132.137
 30
0.000000
  70
    32
  0
VERTEX
  8
0
  5
252E
 10
120.377
 20
132.145
 30
0.000000
  70
    32
  0
VERTEX
  8
0
  5
252F
 10
120.408
 20
132.154
 30
0.000000
  70
    32
  0
VERTEX
  8
0
  5
2530
 10
120.438
 20
132.163
 30
0.000000
  70
    32
  0
VERTEX
  8
0
  5
2531
 10
120.468
 20
132.173
 30
0.000000
  70
    32
  0
VERTEX
  8
0
  5
2532
 10
120.497
 20
132.184
 30
0.000000
  70
    32
  0
VERTEX
  8
0
  5
2533
 10
120.527
 20
132.195
 30
0.000000
  70
    32
  0
VERTEX
  8
0
  5
2534
 10
120.556
 20
132.206
 30
0.000000
  70
    32
  0
VERTEX
  8
0
  5
2535
 10
120.584
 20
132.219
 30
0.000000
  70
    32
  0
VERTEX
  8
0
  5
2536
 10
120.613
 20
132.232
 30
0.000000
  70
    32
  0
VERTEX
  8
0
  5
2537
 10
120.641
 20
132.246
 30
0.000000
  70
    32
  0
VERTEX
  8
0
  5
2538
 10
120.668
 20
132.260
 30
0.000000
  70
    32
  0
VERTEX
  8
0
  5
2539
 10
120.695
 20
132.275
 30
0.000000
  70
    32
  0
VERTEX
  8
0
  5
253A
 10
120.722
 20
132.290
 30
0.000000
  70
    32
  0
VERTEX
  8
0
  5
253B
 10
120.749
 20
132.306
 30
0.000000
  70
    32
  0
VERTEX
  8
0
  5
253C
 10
120.774
 20
132.323
 30
0.000000
  70
    32
  0
VERTEX
  8
0
  5
253D
 10
120.800
 20
132.340
 30
0.000000
  70
    32
  0
VERTEX
  8
0
  5
253E
 10
120.825
 20
132.358
 30
0.000000
  70
    32
  0
VERTEX
  8
0
  5
253F
 10
120.849
 20
132.376
 30
0.000000
  70
    32
  0
VERTEX
  8
0
  5
2540
 10
120.873
 20
132.395
 30
0.000000
  70
    32
  0
VERTEX
  8
0
  5
2541
 10
120.896
 20
132.414
 30
0.000000
  70
    32
  0
VERTEX
  8
0
  5
2542
 10
120.919
 20
132.434
 30
0.000000
  70
    32
  0
VERTEX
  8
0
  5
2543
 10
120.942
 20
132.454
 30
0.000000
  70
    32
  0
VERTEX
  8
0
  5
2544
 10
120.963
 20
132.475
 30
0.000000
  70
    32
  0
VERTEX
  8
0
  5
2545
 10
120.984
 20
132.496
 30
0.000000
  70
    32
  0
VERTEX
  8
0
  5
2546
 10
121.005
 20
132.518
 30
0.000000
  70
    32
  0
VERTEX
  8
0
  5
2547
 10
121.025
 20
132.540
 30
0.000000
  70
    32
  0
VERTEX
  8
0
  5
2548
 10
121.044
 20
132.562
 30
0.000000
  70
    32
  0
VERTEX
  8
0
  5
2549
 10
121.063
 20
132.585
 30
0.000000
  70
    32
  0
VERTEX
  8
0
  5
254A
 10
121.081
 20
132.609
 30
0.000000
  70
    32
  0
VERTEX
  8
0
  5
254B
 10
121.098
 20
132.632
 30
0.000000
  70
    32
  0
VERTEX
  8
0
  5
254C
 10
121.115
 20
132.657
 30
0.000000
  70
    32
  0
VERTEX
  8
0
  5
254D
 10
121.131
 20
132.681
 30
0.000000
  70
    32
  0
VERTEX
  8
0
  5
254E
 10
121.146
 20
132.706
 30
0.000000
  70
    32
  0
VERTEX
  8
0
  5
254F
 10
121.161
 20
132.731
 30
0.000000
  70
    32
  0
VERTEX
  8
0
  5
2550
 10
121.175
 20
132.756
 30
0.000000
  70
    32
  0
VERTEX
  8
0
  5
2551
 10
121.188
 20
132.782
 30
0.000000
  70
    32
  0
VERTEX
  8
0
  5
2552
 10
121.201
 20
132.808
 30
0.000000
  70
    32
  0
VERTEX
  8
0
  5
2553
 10
121.213
 20
132.835
 30
0.000000
  70
    32
  0
VERTEX
  8
0
  5
2554
 10
121.224
 20
132.861
 30
0.000000
  70
    32
  0
VERTEX
  8
0
  5
2555
 10
121.234
 20
132.888
 30
0.000000
  70
    32
  0
VERTEX
  8
0
  5
2556
 10
121.244
 20
132.915
 30
0.000000
  70
    32
  0
VERTEX
  8
0
  5
2557
 10
121.253
 20
132.942
 30
0.000000
  70
    32
  0
VERTEX
  8
0
  5
2558
 10
121.261
 20
132.970
 30
0.000000
  70
    32
  0
VERTEX
  8
0
  5
2559
 10
121.268
 20
132.997
 30
0.000000
  70
    32
  0
VERTEX
  8
0
  5
255A
 10
121.275
 20
133.025
 30
0.000000
  70
    32
  0
VERTEX
  8
0
  5
255B
 10
121.281
 20
133.053
 30
0.000000
  70
    32
  0
VERTEX
  8
0
  5
255C
 10
121.286
 20
133.081
 30
0.000000
  70
    32
  0
VERTEX
  8
0
  5
255D
 10
121.290
 20
133.109
 30
0.000000
  70
    32
  0
VERTEX
  8
0
  5
255E
 10
121.294
 20
133.137
 30
0.000000
  70
    32
  0
VERTEX
  8
0
  5
255F
 10
121.296
 20
133.165
 30
0.000000
  70
    32
  0
VERTEX
  8
0
  5
2560
 10
121.298
 20
133.193
 30
0.000000
  70
    32
  0
VERTEX
  8
0
  5
2561
 10
121.300
 20
133.222
 30
0.000000
  70
    32
  0
VERTEX
  8
0
  5
2562
 10
121.300
 20
133.250
 30
0.000000
  70
    32
  0
SEQEND
  8
0
  5
2563
  0
ARC
  5
1F20
  8
0
 10
37.299999999999997
 20
202.0
 30
0.0
 40
1.2999999999999969
 50
90.0
 51
270.0
  0
LINE
  5
202B
  8
0
 10
54.000000000000057
 20
118.0
 30
0.0
 11
54.000000000000057
 21
58.0
 31
0.0
  0
LINE
  5
202C
  8
0
 10
54.000000000000057
 20
52.0
 30
0.0
 11
53.300000000000047
 21
50.0
 31
0.0
  0
ARC
  5
202D
  8
0
 10
53.100000000000051
 20
56.677124344467693
 30
0.0
 40
1.6000000000000001
 50
304.2288663278116
 51
55.771133672188377
  0
ARC
  5
202E
  8
0
 10
56.702661756988491
 20
56.697714154581362
 30
0.0
 40
3.0000548321431721
 50
154.27276538695301
 51
206.38213726890831
  0
LINE
  5
202F
  8
0
 10
54.000000000000057
 20
55.354248688935421
 30
0.0
 11
54.000000000000092
 21
52.0
 31
0.0
  0
LINE
  5
2030
  8
0
 10
46.000000000000057
 20
52.0
 30
0.0
 11
54.000000000000057
 21
52.0
 31
0.0
  0
LINE
  5
2031
  8
0
 10
46.700000000000067
 20
50.0
 30
0.0
 11
53.300000000000011
 21
50.0
 31
0.0
  0
LINE
  5
2032
  8
0
 10
46.000000000000057
 20
55.354248688935421
 30
0.0
 11
46.000000000000043
 21
52.0
 31
0.0
  0
ARC
  5
2033
  8
0
 10
43.297338243011637
 20
56.697714154581362
 30
0.0
 40
3.0000548321431721
 50
333.61786273109158
 51
25.727234613046921
  0
ARC
  5
2034
  8
0
 10
46.90000000000007
 20
56.677124344467693
 30
0.0
 40
1.6000000000000001
 50
124.2288663278116
 51
235.7711336721884
  0
LINE
  5
2035
  8
0
 10
46.000000000000057
 20
52.0
 30
0.0
 11
46.700000000000067
 21
50.0
 31
0.0
  0
LINE
  5
2036
  8
0
 10
46.000000000000057
 20
118.0
 30
0.0
 11
46.000000000000057
 21
58.0
 31
0.0
  0
LINE
  5
2038
  8
0
 10
116.0000000000001
 20
51.999999999999972
 30
0.0
 11
116.7000000000001
 21
49.999999999999972
 31
0.0
  0
LINE
  5
203C
  8
0
 10
116.7000000000001
 20
49.999999999999972
 30
0.0
 11
123.3
 21
49.999999999999972
 31
0.0
  0
LINE
  5
203D
  8
0
 10
116.0000000000001
 20
51.999999999999972
 30
0.0
 11
124.0
 21
51.999999999999972
 31
0.0
  0
LINE
  5
2041
  8
0
 10
124.0
 20
51.999999999999972
 30
0.0
 11
123.3
 21
49.999999999999972
 31
0.0
  0
LINE
  5
2042
  8
0
 10
124.0
 20
118.0
 30
0.0
 11
124.0
 21
51.999999999999972
 31
0.0
  0
LINE
  5
2043
  8
0
 10
116.0000000000001
 20
118.0
 30
0.0
 11
116.0000000000001
 21
51.999999999999972
 31
0.0
  0
CIRCLE
  5
2047
  8
0
 10
120.0
 20
56.677124344467693
 30
0.0
 40
1.322875655532286
  0
TEXT
  5
2115
  8
0
 62
     3
 10
0.0
 20
0.0
 30
0.0
 40
10.0
  1
BJ775-08060-SUS
  7
STANDARD1
  0
ENDSEC
  0
EOF
