  0
SECTION
  2
HEADER
  9
$ACADVER
  1
AC1009
  9
$INSBASE
 10
0.0
 20
0.0
 30
0.0
  9
$EXTMIN
 10
0.0
 20
-2.960436562073669
 30
0.0
  9
$EXTMAX
 10
116.4870395634379
 20
170.95135810507099
 30
0.0
  9
$LIMMIN
 10
0.0
 20
0.0
  9
$LIMMAX
 10
12.0
 20
9.0
  9
$ORTHOMODE
 70
     1
  9
$REGENMODE
 70
     1
  9
$FILLMODE
 70
     1
  9
$QTEXTMODE
 70
     0
  9
$MIRRTEXT
 70
     0
  9
$DRAGMODE
 70
     2
  9
$LTSCALE
 40
5.0
  9
$OSMODE
 70
    37
  9
$ATTMODE
 70
     1
  9
$TEXTSIZE
 40
0.2
  9
$TRACEWID
 40
0.05
  9
$TEXTSTYLE
  7
STANDARD
  9
$CLAYER
  8
0
  9
$CELTYPE
  6
BYLAYER
  9
$CECOLOR
 62
   256
  9
$DIMSCALE
 40
1.0
  9
$DIMASZ
 40
0.18
  9
$DIMEXO
 40
0.0625
  9
$DIMDLI
 40
0.38
  9
$DIMRND
 40
0.0
  9
$DIMDLE
 40
0.0
  9
$DIMEXE
 40
0.18
  9
$DIMTP
 40
0.0
  9
$DIMTM
 40
0.0
  9
$DIMTXT
 40
0.18
  9
$DIMCEN
 40
0.09
  9
$DIMTSZ
 40
0.0
  9
$DIMTOL
 70
     0
  9
$DIMLIM
 70
     0
  9
$DIMTIH
 70
     1
  9
$DIMTOH
 70
     1
  9
$DIMSE1
 70
     0
  9
$DIMSE2
 70
     0
  9
$DIMTAD
 70
     0
  9
$DIMZIN
 70
     0
  9
$DIMBLK
  1

  9
$DIMASO
 70
     1
  9
$DIMSHO
 70
     1
  9
$DIMPOST
  1

  9
$DIMAPOST
  1

  9
$DIMALT
 70
     0
  9
$DIMALTD
 70
     2
  9
$DIMALTF
 40
25.399999999999999
  9
$DIMLFAC
 40
1.0
  9
$DIMTOFL
 70
     0
  9
$DIMTVP
 40
0.0
  9
$DIMTIX
 70
     0
  9
$DIMSOXD
 70
     0
  9
$DIMSAH
 70
     0
  9
$DIMBLK1
  1

  9
$DIMBLK2
  1

  9
$DIMSTYLE
  2
STANDARD
  9
$DIMCLRD
 70
     0
  9
$DIMCLRE
 70
     0
  9
$DIMCLRT
 70
     0
  9
$DIMTFAC
 40
1.0
  9
$DIMGAP
 40
0.09
  9
$LUNITS
 70
     2
  9
$LUPREC
 70
     4
  9
$SKETCHINC
 40
0.1
  9
$FILLETRAD
 40
0.0
  9
$AUNITS
 70
     0
  9
$AUPREC
 70
     0
  9
$MENU
  1
.
  9
$ELEVATION
 40
0.0
  9
$PELEVATION
 40
0.0
  9
$THICKNESS
 40
0.0
  9
$LIMCHECK
 70
     0
  9
$BLIPMODE
 70
     0
  9
$CHAMFERA
 40
0.0
  9
$CHAMFERB
 40
0.0
  9
$SKPOLY
 70
     0
  9
$TDCREATE
 40
2453083.4120647679
  9
$TDUPDATE
 40
2457114.5894302661
  9
$TDINDWG
 40
0.3108999653
  9
$TDUSRTIMER
 40
0.3108998495
  9
$USRTIMER
 70
     1
  9
$ANGBASE
 50
0.0
  9
$ANGDIR
 70
     0
  9
$PDMODE
 70
     0
  9
$PDSIZE
 40
0.0
  9
$PLINEWID
 40
0.0
  9
$COORDS
 70
     1
  9
$SPLFRAME
 70
     0
  9
$SPLINETYPE
 70
     6
  9
$SPLINESEGS
 70
     8
  9
$ATTDIA
 70
     0
  9
$ATTREQ
 70
     1
  9
$HANDLING
 70
     1
  9
$HANDSEED
  5
1506
  9
$SURFTAB1
 70
     6
  9
$SURFTAB2
 70
     6
  9
$SURFTYPE
 70
     6
  9
$SURFU
 70
     6
  9
$SURFV
 70
     6
  9
$UCSNAME
  2

  9
$UCSORG
 10
0.0
 20
0.0
 30
0.0
  9
$UCSXDIR
 10
1.0
 20
0.0
 30
0.0
  9
$UCSYDIR
 10
0.0
 20
1.0
 30
0.0
  9
$PUCSNAME
  2

  9
$PUCSORG
 10
0.0
 20
0.0
 30
0.0
  9
$PUCSXDIR
 10
1.0
 20
0.0
 30
0.0
  9
$PUCSYDIR
 10
0.0
 20
1.0
 30
0.0
  9
$USERI1
 70
     0
  9
$USERI2
 70
     1
  9
$USERI3
 70
     0
  9
$USERI4
 70
     0
  9
$USERI5
 70
     0
  9
$USERR1
 40
0.0
  9
$USERR2
 40
0.0
  9
$USERR3
 40
0.0
  9
$USERR4
 40
0.0
  9
$USERR5
 40
0.0
  9
$WORLDVIEW
 70
     1
  9
$SHADEDGE
 70
     3
  9
$SHADEDIF
 70
    70
  9
$TILEMODE
 70
     1
  9
$MAXACTVP
 70
    64
  9
$PLIMCHECK
 70
     0
  9
$PEXTMIN
 10
0.0
 20
0.0
 30
0.0
  9
$PEXTMAX
 10
0.0
 20
0.0
 30
0.0
  9
$PLIMMIN
 10
0.0
 20
0.0
  9
$PLIMMAX
 10
12.0
 20
9.0
  9
$UNITMODE
 70
     0
  9
$VISRETAIN
 70
     1
  9
$PLINEGEN
 70
     0
  9
$PSLTSCALE
 70
     1
  0
ENDSEC
  0
SECTION
  2
TABLES
  0
TABLE
  2
VPORT
 70
     1
  0
VPORT
  2
*ACTIVE
 70
     0
 10
0.0
 20
0.0
 11
1.0
 21
1.0
 12
261.82197496522951
 22
150.0
 13
0.0
 23
0.0
 14
0.5
 24
0.5
 15
0.5
 25
0.5
 16
0.0
 26
0.0
 36
1.0
 17
0.0
 27
0.0
 37
0.0
 40
300.0
 41
1.74547983310153
 42
50.0
 43
0.0
 44
0.0
 50
0.0
 51
0.0
 71
     0
 72
  1000
 73
     1
 74
     2
 75
     0
 76
     0
 77
     0
 78
     0
  0
ENDTAB
  0
TABLE
  2
LTYPE
 70
     3
  0
LTYPE
  2
CONTINUOUS
 70
     0
  3
Solid Line
 72
    65
 73
     0
 40
0.0
  0
LTYPE
  2
CENTER
 70
     0
  3
____ _ ____ _ ____ _ ____ _ ____ _ ____ _ ____
 72
    65
 73
     4
 40
2.0
 49
1.25
 49
-0.25
 49
0.25
 49
-0.25
  0
LTYPE
  2
PHANTOM2
 70
     0
  3
___ _ _ ___ _ _ ___ _ _ ___ _ _
 72
    65
 73
     6
 40
1.25
 49
0.625
 49
-0.125
 49
0.125
 49
-0.125
 49
0.125
 49
-0.125
  0
ENDTAB
  0
TABLE
  2
LAYER
 70
     2
  0
LAYER
  2
0
 70
     0
 62
     7
  6
CONTINUOUS
  0
LAYER
  2
1
 70
     0
 62
     1
  6
CENTER
  0
ENDTAB
  0
TABLE
  2
STYLE
 70
     2
  0
STYLE
  2
STANDARD
 70
     0
 40
0.0
 41
1.0
 50
0.0
 71
     0
 42
0.2
  3
simplex.shx
  4
bigfont.shx
  0
STYLE
  2
STANDARD1
 70
     0
 40
0.0
 41
1.0
 50
0.0
 71
     0
 42
3.0
  3
txt
  4

  0
ENDTAB
  0
TABLE
  2
VIEW
 70
     0
  0
ENDTAB
  0
TABLE
  2
UCS
 70
     0
  0
ENDTAB
  0
TABLE
  2
APPID
 70
     4
  0
APPID
  2
ACAD
 70
     0
  0
APPID
  2
ACAD_MLEADERVER
 70
     0
  0
APPID
  2
ACAD_EXEMPT_FROM_CAD_STANDARDS
 70
     0
  0
APPID
  2
ACAD_NAV_VCDISPLAY
 70
     0
  0
ENDTAB
  0
TABLE
  2
DIMSTYLE
 70
     1
  0
DIMSTYLE
  2
STANDARD
 70
     0
  3

  4

  5

  6

  7

 40
1.0
 41
0.18
 42
0.0625
 43
0.38
 44
0.18
 45
0.0
 46
0.0
 47
0.0
 48
0.0
140
0.18
141
0.09
142
0.0
143
25.399999999999999
144
1.0
145
0.0
146
1.0
147
0.09
 71
     0
 72
     0
 73
     1
 74
     1
 75
     0
 76
     0
 77
     0
 78
     0
170
     0
171
     2
172
     0
173
     0
174
     0
175
     0
176
     0
177
     0
178
     0
  0
ENDTAB
  0
ENDSEC
  0
SECTION
  2
BLOCKS
  0
BLOCK
  8
0
  2
$MODEL_SPACE
 70
     0
 10
0.0
 20
0.0
 30
0.0
  3
$MODEL_SPACE
  1

  0
ENDBLK
  5
21
  8
0
  0
BLOCK
 67
     1
  8
0
  2
$PAPER_SPACE
 70
     0
 10
0.0
 20
0.0
 30
0.0
  3
$PAPER_SPACE
  1

  0
ENDBLK
  5
5B
 67
     1
  8
0
  0
ENDSEC
  0
SECTION
  2
ENTITIES
  0
LINE
  5
1276
  8
0
 10
56.403049683066371
 20
33.664819778381457
 30
0.0
 11
48.103049683066381
 21
33.664819778381457
 31
0.0
  0
LINE
  5
1278
  8
0
 10
58.34904968306639
 20
105.6648197783814
 30
0.0
 11
46.157049683066411
 21
105.6648197783814
 31
0.0
  0
LINE
  5
1279
  8
0
 10
58.4760496830664
 20
92.664819778381428
 30
0.0
 11
46.030049683066402
 21
92.664819778381428
 31
0.0
  0
LINE
  5
127A
  8
0
 10
58.603049683066381
 20
105.41081977838139
 30
0.0
 11
45.903049683066392
 21
105.41081977838139
 31
0.0
  0
LINE
  5
127B
  8
0
 10
58.603049683066381
 20
92.791819778381438
 30
0.0
 11
45.903049683066392
 21
92.791819778381438
 31
0.0
  0
LINE
  5
1282
  8
0
 10
47.253049683066358
 20
92.664819778381428
 30
0.0
 11
47.253049683066408
 21
42.664819778381307
 31
0.0
  0
LINE
  5
1283
  8
0
 10
47.253049683066358
 20
39.520571751674566
 30
0.0
 11
47.253049683066358
 21
36.064819778381462
 31
0.0
  0
LINE
  5
1286
  8
0
 10
46.157049683066411
 20
105.6648197783814
 30
0.0
 11
45.903049683066392
 21
105.41081977838139
 31
0.0
  0
LINE
  5
1289
  8
0
 10
45.903049683066392
 20
92.791819778381438
 30
0.0
 11
46.030049683066402
 21
92.664819778381428
 31
0.0
  0
LINE
  5
128A
  8
0
 10
45.903049683066392
 20
105.41081977838139
 30
0.0
 11
45.903049683066392
 21
104.2277262059084
 31
0.0
  0
LINE
  5
128B
  8
0
 10
45.903049683066392
 20
100.2277262059085
 30
0.0
 11
45.903049683066392
 21
92.791819778381438
 31
0.0
  0
LINE
  5
12A3
  8
1
 10
52.25304968306633
 20
133.25135810507089
 30
0.0
 11
52.253049683066408
 21
28.66481977838146
 31
0.0
  0
LINE
  5
12A6
  8
0
 10
57.253049683066472
 20
36.064819778381462
 30
0.0
 11
47.253049683066379
 21
36.064819778381462
 31
0.0
  0
LINE
  5
12A8
  8
0
 10
47.253049683066358
 20
36.064819778381462
 30
0.0
 11
48.103049683066381
 21
33.664819778381457
 31
0.0
  0
ARC
  5
12AD
  8
0
 10
42.238762845759922
 20
41.092695765028047
 30
0.0
 40
5.2549639770551284
 50
342.59228244496768
 51
17.407717555030629
  0
ARC
  5
12B2
  8
0
 10
48.103049683066317
 20
41.123704565589627
 30
0.0
 40
1.6000000000000001
 50
120.1380531357681
 51
240.4678711277686
  0
ARC
  5
12B6
  8
0
 10
56.403049683066449
 20
41.123704565589627
 30
0.0
 40
1.6000000000000001
 50
299.53212887223128
 51
59.861946864231932
  0
ARC
  5
12B7
  8
0
 10
62.267336520372837
 20
41.092695765028047
 30
0.0
 40
5.2549639770551284
 50
162.59228244496941
 51
197.40771755503229
  0
LINE
  5
12B8
  8
0
 10
57.253049683066408
 20
36.064819778381462
 30
0.0
 11
56.403049683066392
 21
33.664819778381457
 31
0.0
  0
LINE
  5
12B9
  8
0
 10
57.253049683066408
 20
39.520571751674566
 30
0.0
 11
57.253049683066408
 21
36.064819778381462
 31
0.0
  0
LINE
  5
12BA
  8
0
 10
57.253049683066408
 20
92.664819778381428
 30
0.0
 11
57.25304968306633
 21
42.664819778381229
 31
0.0
  0
ARC
  5
12C6
  8
0
 10
39.90599730900481
 20
102.2277262059084
 30
0.0
 40
6.3217590255590599
 50
341.55660311558722
 51
18.44339688441196
  0
ARC
  5
12D3
  8
0
 10
64.600102057127913
 20
102.2277262059084
 30
0.0
 40
6.3217590255590599
 50
161.55660311558799
 51
198.44339688441281
  0
LINE
  5
12D4
  8
0
 10
58.603049683066317
 20
100.2277262059085
 30
0.0
 11
58.603049683066317
 21
92.791819778381438
 31
0.0
  0
LINE
  5
12D5
  8
0
 10
58.603049683066317
 20
105.41081977838139
 30
0.0
 11
58.603049683066317
 21
104.2277262059084
 31
0.0
  0
LINE
  5
12D6
  8
0
 10
58.603049683066317
 20
92.791819778381438
 30
0.0
 11
58.476049683066307
 21
92.664819778381428
 31
0.0
  0
LINE
  5
12D7
  8
0
 10
58.349049683066312
 20
105.6648197783814
 30
0.0
 11
58.603049683066317
 21
105.41081977838139
 31
0.0
  0
ARC
  5
130E
  8
0
 10
52.253049683066358
 20
114.1513581050709
 30
0.0
 40
12.5
 50
299.24964361194401
 51
240.75035638805599
  0
ARC
  5
1310
  8
0
 10
52.253049683066358
 20
114.1513581050709
 30
0.0
 40
14.1
 50
295.52661036701488
 51
244.47338963298509
  0
LINE
  5
1315
  8
1
 10
71.353049683066359
 20
114.1513581050709
 30
0.0
 11
33.153049683066357
 21
114.1513581050709
 31
0.0
  0
LINE
  5
131F
  8
1
 10
71.353049683066374
 20
159.60135810507089
 30
0.0
 11
33.153049683066399
 21
159.60135810507089
 31
0.0
  0
LINE
  5
1320
  8
1
 10
52.25304968306633
 20
148.25135810507089
 30
0.0
 11
52.253049683066408
 21
170.95135810507099
 31
0.0
  0
ARC
  5
1321
  8
0
 10
52.25304968306633
 20
159.60135810507089
 30
0.0
 40
6.0960000000000027
 50
7.5408829057708591
 51
172.45911709422899
  0
ARC
  5
1322
  8
0
 10
52.253049683066379
 20
159.60135810507089
 30
0.0
 40
6.3500000000000218
 50
7.237598632240001
 51
172.76240136775991
  0
LINE
  5
1323
  8
0
 10
65.553049683066376
 20
158.8013581050709
 30
0.0
 11
38.953049683066347
 21
158.8013581050709
 31
0.0
  0
LINE
  5
1324
  8
0
 10
65.553049683066376
 20
160.4013581050709
 30
0.0
 11
38.953049683066347
 21
160.40135810507101
 31
0.0
  0
ARC
  5
1325
  8
0
 10
65.553049683066376
 20
159.60135810507089
 30
0.0
 40
0.7999999999999972
 50
270.0
 51
90.0
  0
ARC
  5
1328
  8
0
 10
38.953049683066347
 20
159.60135810507089
 30
0.0
 40
0.7999999999999972
 50
90.0
 51
270.0
  0
ARC
  5
132A
  8
0
 10
52.25304968306633
 20
159.60135810507089
 30
0.0
 40
6.0960000000000027
 50
187.5408829057709
 51
352.45911709422887
  0
ARC
  5
132B
  8
0
 10
52.253049683066379
 20
159.60135810507089
 30
0.0
 40
6.3500000000000218
 50
187.23759863224009
 51
352.76240136775982
  0
ARC
  5
1342
  8
0
 10
102.25304968306619
 20
127.4513581050709
 30
0.0
 40
0.8
 50
0.000000000000007
 51
180.0
  0
LINE
  5
1343
  8
0
 10
103.05304968306631
 20
105.41081977838139
 30
0.0
 11
108.6030496830662
 21
105.41081977838139
 31
0.0
  0
LINE
  5
1344
  8
0
 10
103.05304968306631
 20
105.6648197783814
 30
0.0
 11
108.3490496830662
 21
105.6648197783814
 31
0.0
  0
LINE
  5
1345
  8
0
 10
103.05304968306631
 20
102.2277262059084
 30
0.0
 11
103.05304968306631
 21
127.4513581050709
 31
0.0
  0
LINE
  5
1346
  8
0
 10
101.4530496830662
 20
102.2277262059084
 30
0.0
 11
101.4530496830663
 21
127.4513581050709
 31
0.0
  0
ARC
  5
1347
  8
0
 10
102.25304968306619
 20
102.2277262059084
 30
0.0
 40
0.8
 50
180.0
 51
0.000000000000007
  0
ARC
  5
1348
  8
0
 10
102.25304968306619
 20
102.2277262059084
 30
0.0
 40
1.999999999999992
 50
113.57817847820139
 51
66.421821521797654
  0
CIRCLE
  5
1349
  8
0
 10
102.25304968306619
 20
41.123704565589627
 30
0.0
 40
1.3837090402733869
  0
LINE
  5
134A
  8
1
 10
102.25304968306629
 20
133.25135810507089
 30
0.0
 11
102.25304968306619
 21
28.66481977838146
 31
0.0
  0
LINE
  5
134B
  8
0
 10
98.103049683066274
 20
33.664819778381457
 30
0.0
 11
106.4030496830662
 21
33.664819778381457
 31
0.0
  0
LINE
  5
134C
  8
0
 10
96.157049683066248
 20
105.6648197783814
 30
0.0
 11
101.4530496830662
 21
105.6648197783814
 31
0.0
  0
LINE
  5
134D
  8
0
 10
96.030049683066238
 20
92.664819778381428
 30
0.0
 11
108.47604968306619
 21
92.664819778381428
 31
0.0
  0
LINE
  5
134E
  8
0
 10
95.903049683066257
 20
105.41081977838139
 30
0.0
 11
101.4530496830663
 21
105.41081977838139
 31
0.0
  0
LINE
  5
134F
  8
0
 10
95.903049683066257
 20
92.791819778381438
 30
0.0
 11
108.6030496830662
 21
92.791819778381438
 31
0.0
  0
LINE
  5
1350
  8
0
 10
107.25304968306629
 20
92.664819778381428
 30
0.0
 11
107.2530496830661
 21
36.064819778381462
 31
0.0
  0
LINE
  5
1351
  8
0
 10
108.3490496830662
 20
105.6648197783814
 30
0.0
 11
108.6030496830662
 21
105.41081977838139
 31
0.0
  0
LINE
  5
1352
  8
0
 10
108.6030496830662
 20
92.791819778381438
 30
0.0
 11
108.47604968306619
 21
92.664819778381428
 31
0.0
  0
LINE
  5
1353
  8
0
 10
108.6030496830662
 20
105.41081977838139
 30
0.0
 11
108.6030496830662
 21
92.791819778381438
 31
0.0
  0
LINE
  5
1354
  8
0
 10
97.253049683066166
 20
36.064819778381462
 30
0.0
 11
107.25304968306619
 21
36.064819778381462
 31
0.0
  0
LINE
  5
1355
  8
0
 10
107.25304968306629
 20
36.064819778381462
 30
0.0
 11
106.4030496830662
 21
33.664819778381457
 31
0.0
  0
LINE
  5
1356
  8
0
 10
97.253049683066223
 20
36.064819778381462
 30
0.0
 11
98.103049683066246
 21
33.664819778381457
 31
0.0
  0
LINE
  5
1357
  8
0
 10
97.253049683066223
 20
92.664819778381428
 30
0.0
 11
97.253049683066251
 21
36.064819778381462
 31
0.0
  0
LINE
  5
1358
  8
0
 10
95.903049683066314
 20
105.41081977838139
 30
0.0
 11
95.903049683066314
 21
92.791819778381438
 31
0.0
  0
LINE
  5
1359
  8
0
 10
95.903049683066314
 20
92.791819778381438
 30
0.0
 11
96.030049683066323
 21
92.664819778381428
 31
0.0
  0
LINE
  5
135A
  8
0
 10
96.157049683066333
 20
105.6648197783814
 30
0.0
 11
95.903049683066314
 21
105.41081977838139
 31
0.0
  0
TEXT
  5
1420
  8
0
 62
     3
 10
0.0
 20
0.0
 30
0.0
 40
10.0
  1
BJ774-10050-SUS
  7
STANDARD1
  0
ENDSEC
  0
EOF
