  0
SECTION
  2
HEADER
  9
$ACADVER
  1
AC1009
  9
$INSBASE
 10
0.0
 20
0.0
 30
0.0
  9
$EXTMIN
 10
0.0
 20
-2.960436562073669
 30
0.0
  9
$EXTMAX
 10
116.4870395634379
 20
180.99999998805021
 30
0.0
  9
$LIMMIN
 10
0.0
 20
0.0
  9
$LIMMAX
 10
12.0
 20
9.0
  9
$ORTHOMODE
 70
     1
  9
$REGENMODE
 70
     1
  9
$FILLMODE
 70
     1
  9
$QTEXTMODE
 70
     0
  9
$MIRRTEXT
 70
     0
  9
$DRAGMODE
 70
     2
  9
$LTSCALE
 40
10.0
  9
$OSMODE
 70
    37
  9
$ATTMODE
 70
     1
  9
$TEXTSIZE
 40
0.2
  9
$TRACEWID
 40
0.05
  9
$TEXTSTYLE
  7
STANDARD
  9
$CLAYER
  8
0
  9
$CELTYPE
  6
BYLAYER
  9
$CECOLOR
 62
   256
  9
$DIMSCALE
 40
1.0
  9
$DIMASZ
 40
0.18
  9
$DIMEXO
 40
0.0625
  9
$DIMDLI
 40
0.38
  9
$DIMRND
 40
0.0
  9
$DIMDLE
 40
0.0
  9
$DIMEXE
 40
0.18
  9
$DIMTP
 40
0.0
  9
$DIMTM
 40
0.0
  9
$DIMTXT
 40
0.18
  9
$DIMCEN
 40
0.09
  9
$DIMTSZ
 40
0.0
  9
$DIMTOL
 70
     0
  9
$DIMLIM
 70
     0
  9
$DIMTIH
 70
     1
  9
$DIMTOH
 70
     1
  9
$DIMSE1
 70
     0
  9
$DIMSE2
 70
     0
  9
$DIMTAD
 70
     0
  9
$DIMZIN
 70
     0
  9
$DIMBLK
  1

  9
$DIMASO
 70
     1
  9
$DIMSHO
 70
     1
  9
$DIMPOST
  1

  9
$DIMAPOST
  1

  9
$DIMALT
 70
     0
  9
$DIMALTD
 70
     2
  9
$DIMALTF
 40
25.399999999999999
  9
$DIMLFAC
 40
1.0
  9
$DIMTOFL
 70
     0
  9
$DIMTVP
 40
0.0
  9
$DIMTIX
 70
     0
  9
$DIMSOXD
 70
     0
  9
$DIMSAH
 70
     0
  9
$DIMBLK1
  1

  9
$DIMBLK2
  1

  9
$DIMSTYLE
  2
STANDARD
  9
$DIMCLRD
 70
     0
  9
$DIMCLRE
 70
     0
  9
$DIMCLRT
 70
     0
  9
$DIMTFAC
 40
1.0
  9
$DIMGAP
 40
0.09
  9
$LUNITS
 70
     2
  9
$LUPREC
 70
     4
  9
$SKETCHINC
 40
0.1
  9
$FILLETRAD
 40
1.5
  9
$AUNITS
 70
     0
  9
$AUPREC
 70
     0
  9
$MENU
  1
.
  9
$ELEVATION
 40
0.0
  9
$PELEVATION
 40
0.0
  9
$THICKNESS
 40
0.0
  9
$LIMCHECK
 70
     0
  9
$BLIPMODE
 70
     0
  9
$CHAMFERA
 40
0.0
  9
$CHAMFERB
 40
0.0
  9
$SKPOLY
 70
     0
  9
$TDCREATE
 40
2453083.4120647679
  9
$TDUPDATE
 40
2457497.6471306598
  9
$TDINDWG
 40
0.3839822338
  9
$TDUSRTIMER
 40
0.3839821181
  9
$USRTIMER
 70
     1
  9
$ANGBASE
 50
0.0
  9
$ANGDIR
 70
     0
  9
$PDMODE
 70
     0
  9
$PDSIZE
 40
0.0
  9
$PLINEWID
 40
0.0
  9
$COORDS
 70
     1
  9
$SPLFRAME
 70
     0
  9
$SPLINETYPE
 70
     6
  9
$SPLINESEGS
 70
     8
  9
$ATTDIA
 70
     0
  9
$ATTREQ
 70
     1
  9
$HANDLING
 70
     1
  9
$HANDSEED
  5
2C1D
  9
$SURFTAB1
 70
     6
  9
$SURFTAB2
 70
     6
  9
$SURFTYPE
 70
     6
  9
$SURFU
 70
     6
  9
$SURFV
 70
     6
  9
$UCSNAME
  2

  9
$UCSORG
 10
0.0
 20
0.0
 30
0.0
  9
$UCSXDIR
 10
1.0
 20
0.0
 30
0.0
  9
$UCSYDIR
 10
0.0
 20
1.0
 30
0.0
  9
$PUCSNAME
  2

  9
$PUCSORG
 10
0.0
 20
0.0
 30
0.0
  9
$PUCSXDIR
 10
1.0
 20
0.0
 30
0.0
  9
$PUCSYDIR
 10
0.0
 20
1.0
 30
0.0
  9
$USERI1
 70
     0
  9
$USERI2
 70
     1
  9
$USERI3
 70
     0
  9
$USERI4
 70
     0
  9
$USERI5
 70
     0
  9
$USERR1
 40
0.0
  9
$USERR2
 40
0.0
  9
$USERR3
 40
0.0
  9
$USERR4
 40
0.0
  9
$USERR5
 40
0.0
  9
$WORLDVIEW
 70
     1
  9
$SHADEDGE
 70
     3
  9
$SHADEDIF
 70
    70
  9
$TILEMODE
 70
     1
  9
$MAXACTVP
 70
    64
  9
$PLIMCHECK
 70
     0
  9
$PEXTMIN
 10
0.0
 20
0.0
 30
0.0
  9
$PEXTMAX
 10
0.0
 20
0.0
 30
0.0
  9
$PLIMMIN
 10
0.0
 20
0.0
  9
$PLIMMAX
 10
12.0
 20
9.0
  9
$UNITMODE
 70
     0
  9
$VISRETAIN
 70
     1
  9
$PLINEGEN
 70
     0
  9
$PSLTSCALE
 70
     1
  0
ENDSEC
  0
SECTION
  2
TABLES
  0
TABLE
  2
VPORT
 70
     1
  0
VPORT
  2
*ACTIVE
 70
     0
 10
0.0
 20
0.0
 11
1.0
 21
1.0
 12
152.00446418616511
 22
89.017298431930541
 13
0.0
 23
0.0
 14
0.5
 24
0.5
 15
0.5
 25
0.5
 16
0.0
 26
0.0
 36
1.0
 17
0.0
 27
0.0
 37
0.0
 40
185.59143040142121
 41
2.6019575856443709
 42
50.0
 43
0.0
 44
0.0
 50
0.0
 51
0.0
 71
     0
 72
  1000
 73
     1
 74
     2
 75
     0
 76
     0
 77
     0
 78
     0
  0
ENDTAB
  0
TABLE
  2
LTYPE
 70
     3
  0
LTYPE
  2
CONTINUOUS
 70
     0
  3
Solid Line
 72
    65
 73
     0
 40
0.0
  0
LTYPE
  2
CENTER
 70
     0
  3
____ _ ____ _ ____ _ ____ _ ____ _ ____ _ ____
 72
    65
 73
     4
 40
2.0
 49
1.25
 49
-0.25
 49
0.25
 49
-0.25
  0
LTYPE
  2
PHANTOM2
 70
     0
  3
___ _ _ ___ _ _ ___ _ _ ___ _ _
 72
    65
 73
     6
 40
1.25
 49
0.625
 49
-0.125
 49
0.125
 49
-0.125
 49
0.125
 49
-0.125
  0
ENDTAB
  0
TABLE
  2
LAYER
 70
     2
  0
LAYER
  2
0
 70
     0
 62
     7
  6
CONTINUOUS
  0
LAYER
  2
1
 70
     0
 62
     1
  6
CENTER
  0
ENDTAB
  0
TABLE
  2
STYLE
 70
     2
  0
STYLE
  2
STANDARD
 70
     0
 40
0.0
 41
1.0
 50
0.0
 71
     0
 42
0.2
  3
simplex.shx
  4
bigfont.shx
  0
STYLE
  2
STANDARD1
 70
     0
 40
0.0
 41
1.0
 50
0.0
 71
     0
 42
3.0
  3
txt
  4

  0
ENDTAB
  0
TABLE
  2
VIEW
 70
     0
  0
ENDTAB
  0
TABLE
  2
UCS
 70
     0
  0
ENDTAB
  0
TABLE
  2
APPID
 70
     5
  0
APPID
  2
ACAD
 70
     0
  0
APPID
  2
DCO15
 70
     0
  0
APPID
  2
ACAD_MLEADERVER
 70
     0
  0
APPID
  2
ACAD_NAV_VCDISPLAY
 70
     0
  0
APPID
  2
ACAD_EXEMPT_FROM_CAD_STANDARDS
 70
     0
  0
ENDTAB
  0
TABLE
  2
DIMSTYLE
 70
     1
  0
DIMSTYLE
  2
STANDARD
 70
     0
  3

  4

  5

  6

  7

 40
1.0
 41
0.18
 42
0.0625
 43
0.38
 44
0.18
 45
0.0
 46
0.0
 47
0.0
 48
0.0
140
0.18
141
0.09
142
0.0
143
25.399999999999999
144
1.0
145
0.0
146
1.0
147
0.09
 71
     0
 72
     0
 73
     1
 74
     1
 75
     0
 76
     0
 77
     0
 78
     0
170
     0
171
     2
172
     0
173
     0
174
     0
175
     0
176
     0
177
     0
178
     0
  0
ENDTAB
  0
ENDSEC
  0
SECTION
  2
BLOCKS
  0
BLOCK
  8
0
  2
$MODEL_SPACE
 70
     0
 10
0.0
 20
0.0
 30
0.0
  3
$MODEL_SPACE
  1

  0
ENDBLK
  5
21
  8
0
  0
BLOCK
 67
     1
  8
0
  2
$PAPER_SPACE
 70
     0
 10
0.0
 20
0.0
 30
0.0
  3
$PAPER_SPACE
  1

  0
ENDBLK
  5
5B
 67
     1
  8
0
  0
ENDSEC
  0
SECTION
  2
ENTITIES
  0
LINE
  5
13CF
  8
0
 10
27.957898029330462
 20
174.03500845076309
 30
0.0
 11
46.143626673920757
 21
174.80134295906231
 31
0.0
  0
LINE
  5
144E
  8
0
 10
44.700237415958171
 20
122.0
 30
0.0
 11
44.499999999999979
 21
122.0
 31
0.0
  0
LINE
  5
1456
  8
0
 10
52.749999999999943
 20
135.0
 30
0.0
 11
47.249999999999929
 21
135.00000000000011
 31
0.0
  0
LINE
  5
1469
  8
0
 10
44.499999999999979
 20
103.0
 30
0.0
 11
55.499999999999979
 21
103.0
 31
0.0
  0
LINE
  5
146B
  8
0
 10
44.499999999999979
 20
104.6509999999999
 30
0.0
 11
55.5
 21
104.6509999999999
 31
0.0
  0
LINE
  5
147B
  8
0
 10
46.749999999999929
 20
134.5
 30
0.0
 11
46.749999999999929
 21
131.9510884613922
 31
0.0
  0
LINE
  5
1485
  8
1
 10
50.0
 20
30.0
 30
0.0
 11
49.999999999999957
 21
140.00000000000011
 31
0.0
  0
ARC
  5
14CF
  8
0
 10
40.132704598304862
 20
118.6990568974574
 30
0.0
 40
5.4744401076175118
 50
37.083167419832563
 51
75.53669752820764
  0
ARC
  5
14E1
  8
0
 10
50.000000000106581
 20
24.00000000000006
 30
0.0
 40
108.0
 50
78.134937542536775
 51
101.86506245757479
  0
LINE
  5
14E3
  8
0
 10
26.999999999999989
 20
125.0
 30
0.0
 11
26.999999999999989
 21
128.71389592597211
 31
0.0
  0
ARC
  5
14E4
  8
0
 10
27.999999999999989
 20
125.0
 30
0.0
 40
1.0
 50
180.0
 51
270.0
  0
ARC
  5
14E5
  8
0
 10
28.000000000000021
 20
128.71389592597211
 30
0.0
 40
1.0
 50
101.8650624575735
 51
180.0
  0
ARC
  5
14E6
  8
0
 10
72.000000000000085
 20
128.71389592597211
 30
0.0
 40
1.0
 50
0.0
 51
78.134937542426457
  0
ARC
  5
14E7
  8
0
 10
72.000000000000057
 20
125.0
 30
0.0
 40
1.0
 50
270.0
 51
0.0
  0
LINE
  5
14E8
  8
0
 10
73.000000000000057
 20
125.0
 30
0.0
 11
73.000000000000028
 21
128.71389592597211
 31
0.0
  0
ARC
  5
14E9
  8
0
 10
52.791284195732977
 20
130.93106966659681
 30
0.0
 40
1.064631737088876
 50
1.392525263353187
 51
74.324047354315852
  0
LINE
  5
14EA
  8
0
 10
53.855601513710482
 20
124.0
 30
0.0
 11
53.855601513710504
 21
130.95694208956181
 31
0.0
  0
POLYLINE
  5
14EB
  8
0
 10
55.299762584041851
 20
121.9999999999999
 30
0.0
 66
     1
 70
     8
  0
VERTEX
  8
0
  5
2911
 10
55.2998
 20
122.000
 30
0.000000
  70
    32
  0
VERTEX
  8
0
  5
2912
 10
55.3000
 20
122.025
 30
0.000000
  70
    32
  0
VERTEX
  8
0
  5
2913
 10
55.3005
 20
122.049
 30
0.000000
  70
    32
  0
VERTEX
  8
0
  5
2914
 10
55.3015
 20
122.074
 30
0.000000
  70
    32
  0
VERTEX
  8
0
  5
2915
 10
55.3028
 20
122.098
 30
0.000000
  70
    32
  0
VERTEX
  8
0
  5
2916
 10
55.3045
 20
122.123
 30
0.000000
  70
    32
  0
VERTEX
  8
0
  5
2917
 10
55.3066
 20
122.147
 30
0.000000
  70
    32
  0
VERTEX
  8
0
  5
2918
 10
55.3090
 20
122.172
 30
0.000000
  70
    32
  0
VERTEX
  8
0
  5
2919
 10
55.3118
 20
122.196
 30
0.000000
  70
    32
  0
VERTEX
  8
0
  5
291A
 10
55.3150
 20
122.220
 30
0.000000
  70
    32
  0
VERTEX
  8
0
  5
291B
 10
55.3186
 20
122.245
 30
0.000000
  70
    32
  0
VERTEX
  8
0
  5
291C
 10
55.3226
 20
122.269
 30
0.000000
  70
    32
  0
VERTEX
  8
0
  5
291D
 10
55.3269
 20
122.293
 30
0.000000
  70
    32
  0
VERTEX
  8
0
  5
291E
 10
55.3316
 20
122.318
 30
0.000000
  70
    32
  0
VERTEX
  8
0
  5
291F
 10
55.3367
 20
122.342
 30
0.000000
  70
    32
  0
VERTEX
  8
0
  5
2920
 10
55.3421
 20
122.366
 30
0.000000
  70
    32
  0
VERTEX
  8
0
  5
2921
 10
55.3480
 20
122.390
 30
0.000000
  70
    32
  0
VERTEX
  8
0
  5
2922
 10
55.3541
 20
122.414
 30
0.000000
  70
    32
  0
VERTEX
  8
0
  5
2923
 10
55.3607
 20
122.438
 30
0.000000
  70
    32
  0
VERTEX
  8
0
  5
2924
 10
55.3676
 20
122.462
 30
0.000000
  70
    32
  0
VERTEX
  8
0
  5
2925
 10
55.3749
 20
122.486
 30
0.000000
  70
    32
  0
VERTEX
  8
0
  5
2926
 10
55.3826
 20
122.510
 30
0.000000
  70
    32
  0
VERTEX
  8
0
  5
2927
 10
55.3906
 20
122.533
 30
0.000000
  70
    32
  0
VERTEX
  8
0
  5
2928
 10
55.3990
 20
122.557
 30
0.000000
  70
    32
  0
VERTEX
  8
0
  5
2929
 10
55.4078
 20
122.581
 30
0.000000
  70
    32
  0
VERTEX
  8
0
  5
292A
 10
55.4169
 20
122.604
 30
0.000000
  70
    32
  0
VERTEX
  8
0
  5
292B
 10
55.4263
 20
122.627
 30
0.000000
  70
    32
  0
VERTEX
  8
0
  5
292C
 10
55.4362
 20
122.651
 30
0.000000
  70
    32
  0
VERTEX
  8
0
  5
292D
 10
55.4464
 20
122.674
 30
0.000000
  70
    32
  0
VERTEX
  8
0
  5
292E
 10
55.4569
 20
122.697
 30
0.000000
  70
    32
  0
VERTEX
  8
0
  5
292F
 10
55.4678
 20
122.720
 30
0.000000
  70
    32
  0
VERTEX
  8
0
  5
2930
 10
55.4791
 20
122.743
 30
0.000000
  70
    32
  0
VERTEX
  8
0
  5
2931
 10
55.4907
 20
122.765
 30
0.000000
  70
    32
  0
VERTEX
  8
0
  5
2932
 10
55.5026
 20
122.788
 30
0.000000
  70
    32
  0
VERTEX
  8
0
  5
2933
 10
55.5149
 20
122.810
 30
0.000000
  70
    32
  0
VERTEX
  8
0
  5
2934
 10
55.5276
 20
122.833
 30
0.000000
  70
    32
  0
VERTEX
  8
0
  5
2935
 10
55.5406
 20
122.855
 30
0.000000
  70
    32
  0
VERTEX
  8
0
  5
2936
 10
55.5539
 20
122.877
 30
0.000000
  70
    32
  0
VERTEX
  8
0
  5
2937
 10
55.5676
 20
122.899
 30
0.000000
  70
    32
  0
VERTEX
  8
0
  5
2938
 10
55.5816
 20
122.921
 30
0.000000
  70
    32
  0
VERTEX
  8
0
  5
2939
 10
55.5959
 20
122.943
 30
0.000000
  70
    32
  0
VERTEX
  8
0
  5
293A
 10
55.6106
 20
122.964
 30
0.000000
  70
    32
  0
VERTEX
  8
0
  5
293B
 10
55.6256
 20
122.986
 30
0.000000
  70
    32
  0
VERTEX
  8
0
  5
293C
 10
55.6409
 20
123.007
 30
0.000000
  70
    32
  0
VERTEX
  8
0
  5
293D
 10
55.6566
 20
123.028
 30
0.000000
  70
    32
  0
VERTEX
  8
0
  5
293E
 10
55.6726
 20
123.049
 30
0.000000
  70
    32
  0
VERTEX
  8
0
  5
293F
 10
55.6889
 20
123.070
 30
0.000000
  70
    32
  0
VERTEX
  8
0
  5
2940
 10
55.7055
 20
123.091
 30
0.000000
  70
    32
  0
VERTEX
  8
0
  5
2941
 10
55.7224
 20
123.111
 30
0.000000
  70
    32
  0
VERTEX
  8
0
  5
2942
 10
55.7397
 20
123.131
 30
0.000000
  70
    32
  0
VERTEX
  8
0
  5
2943
 10
55.7573
 20
123.152
 30
0.000000
  70
    32
  0
VERTEX
  8
0
  5
2944
 10
55.7751
 20
123.172
 30
0.000000
  70
    32
  0
VERTEX
  8
0
  5
2945
 10
55.7933
 20
123.191
 30
0.000000
  70
    32
  0
VERTEX
  8
0
  5
2946
 10
55.8118
 20
123.211
 30
0.000000
  70
    32
  0
VERTEX
  8
0
  5
2947
 10
55.8306
 20
123.230
 30
0.000000
  70
    32
  0
VERTEX
  8
0
  5
2948
 10
55.8497
 20
123.250
 30
0.000000
  70
    32
  0
VERTEX
  8
0
  5
2949
 10
55.8690
 20
123.269
 30
0.000000
  70
    32
  0
VERTEX
  8
0
  5
294A
 10
55.8887
 20
123.288
 30
0.000000
  70
    32
  0
VERTEX
  8
0
  5
294B
 10
55.9087
 20
123.306
 30
0.000000
  70
    32
  0
VERTEX
  8
0
  5
294C
 10
55.9289
 20
123.325
 30
0.000000
  70
    32
  0
VERTEX
  8
0
  5
294D
 10
55.9495
 20
123.343
 30
0.000000
  70
    32
  0
VERTEX
  8
0
  5
294E
 10
55.9703
 20
123.361
 30
0.000000
  70
    32
  0
VERTEX
  8
0
  5
294F
 10
55.9913
 20
123.379
 30
0.000000
  70
    32
  0
VERTEX
  8
0
  5
2950
 10
56.0127
 20
123.397
 30
0.000000
  70
    32
  0
VERTEX
  8
0
  5
2951
 10
56.0343
 20
123.414
 30
0.000000
  70
    32
  0
VERTEX
  8
0
  5
2952
 10
56.0562
 20
123.431
 30
0.000000
  70
    32
  0
VERTEX
  8
0
  5
2953
 10
56.0784
 20
123.448
 30
0.000000
  70
    32
  0
VERTEX
  8
0
  5
2954
 10
56.1008
 20
123.465
 30
0.000000
  70
    32
  0
VERTEX
  8
0
  5
2955
 10
56.1235
 20
123.482
 30
0.000000
  70
    32
  0
VERTEX
  8
0
  5
2956
 10
56.1464
 20
123.498
 30
0.000000
  70
    32
  0
VERTEX
  8
0
  5
2957
 10
56.1696
 20
123.514
 30
0.000000
  70
    32
  0
VERTEX
  8
0
  5
2958
 10
56.1930
 20
123.530
 30
0.000000
  70
    32
  0
VERTEX
  8
0
  5
2959
 10
56.2167
 20
123.546
 30
0.000000
  70
    32
  0
VERTEX
  8
0
  5
295A
 10
56.2406
 20
123.561
 30
0.000000
  70
    32
  0
VERTEX
  8
0
  5
295B
 10
56.2648
 20
123.577
 30
0.000000
  70
    32
  0
VERTEX
  8
0
  5
295C
 10
56.2891
 20
123.592
 30
0.000000
  70
    32
  0
VERTEX
  8
0
  5
295D
 10
56.3137
 20
123.606
 30
0.000000
  70
    32
  0
VERTEX
  8
0
  5
295E
 10
56.3386
 20
123.621
 30
0.000000
  70
    32
  0
VERTEX
  8
0
  5
295F
 10
56.3636
 20
123.635
 30
0.000000
  70
    32
  0
VERTEX
  8
0
  5
2960
 10
56.3889
 20
123.649
 30
0.000000
  70
    32
  0
VERTEX
  8
0
  5
2961
 10
56.4144
 20
123.663
 30
0.000000
  70
    32
  0
VERTEX
  8
0
  5
2962
 10
56.4401
 20
123.676
 30
0.000000
  70
    32
  0
VERTEX
  8
0
  5
2963
 10
56.4660
 20
123.690
 30
0.000000
  70
    32
  0
VERTEX
  8
0
  5
2964
 10
56.4921
 20
123.703
 30
0.000000
  70
    32
  0
VERTEX
  8
0
  5
2965
 10
56.5184
 20
123.715
 30
0.000000
  70
    32
  0
VERTEX
  8
0
  5
2966
 10
56.5449
 20
123.728
 30
0.000000
  70
    32
  0
VERTEX
  8
0
  5
2967
 10
56.5716
 20
123.740
 30
0.000000
  70
    32
  0
VERTEX
  8
0
  5
2968
 10
56.5984
 20
123.752
 30
0.000000
  70
    32
  0
VERTEX
  8
0
  5
2969
 10
56.6255
 20
123.764
 30
0.000000
  70
    32
  0
VERTEX
  8
0
  5
296A
 10
56.6527
 20
123.775
 30
0.000000
  70
    32
  0
VERTEX
  8
0
  5
296B
 10
56.6801
 20
123.786
 30
0.000000
  70
    32
  0
VERTEX
  8
0
  5
296C
 10
56.7077
 20
123.797
 30
0.000000
  70
    32
  0
VERTEX
  8
0
  5
296D
 10
56.7354
 20
123.808
 30
0.000000
  70
    32
  0
VERTEX
  8
0
  5
296E
 10
56.7633
 20
123.818
 30
0.000000
  70
    32
  0
VERTEX
  8
0
  5
296F
 10
56.7914
 20
123.828
 30
0.000000
  70
    32
  0
VERTEX
  8
0
  5
2970
 10
56.8196
 20
123.838
 30
0.000000
  70
    32
  0
VERTEX
  8
0
  5
2971
 10
56.8480
 20
123.848
 30
0.000000
  70
    32
  0
VERTEX
  8
0
  5
2972
 10
56.8765
 20
123.857
 30
0.000000
  70
    32
  0
VERTEX
  8
0
  5
2973
 10
56.9051
 20
123.866
 30
0.000000
  70
    32
  0
VERTEX
  8
0
  5
2974
 10
56.9339
 20
123.875
 30
0.000000
  70
    32
  0
VERTEX
  8
0
  5
2975
 10
56.9628
 20
123.883
 30
0.000000
  70
    32
  0
VERTEX
  8
0
  5
2976
 10
56.9919
 20
123.891
 30
0.000000
  70
    32
  0
VERTEX
  8
0
  5
2977
 10
57.0210
 20
123.899
 30
0.000000
  70
    32
  0
VERTEX
  8
0
  5
2978
 10
57.0503
 20
123.907
 30
0.000000
  70
    32
  0
VERTEX
  8
0
  5
2979
 10
57.0797
 20
123.914
 30
0.000000
  70
    32
  0
VERTEX
  8
0
  5
297A
 10
57.1092
 20
123.921
 30
0.000000
  70
    32
  0
VERTEX
  8
0
  5
297B
 10
57.1388
 20
123.928
 30
0.000000
  70
    32
  0
VERTEX
  8
0
  5
297C
 10
57.1685
 20
123.934
 30
0.000000
  70
    32
  0
VERTEX
  8
0
  5
297D
 10
57.1984
 20
123.940
 30
0.000000
  70
    32
  0
VERTEX
  8
0
  5
297E
 10
57.2283
 20
123.946
 30
0.000000
  70
    32
  0
VERTEX
  8
0
  5
297F
 10
57.2582
 20
123.951
 30
0.000000
  70
    32
  0
VERTEX
  8
0
  5
2980
 10
57.2883
 20
123.957
 30
0.000000
  70
    32
  0
VERTEX
  8
0
  5
2981
 10
57.3185
 20
123.962
 30
0.000000
  70
    32
  0
VERTEX
  8
0
  5
2982
 10
57.3487
 20
123.966
 30
0.000000
  70
    32
  0
VERTEX
  8
0
  5
2983
 10
57.3790
 20
123.971
 30
0.000000
  70
    32
  0
VERTEX
  8
0
  5
2984
 10
57.4093
 20
123.975
 30
0.000000
  70
    32
  0
VERTEX
  8
0
  5
2985
 10
57.4398
 20
123.978
 30
0.000000
  70
    32
  0
VERTEX
  8
0
  5
2986
 10
57.4702
 20
123.982
 30
0.000000
  70
    32
  0
VERTEX
  8
0
  5
2987
 10
57.5007
 20
123.985
 30
0.000000
  70
    32
  0
VERTEX
  8
0
  5
2988
 10
57.5313
 20
123.988
 30
0.000000
  70
    32
  0
VERTEX
  8
0
  5
2989
 10
57.5619
 20
123.990
 30
0.000000
  70
    32
  0
VERTEX
  8
0
  5
298A
 10
57.5926
 20
123.993
 30
0.000000
  70
    32
  0
VERTEX
  8
0
  5
298B
 10
57.6233
 20
123.995
 30
0.000000
  70
    32
  0
VERTEX
  8
0
  5
298C
 10
57.6540
 20
123.996
 30
0.000000
  70
    32
  0
VERTEX
  8
0
  5
298D
 10
57.6847
 20
123.998
 30
0.000000
  70
    32
  0
VERTEX
  8
0
  5
298E
 10
57.7154
 20
123.999
 30
0.000000
  70
    32
  0
VERTEX
  8
0
  5
298F
 10
57.7462
 20
123.999
 30
0.000000
  70
    32
  0
VERTEX
  8
0
  5
2990
 10
57.7770
 20
124.000
 30
0.000000
  70
    32
  0
VERTEX
  8
0
  5
2991
 10
57.8077
 20
124.000
 30
0.000000
  70
    32
  0
SEQEND
  8
0
  5
2992
  0
ARC
  5
14EC
  8
0
 10
59.867295401695301
 20
118.699056897457
 30
0.0
 40
5.4744401076179008
 50
104.4633024717928
 51
142.91683258016559
  0
LINE
  5
14ED
  8
0
 10
72.000000000000057
 20
124.0
 30
0.0
 11
53.855601513710468
 21
124.0000000000002
 31
0.0
  0
LINE
  5
14EE
  8
0
 10
55.299762584041829
 20
122.0
 30
0.0
 11
55.499999999999972
 21
122.0
 31
0.0
  0
LINE
  5
14F9
  8
0
 10
53.249999999999929
 20
134.5
 30
0.0
 11
46.749999999999929
 21
134.5
 31
0.0
  0
ARC
  5
14FB
  8
0
 10
47.249999999999929
 20
134.5
 30
0.0
 40
0.5
 50
90.0
 51
180.0000000000006
  0
ARC
  5
14FF
  8
0
 10
52.749999999999943
 20
134.5
 30
0.0
 40
0.5
 50
359.99999999999932
 51
90.0
  0
LINE
  5
1500
  8
0
 10
53.249999999999929
 20
134.5
 30
0.0
 11
53.249999999999929
 21
131.9510884613922
 31
0.0
  0
LINE
  5
151D
  8
0
 10
105.96499154918961
 20
124.0
 30
0.0
 11
111.0350084508102
 21
124.0
 31
0.0
  0
LINE
  5
153B
  8
0
 10
105.96499154918961
 20
129.69253046737961
 30
0.0
 11
111.0350084508102
 21
129.6925304673795
 31
0.0
  0
LINE
  5
1546
  8
0
 10
112.1555749250759
 20
121.99999999999849
 30
0.0
 11
104.8444250749239
 21
121.99999999999849
 31
0.0
  0
LINE
  5
1678
  8
1
 10
108.5
 20
30.000000000000028
 30
0.0
 11
108.4999999999999
 21
140.0
 31
0.0
  0
LINE
  5
167D
  8
0
 10
103.0
 20
104.6509999999999
 30
0.0
 11
114.0
 21
104.6509999999999
 31
0.0
  0
LINE
  5
167E
  8
0
 10
102.9999999999999
 20
103.0
 30
0.0
 11
113.9999999999999
 21
103.0
 31
0.0
  0
LINE
  5
1685
  8
0
 10
111.7499999999999
 20
134.5
 30
0.0
 11
111.7499999999998
 21
132.0
 31
0.0
  0
ARC
  5
1686
  8
0
 10
111.2499999999999
 20
134.5
 30
0.0
 40
0.5
 50
359.99999999999932
 51
90.0
  0
LINE
  5
1687
  8
0
 10
111.7499999999999
 20
134.5
 30
0.0
 11
105.2499999999999
 21
134.5
 31
0.0
  0
LINE
  5
1688
  8
0
 10
111.2499999999999
 20
135.0
 30
0.0
 11
105.7499999999998
 21
135.00000000000011
 31
0.0
  0
ARC
  5
1689
  8
0
 10
105.7499999999998
 20
134.5
 30
0.0
 40
0.5
 50
90.0
 51
180.0000000000006
  0
LINE
  5
168A
  8
0
 10
105.2499999999999
 20
134.5
 30
0.0
 11
105.2499999999999
 21
132.0
 31
0.0
  0
LINE
  5
168D
  8
1
 10
21.999999999999972
 20
170.49999999995271
 30
0.0
 11
77.999999999999972
 21
170.49999999995271
 31
0.0
  0
LINE
  5
168E
  8
1
 10
49.999999999999957
 20
160.00000000000011
 30
0.0
 11
49.999999999999957
 21
180.99999998805021
 31
0.0
  0
LINE
  5
1694
  8
0
 10
26.999999999999972
 20
167.96410486807349
 30
0.0
 11
26.999999999999972
 21
173.03589513183189
 31
0.0
  0
ARC
  5
1695
  8
0
 10
27.999999999999972
 20
173.03589513183189
 30
0.0
 40
1.0
 50
92.412978451483923
 51
180.0
  0
ARC
  5
169C
  8
0
 10
27.999999999999972
 20
167.96410486807349
 30
0.0
 40
1.0
 50
180.0
 51
267.58702154851602
  0
LINE
  5
169D
  8
0
 10
27.957898029330462
 20
166.9649915491423
 30
0.0
 11
46.143626673920743
 21
166.19865704084319
 31
0.0
  0
LINE
  5
16A8
  8
0
 10
72.042101970669478
 20
166.9649915491423
 30
0.0
 11
53.855601513710504
 21
166.1986245171833
 31
0.0
  0
ARC
  5
16A9
  8
0
 10
71.999999999999972
 20
167.96410486807349
 30
0.0
 40
1.0
 50
272.41297845148398
 51
0.0
  0
LINE
  5
16AA
  8
0
 10
72.999999999999972
 20
167.96410486807349
 30
0.0
 11
72.999999999999972
 21
173.03589513183189
 31
0.0
  0
ARC
  5
16AB
  8
0
 10
71.999999999999972
 20
173.03589513183189
 30
0.0
 40
1.0
 50
0.0
 51
87.587021548516034
  0
LINE
  5
16AC
  8
0
 10
72.042101970669478
 20
174.03500845076309
 30
0.0
 11
53.85560151371056
 21
174.80137548272199
 31
0.0
  0
CIRCLE
  5
16B5
  8
0
 10
49.999999999999957
 20
170.49999999995271
 30
0.0
 40
2.7499999999999711
  0
CIRCLE
  5
16B6
  8
0
 10
49.999999999999957
 20
170.49999999995271
 30
0.0
 40
3.2499999999999711
  0
CIRCLE
  5
16B8
  8
0
 10
68.761085088233727
 20
170.5000773436696
 30
0.0
 40
1.6000000000000001
  0
CIRCLE
  5
16B9
  8
0
 10
68.761085088233727
 20
170.5000773436696
 30
0.0
 40
1.75
  0
LINE
  5
16D4
  8
0
 10
103.9999999999999
 20
132.0
 30
0.0
 11
113.0
 21
132.0
 31
0.0
  0
ARC
  5
16D6
  8
0
 10
103.9999999999999
 20
131.0
 30
0.0
 40
1.0
 50
90.0
 51
180.0
  0
ARC
  5
16D7
  8
0
 10
113.0
 20
131.0
 30
0.0
 40
1.0
 50
0.0
 51
90.0
  0
LINE
  5
1924
  8
0
 10
111.9270113598387
 20
132.0
 30
0.0
 11
105.0729886401612
 21
132.0
 31
0.0
  0
LINE
  5
1925
  8
0
 10
112.0350084508103
 20
128.6925304673795
 30
0.0
 11
112.0350084508103
 21
125.0
 31
0.0
  0
ARC
  5
1926
  8
0
 10
111.0350084508102
 20
128.6925304673795
 30
0.0
 40
1.0
 50
0.0
 51
89.999999999999474
  0
LINE
  5
1927
  8
0
 10
113.1555749250758
 20
130.5
 30
0.0
 11
113.1555749250758
 21
123.49999999999849
 31
0.0
  0
POLYLINE
  5
192B
  8
0
 10
113.1555749250759
 20
130.5
 30
0.0
 66
     1
 70
     8
  0
VERTEX
  8
0
  5
2993
 10
113.156
 20
130.500
 30
0.000000
  70
    32
  0
VERTEX
  8
0
  5
2994
 10
113.155
 20
130.518
 30
0.000000
  70
    32
  0
VERTEX
  8
0
  5
2995
 10
113.155
 20
130.537
 30
0.000000
  70
    32
  0
VERTEX
  8
0
  5
2996
 10
113.155
 20
130.555
 30
0.000000
  70
    32
  0
VERTEX
  8
0
  5
2997
 10
113.154
 20
130.574
 30
0.000000
  70
    32
  0
VERTEX
  8
0
  5
2998
 10
113.154
 20
130.592
 30
0.000000
  70
    32
  0
VERTEX
  8
0
  5
2999
 10
113.153
 20
130.610
 30
0.000000
  70
    32
  0
VERTEX
  8
0
  5
299A
 10
113.152
 20
130.629
 30
0.000000
  70
    32
  0
VERTEX
  8
0
  5
299B
 10
113.151
 20
130.647
 30
0.000000
  70
    32
  0
VERTEX
  8
0
  5
299C
 10
113.149
 20
130.665
 30
0.000000
  70
    32
  0
VERTEX
  8
0
  5
299D
 10
113.148
 20
130.684
 30
0.000000
  70
    32
  0
VERTEX
  8
0
  5
299E
 10
113.146
 20
130.702
 30
0.000000
  70
    32
  0
VERTEX
  8
0
  5
299F
 10
113.145
 20
130.720
 30
0.000000
  70
    32
  0
VERTEX
  8
0
  5
29A0
 10
113.143
 20
130.738
 30
0.000000
  70
    32
  0
VERTEX
  8
0
  5
29A1
 10
113.141
 20
130.756
 30
0.000000
  70
    32
  0
VERTEX
  8
0
  5
29A2
 10
113.139
 20
130.775
 30
0.000000
  70
    32
  0
VERTEX
  8
0
  5
29A3
 10
113.136
 20
130.793
 30
0.000000
  70
    32
  0
VERTEX
  8
0
  5
29A4
 10
113.134
 20
130.811
 30
0.000000
  70
    32
  0
VERTEX
  8
0
  5
29A5
 10
113.131
 20
130.829
 30
0.000000
  70
    32
  0
VERTEX
  8
0
  5
29A6
 10
113.129
 20
130.847
 30
0.000000
  70
    32
  0
VERTEX
  8
0
  5
29A7
 10
113.126
 20
130.864
 30
0.000000
  70
    32
  0
VERTEX
  8
0
  5
29A8
 10
113.123
 20
130.882
 30
0.000000
  70
    32
  0
VERTEX
  8
0
  5
29A9
 10
113.119
 20
130.900
 30
0.000000
  70
    32
  0
VERTEX
  8
0
  5
29AA
 10
113.116
 20
130.918
 30
0.000000
  70
    32
  0
VERTEX
  8
0
  5
29AB
 10
113.113
 20
130.935
 30
0.000000
  70
    32
  0
VERTEX
  8
0
  5
29AC
 10
113.109
 20
130.953
 30
0.000000
  70
    32
  0
VERTEX
  8
0
  5
29AD
 10
113.105
 20
130.971
 30
0.000000
  70
    32
  0
VERTEX
  8
0
  5
29AE
 10
113.101
 20
130.988
 30
0.000000
  70
    32
  0
VERTEX
  8
0
  5
29AF
 10
113.097
 20
131.005
 30
0.000000
  70
    32
  0
VERTEX
  8
0
  5
29B0
 10
113.093
 20
131.023
 30
0.000000
  70
    32
  0
VERTEX
  8
0
  5
29B1
 10
113.089
 20
131.040
 30
0.000000
  70
    32
  0
VERTEX
  8
0
  5
29B2
 10
113.084
 20
131.057
 30
0.000000
  70
    32
  0
VERTEX
  8
0
  5
29B3
 10
113.079
 20
131.074
 30
0.000000
  70
    32
  0
VERTEX
  8
0
  5
29B4
 10
113.075
 20
131.091
 30
0.000000
  70
    32
  0
VERTEX
  8
0
  5
29B5
 10
113.070
 20
131.108
 30
0.000000
  70
    32
  0
VERTEX
  8
0
  5
29B6
 10
113.065
 20
131.125
 30
0.000000
  70
    32
  0
VERTEX
  8
0
  5
29B7
 10
113.060
 20
131.141
 30
0.000000
  70
    32
  0
VERTEX
  8
0
  5
29B8
 10
113.054
 20
131.158
 30
0.000000
  70
    32
  0
VERTEX
  8
0
  5
29B9
 10
113.049
 20
131.174
 30
0.000000
  70
    32
  0
VERTEX
  8
0
  5
29BA
 10
113.043
 20
131.191
 30
0.000000
  70
    32
  0
VERTEX
  8
0
  5
29BB
 10
113.037
 20
131.207
 30
0.000000
  70
    32
  0
VERTEX
  8
0
  5
29BC
 10
113.032
 20
131.223
 30
0.000000
  70
    32
  0
VERTEX
  8
0
  5
29BD
 10
113.026
 20
131.239
 30
0.000000
  70
    32
  0
VERTEX
  8
0
  5
29BE
 10
113.020
 20
131.255
 30
0.000000
  70
    32
  0
VERTEX
  8
0
  5
29BF
 10
113.013
 20
131.271
 30
0.000000
  70
    32
  0
VERTEX
  8
0
  5
29C0
 10
113.007
 20
131.287
 30
0.000000
  70
    32
  0
VERTEX
  8
0
  5
29C1
 10
113.000
 20
131.302
 30
0.000000
  70
    32
  0
VERTEX
  8
0
  5
29C2
 10
112.994
 20
131.318
 30
0.000000
  70
    32
  0
VERTEX
  8
0
  5
29C3
 10
112.987
 20
131.333
 30
0.000000
  70
    32
  0
VERTEX
  8
0
  5
29C4
 10
112.980
 20
131.349
 30
0.000000
  70
    32
  0
VERTEX
  8
0
  5
29C5
 10
112.973
 20
131.364
 30
0.000000
  70
    32
  0
VERTEX
  8
0
  5
29C6
 10
112.966
 20
131.379
 30
0.000000
  70
    32
  0
VERTEX
  8
0
  5
29C7
 10
112.959
 20
131.394
 30
0.000000
  70
    32
  0
VERTEX
  8
0
  5
29C8
 10
112.951
 20
131.408
 30
0.000000
  70
    32
  0
VERTEX
  8
0
  5
29C9
 10
112.944
 20
131.423
 30
0.000000
  70
    32
  0
VERTEX
  8
0
  5
29CA
 10
112.936
 20
131.437
 30
0.000000
  70
    32
  0
VERTEX
  8
0
  5
29CB
 10
112.929
 20
131.452
 30
0.000000
  70
    32
  0
VERTEX
  8
0
  5
29CC
 10
112.921
 20
131.466
 30
0.000000
  70
    32
  0
VERTEX
  8
0
  5
29CD
 10
112.913
 20
131.480
 30
0.000000
  70
    32
  0
VERTEX
  8
0
  5
29CE
 10
112.905
 20
131.494
 30
0.000000
  70
    32
  0
VERTEX
  8
0
  5
29CF
 10
112.897
 20
131.507
 30
0.000000
  70
    32
  0
VERTEX
  8
0
  5
29D0
 10
112.888
 20
131.521
 30
0.000000
  70
    32
  0
VERTEX
  8
0
  5
29D1
 10
112.880
 20
131.534
 30
0.000000
  70
    32
  0
VERTEX
  8
0
  5
29D2
 10
112.871
 20
131.548
 30
0.000000
  70
    32
  0
VERTEX
  8
0
  5
29D3
 10
112.863
 20
131.561
 30
0.000000
  70
    32
  0
VERTEX
  8
0
  5
29D4
 10
112.854
 20
131.574
 30
0.000000
  70
    32
  0
VERTEX
  8
0
  5
29D5
 10
112.845
 20
131.586
 30
0.000000
  70
    32
  0
VERTEX
  8
0
  5
29D6
 10
112.836
 20
131.599
 30
0.000000
  70
    32
  0
VERTEX
  8
0
  5
29D7
 10
112.827
 20
131.611
 30
0.000000
  70
    32
  0
VERTEX
  8
0
  5
29D8
 10
112.818
 20
131.624
 30
0.000000
  70
    32
  0
VERTEX
  8
0
  5
29D9
 10
112.809
 20
131.636
 30
0.000000
  70
    32
  0
VERTEX
  8
0
  5
29DA
 10
112.799
 20
131.648
 30
0.000000
  70
    32
  0
VERTEX
  8
0
  5
29DB
 10
112.790
 20
131.660
 30
0.000000
  70
    32
  0
VERTEX
  8
0
  5
29DC
 10
112.780
 20
131.671
 30
0.000000
  70
    32
  0
VERTEX
  8
0
  5
29DD
 10
112.771
 20
131.683
 30
0.000000
  70
    32
  0
VERTEX
  8
0
  5
29DE
 10
112.761
 20
131.694
 30
0.000000
  70
    32
  0
VERTEX
  8
0
  5
29DF
 10
112.751
 20
131.705
 30
0.000000
  70
    32
  0
VERTEX
  8
0
  5
29E0
 10
112.741
 20
131.716
 30
0.000000
  70
    32
  0
VERTEX
  8
0
  5
29E1
 10
112.731
 20
131.726
 30
0.000000
  70
    32
  0
VERTEX
  8
0
  5
29E2
 10
112.721
 20
131.737
 30
0.000000
  70
    32
  0
VERTEX
  8
0
  5
29E3
 10
112.711
 20
131.747
 30
0.000000
  70
    32
  0
VERTEX
  8
0
  5
29E4
 10
112.701
 20
131.757
 30
0.000000
  70
    32
  0
VERTEX
  8
0
  5
29E5
 10
112.691
 20
131.767
 30
0.000000
  70
    32
  0
VERTEX
  8
0
  5
29E6
 10
112.680
 20
131.777
 30
0.000000
  70
    32
  0
VERTEX
  8
0
  5
29E7
 10
112.670
 20
131.787
 30
0.000000
  70
    32
  0
VERTEX
  8
0
  5
29E8
 10
112.659
 20
131.796
 30
0.000000
  70
    32
  0
VERTEX
  8
0
  5
29E9
 10
112.648
 20
131.805
 30
0.000000
  70
    32
  0
VERTEX
  8
0
  5
29EA
 10
112.638
 20
131.814
 30
0.000000
  70
    32
  0
VERTEX
  8
0
  5
29EB
 10
112.627
 20
131.823
 30
0.000000
  70
    32
  0
VERTEX
  8
0
  5
29EC
 10
112.616
 20
131.831
 30
0.000000
  70
    32
  0
VERTEX
  8
0
  5
29ED
 10
112.605
 20
131.840
 30
0.000000
  70
    32
  0
VERTEX
  8
0
  5
29EE
 10
112.594
 20
131.848
 30
0.000000
  70
    32
  0
VERTEX
  8
0
  5
29EF
 10
112.583
 20
131.856
 30
0.000000
  70
    32
  0
VERTEX
  8
0
  5
29F0
 10
112.572
 20
131.864
 30
0.000000
  70
    32
  0
VERTEX
  8
0
  5
29F1
 10
112.561
 20
131.871
 30
0.000000
  70
    32
  0
VERTEX
  8
0
  5
29F2
 10
112.550
 20
131.879
 30
0.000000
  70
    32
  0
VERTEX
  8
0
  5
29F3
 10
112.538
 20
131.886
 30
0.000000
  70
    32
  0
VERTEX
  8
0
  5
29F4
 10
112.527
 20
131.893
 30
0.000000
  70
    32
  0
VERTEX
  8
0
  5
29F5
 10
112.515
 20
131.899
 30
0.000000
  70
    32
  0
VERTEX
  8
0
  5
29F6
 10
112.504
 20
131.906
 30
0.000000
  70
    32
  0
VERTEX
  8
0
  5
29F7
 10
112.492
 20
131.912
 30
0.000000
  70
    32
  0
VERTEX
  8
0
  5
29F8
 10
112.481
 20
131.918
 30
0.000000
  70
    32
  0
VERTEX
  8
0
  5
29F9
 10
112.469
 20
131.924
 30
0.000000
  70
    32
  0
VERTEX
  8
0
  5
29FA
 10
112.458
 20
131.930
 30
0.000000
  70
    32
  0
VERTEX
  8
0
  5
29FB
 10
112.446
 20
131.935
 30
0.000000
  70
    32
  0
VERTEX
  8
0
  5
29FC
 10
112.434
 20
131.941
 30
0.000000
  70
    32
  0
VERTEX
  8
0
  5
29FD
 10
112.422
 20
131.946
 30
0.000000
  70
    32
  0
VERTEX
  8
0
  5
29FE
 10
112.410
 20
131.950
 30
0.000000
  70
    32
  0
VERTEX
  8
0
  5
29FF
 10
112.399
 20
131.955
 30
0.000000
  70
    32
  0
VERTEX
  8
0
  5
2A00
 10
112.387
 20
131.959
 30
0.000000
  70
    32
  0
VERTEX
  8
0
  5
2A01
 10
112.375
 20
131.964
 30
0.000000
  70
    32
  0
VERTEX
  8
0
  5
2A02
 10
112.363
 20
131.967
 30
0.000000
  70
    32
  0
VERTEX
  8
0
  5
2A03
 10
112.351
 20
131.971
 30
0.000000
  70
    32
  0
VERTEX
  8
0
  5
2A04
 10
112.339
 20
131.975
 30
0.000000
  70
    32
  0
VERTEX
  8
0
  5
2A05
 10
112.327
 20
131.978
 30
0.000000
  70
    32
  0
VERTEX
  8
0
  5
2A06
 10
112.314
 20
131.981
 30
0.000000
  70
    32
  0
VERTEX
  8
0
  5
2A07
 10
112.302
 20
131.984
 30
0.000000
  70
    32
  0
VERTEX
  8
0
  5
2A08
 10
112.290
 20
131.986
 30
0.000000
  70
    32
  0
VERTEX
  8
0
  5
2A09
 10
112.278
 20
131.989
 30
0.000000
  70
    32
  0
VERTEX
  8
0
  5
2A0A
 10
112.266
 20
131.991
 30
0.000000
  70
    32
  0
VERTEX
  8
0
  5
2A0B
 10
112.254
 20
131.993
 30
0.000000
  70
    32
  0
VERTEX
  8
0
  5
2A0C
 10
112.241
 20
131.994
 30
0.000000
  70
    32
  0
VERTEX
  8
0
  5
2A0D
 10
112.229
 20
131.996
 30
0.000000
  70
    32
  0
VERTEX
  8
0
  5
2A0E
 10
112.217
 20
131.997
 30
0.000000
  70
    32
  0
VERTEX
  8
0
  5
2A0F
 10
112.205
 20
131.998
 30
0.000000
  70
    32
  0
VERTEX
  8
0
  5
2A10
 10
112.192
 20
131.999
 30
0.000000
  70
    32
  0
VERTEX
  8
0
  5
2A11
 10
112.180
 20
132.000
 30
0.000000
  70
    32
  0
VERTEX
  8
0
  5
2A12
 10
112.168
 20
132.000
 30
0.000000
  70
    32
  0
VERTEX
  8
0
  5
2A13
 10
112.156
 20
132.000
 30
0.000000
  70
    32
  0
SEQEND
  8
0
  5
2A14
  0
POLYLINE
  5
192D
  8
0
 10
113.1555749250759
 20
123.49999999999851
 30
0.0
 66
     1
 70
     8
  0
VERTEX
  8
0
  5
2A15
 10
113.156
 20
123.500
 30
0.000000
  70
    32
  0
VERTEX
  8
0
  5
2A16
 10
113.155
 20
123.482
 30
0.000000
  70
    32
  0
VERTEX
  8
0
  5
2A17
 10
113.155
 20
123.463
 30
0.000000
  70
    32
  0
VERTEX
  8
0
  5
2A18
 10
113.155
 20
123.445
 30
0.000000
  70
    32
  0
VERTEX
  8
0
  5
2A19
 10
113.154
 20
123.426
 30
0.000000
  70
    32
  0
VERTEX
  8
0
  5
2A1A
 10
113.154
 20
123.408
 30
0.000000
  70
    32
  0
VERTEX
  8
0
  5
2A1B
 10
113.153
 20
123.390
 30
0.000000
  70
    32
  0
VERTEX
  8
0
  5
2A1C
 10
113.152
 20
123.371
 30
0.000000
  70
    32
  0
VERTEX
  8
0
  5
2A1D
 10
113.151
 20
123.353
 30
0.000000
  70
    32
  0
VERTEX
  8
0
  5
2A1E
 10
113.149
 20
123.335
 30
0.000000
  70
    32
  0
VERTEX
  8
0
  5
2A1F
 10
113.148
 20
123.316
 30
0.000000
  70
    32
  0
VERTEX
  8
0
  5
2A20
 10
113.146
 20
123.298
 30
0.000000
  70
    32
  0
VERTEX
  8
0
  5
2A21
 10
113.145
 20
123.280
 30
0.000000
  70
    32
  0
VERTEX
  8
0
  5
2A22
 10
113.143
 20
123.262
 30
0.000000
  70
    32
  0
VERTEX
  8
0
  5
2A23
 10
113.141
 20
123.244
 30
0.000000
  70
    32
  0
VERTEX
  8
0
  5
2A24
 10
113.139
 20
123.225
 30
0.000000
  70
    32
  0
VERTEX
  8
0
  5
2A25
 10
113.136
 20
123.207
 30
0.000000
  70
    32
  0
VERTEX
  8
0
  5
2A26
 10
113.134
 20
123.189
 30
0.000000
  70
    32
  0
VERTEX
  8
0
  5
2A27
 10
113.131
 20
123.171
 30
0.000000
  70
    32
  0
VERTEX
  8
0
  5
2A28
 10
113.129
 20
123.153
 30
0.000000
  70
    32
  0
VERTEX
  8
0
  5
2A29
 10
113.126
 20
123.136
 30
0.000000
  70
    32
  0
VERTEX
  8
0
  5
2A2A
 10
113.123
 20
123.118
 30
0.000000
  70
    32
  0
VERTEX
  8
0
  5
2A2B
 10
113.119
 20
123.100
 30
0.000000
  70
    32
  0
VERTEX
  8
0
  5
2A2C
 10
113.116
 20
123.082
 30
0.000000
  70
    32
  0
VERTEX
  8
0
  5
2A2D
 10
113.113
 20
123.065
 30
0.000000
  70
    32
  0
VERTEX
  8
0
  5
2A2E
 10
113.109
 20
123.047
 30
0.000000
  70
    32
  0
VERTEX
  8
0
  5
2A2F
 10
113.105
 20
123.029
 30
0.000000
  70
    32
  0
VERTEX
  8
0
  5
2A30
 10
113.101
 20
123.012
 30
0.000000
  70
    32
  0
VERTEX
  8
0
  5
2A31
 10
113.097
 20
122.995
 30
0.000000
  70
    32
  0
VERTEX
  8
0
  5
2A32
 10
113.093
 20
122.977
 30
0.000000
  70
    32
  0
VERTEX
  8
0
  5
2A33
 10
113.089
 20
122.960
 30
0.000000
  70
    32
  0
VERTEX
  8
0
  5
2A34
 10
113.084
 20
122.943
 30
0.000000
  70
    32
  0
VERTEX
  8
0
  5
2A35
 10
113.079
 20
122.926
 30
0.000000
  70
    32
  0
VERTEX
  8
0
  5
2A36
 10
113.075
 20
122.909
 30
0.000000
  70
    32
  0
VERTEX
  8
0
  5
2A37
 10
113.070
 20
122.892
 30
0.000000
  70
    32
  0
VERTEX
  8
0
  5
2A38
 10
113.065
 20
122.875
 30
0.000000
  70
    32
  0
VERTEX
  8
0
  5
2A39
 10
113.060
 20
122.859
 30
0.000000
  70
    32
  0
VERTEX
  8
0
  5
2A3A
 10
113.054
 20
122.842
 30
0.000000
  70
    32
  0
VERTEX
  8
0
  5
2A3B
 10
113.049
 20
122.826
 30
0.000000
  70
    32
  0
VERTEX
  8
0
  5
2A3C
 10
113.043
 20
122.809
 30
0.000000
  70
    32
  0
VERTEX
  8
0
  5
2A3D
 10
113.037
 20
122.793
 30
0.000000
  70
    32
  0
VERTEX
  8
0
  5
2A3E
 10
113.032
 20
122.777
 30
0.000000
  70
    32
  0
VERTEX
  8
0
  5
2A3F
 10
113.026
 20
122.761
 30
0.000000
  70
    32
  0
VERTEX
  8
0
  5
2A40
 10
113.020
 20
122.745
 30
0.000000
  70
    32
  0
VERTEX
  8
0
  5
2A41
 10
113.013
 20
122.729
 30
0.000000
  70
    32
  0
VERTEX
  8
0
  5
2A42
 10
113.007
 20
122.713
 30
0.000000
  70
    32
  0
VERTEX
  8
0
  5
2A43
 10
113.000
 20
122.698
 30
0.000000
  70
    32
  0
VERTEX
  8
0
  5
2A44
 10
112.994
 20
122.682
 30
0.000000
  70
    32
  0
VERTEX
  8
0
  5
2A45
 10
112.987
 20
122.667
 30
0.000000
  70
    32
  0
VERTEX
  8
0
  5
2A46
 10
112.980
 20
122.651
 30
0.000000
  70
    32
  0
VERTEX
  8
0
  5
2A47
 10
112.973
 20
122.636
 30
0.000000
  70
    32
  0
VERTEX
  8
0
  5
2A48
 10
112.966
 20
122.621
 30
0.000000
  70
    32
  0
VERTEX
  8
0
  5
2A49
 10
112.959
 20
122.606
 30
0.000000
  70
    32
  0
VERTEX
  8
0
  5
2A4A
 10
112.951
 20
122.592
 30
0.000000
  70
    32
  0
VERTEX
  8
0
  5
2A4B
 10
112.944
 20
122.577
 30
0.000000
  70
    32
  0
VERTEX
  8
0
  5
2A4C
 10
112.936
 20
122.563
 30
0.000000
  70
    32
  0
VERTEX
  8
0
  5
2A4D
 10
112.929
 20
122.548
 30
0.000000
  70
    32
  0
VERTEX
  8
0
  5
2A4E
 10
112.921
 20
122.534
 30
0.000000
  70
    32
  0
VERTEX
  8
0
  5
2A4F
 10
112.913
 20
122.520
 30
0.000000
  70
    32
  0
VERTEX
  8
0
  5
2A50
 10
112.905
 20
122.506
 30
0.000000
  70
    32
  0
VERTEX
  8
0
  5
2A51
 10
112.897
 20
122.493
 30
0.000000
  70
    32
  0
VERTEX
  8
0
  5
2A52
 10
112.888
 20
122.479
 30
0.000000
  70
    32
  0
VERTEX
  8
0
  5
2A53
 10
112.880
 20
122.466
 30
0.000000
  70
    32
  0
VERTEX
  8
0
  5
2A54
 10
112.871
 20
122.452
 30
0.000000
  70
    32
  0
VERTEX
  8
0
  5
2A55
 10
112.863
 20
122.439
 30
0.000000
  70
    32
  0
VERTEX
  8
0
  5
2A56
 10
112.854
 20
122.426
 30
0.000000
  70
    32
  0
VERTEX
  8
0
  5
2A57
 10
112.845
 20
122.414
 30
0.000000
  70
    32
  0
VERTEX
  8
0
  5
2A58
 10
112.836
 20
122.401
 30
0.000000
  70
    32
  0
VERTEX
  8
0
  5
2A59
 10
112.827
 20
122.389
 30
0.000000
  70
    32
  0
VERTEX
  8
0
  5
2A5A
 10
112.818
 20
122.376
 30
0.000000
  70
    32
  0
VERTEX
  8
0
  5
2A5B
 10
112.809
 20
122.364
 30
0.000000
  70
    32
  0
VERTEX
  8
0
  5
2A5C
 10
112.799
 20
122.352
 30
0.000000
  70
    32
  0
VERTEX
  8
0
  5
2A5D
 10
112.790
 20
122.340
 30
0.000000
  70
    32
  0
VERTEX
  8
0
  5
2A5E
 10
112.780
 20
122.329
 30
0.000000
  70
    32
  0
VERTEX
  8
0
  5
2A5F
 10
112.771
 20
122.317
 30
0.000000
  70
    32
  0
VERTEX
  8
0
  5
2A60
 10
112.761
 20
122.306
 30
0.000000
  70
    32
  0
VERTEX
  8
0
  5
2A61
 10
112.751
 20
122.295
 30
0.000000
  70
    32
  0
VERTEX
  8
0
  5
2A62
 10
112.741
 20
122.284
 30
0.000000
  70
    32
  0
VERTEX
  8
0
  5
2A63
 10
112.731
 20
122.274
 30
0.000000
  70
    32
  0
VERTEX
  8
0
  5
2A64
 10
112.721
 20
122.263
 30
0.000000
  70
    32
  0
VERTEX
  8
0
  5
2A65
 10
112.711
 20
122.253
 30
0.000000
  70
    32
  0
VERTEX
  8
0
  5
2A66
 10
112.701
 20
122.243
 30
0.000000
  70
    32
  0
VERTEX
  8
0
  5
2A67
 10
112.691
 20
122.233
 30
0.000000
  70
    32
  0
VERTEX
  8
0
  5
2A68
 10
112.680
 20
122.223
 30
0.000000
  70
    32
  0
VERTEX
  8
0
  5
2A69
 10
112.670
 20
122.213
 30
0.000000
  70
    32
  0
VERTEX
  8
0
  5
2A6A
 10
112.659
 20
122.204
 30
0.000000
  70
    32
  0
VERTEX
  8
0
  5
2A6B
 10
112.648
 20
122.195
 30
0.000000
  70
    32
  0
VERTEX
  8
0
  5
2A6C
 10
112.638
 20
122.186
 30
0.000000
  70
    32
  0
VERTEX
  8
0
  5
2A6D
 10
112.627
 20
122.177
 30
0.000000
  70
    32
  0
VERTEX
  8
0
  5
2A6E
 10
112.616
 20
122.169
 30
0.000000
  70
    32
  0
VERTEX
  8
0
  5
2A6F
 10
112.605
 20
122.160
 30
0.000000
  70
    32
  0
VERTEX
  8
0
  5
2A70
 10
112.594
 20
122.152
 30
0.000000
  70
    32
  0
VERTEX
  8
0
  5
2A71
 10
112.583
 20
122.144
 30
0.000000
  70
    32
  0
VERTEX
  8
0
  5
2A72
 10
112.572
 20
122.136
 30
0.000000
  70
    32
  0
VERTEX
  8
0
  5
2A73
 10
112.561
 20
122.129
 30
0.000000
  70
    32
  0
VERTEX
  8
0
  5
2A74
 10
112.550
 20
122.121
 30
0.000000
  70
    32
  0
VERTEX
  8
0
  5
2A75
 10
112.538
 20
122.114
 30
0.000000
  70
    32
  0
VERTEX
  8
0
  5
2A76
 10
112.527
 20
122.107
 30
0.000000
  70
    32
  0
VERTEX
  8
0
  5
2A77
 10
112.515
 20
122.101
 30
0.000000
  70
    32
  0
VERTEX
  8
0
  5
2A78
 10
112.504
 20
122.094
 30
0.000000
  70
    32
  0
VERTEX
  8
0
  5
2A79
 10
112.492
 20
122.088
 30
0.000000
  70
    32
  0
VERTEX
  8
0
  5
2A7A
 10
112.481
 20
122.082
 30
0.000000
  70
    32
  0
VERTEX
  8
0
  5
2A7B
 10
112.469
 20
122.076
 30
0.000000
  70
    32
  0
VERTEX
  8
0
  5
2A7C
 10
112.458
 20
122.070
 30
0.000000
  70
    32
  0
VERTEX
  8
0
  5
2A7D
 10
112.446
 20
122.065
 30
0.000000
  70
    32
  0
VERTEX
  8
0
  5
2A7E
 10
112.434
 20
122.059
 30
0.000000
  70
    32
  0
VERTEX
  8
0
  5
2A7F
 10
112.422
 20
122.054
 30
0.000000
  70
    32
  0
VERTEX
  8
0
  5
2A80
 10
112.410
 20
122.050
 30
0.000000
  70
    32
  0
VERTEX
  8
0
  5
2A81
 10
112.399
 20
122.045
 30
0.000000
  70
    32
  0
VERTEX
  8
0
  5
2A82
 10
112.387
 20
122.041
 30
0.000000
  70
    32
  0
VERTEX
  8
0
  5
2A83
 10
112.375
 20
122.036
 30
0.000000
  70
    32
  0
VERTEX
  8
0
  5
2A84
 10
112.363
 20
122.033
 30
0.000000
  70
    32
  0
VERTEX
  8
0
  5
2A85
 10
112.351
 20
122.029
 30
0.000000
  70
    32
  0
VERTEX
  8
0
  5
2A86
 10
112.339
 20
122.025
 30
0.000000
  70
    32
  0
VERTEX
  8
0
  5
2A87
 10
112.327
 20
122.022
 30
0.000000
  70
    32
  0
VERTEX
  8
0
  5
2A88
 10
112.314
 20
122.019
 30
0.000000
  70
    32
  0
VERTEX
  8
0
  5
2A89
 10
112.302
 20
122.016
 30
0.000000
  70
    32
  0
VERTEX
  8
0
  5
2A8A
 10
112.290
 20
122.014
 30
0.000000
  70
    32
  0
VERTEX
  8
0
  5
2A8B
 10
112.278
 20
122.011
 30
0.000000
  70
    32
  0
VERTEX
  8
0
  5
2A8C
 10
112.266
 20
122.009
 30
0.000000
  70
    32
  0
VERTEX
  8
0
  5
2A8D
 10
112.254
 20
122.007
 30
0.000000
  70
    32
  0
VERTEX
  8
0
  5
2A8E
 10
112.241
 20
122.006
 30
0.000000
  70
    32
  0
VERTEX
  8
0
  5
2A8F
 10
112.229
 20
122.004
 30
0.000000
  70
    32
  0
VERTEX
  8
0
  5
2A90
 10
112.217
 20
122.003
 30
0.000000
  70
    32
  0
VERTEX
  8
0
  5
2A91
 10
112.205
 20
122.002
 30
0.000000
  70
    32
  0
VERTEX
  8
0
  5
2A92
 10
112.192
 20
122.001
 30
0.000000
  70
    32
  0
VERTEX
  8
0
  5
2A93
 10
112.180
 20
122.000
 30
0.000000
  70
    32
  0
VERTEX
  8
0
  5
2A94
 10
112.168
 20
122.000
 30
0.000000
  70
    32
  0
VERTEX
  8
0
  5
2A95
 10
112.156
 20
122.000
 30
0.000000
  70
    32
  0
SEQEND
  8
0
  5
2A96
  0
ARC
  5
192E
  8
0
 10
111.0350084508102
 20
125.0
 30
0.0
 40
1.0
 50
270.00000000000051
 51
0.0
  0
ARC
  5
1972
  8
0
 10
105.96499154918961
 20
125.0
 30
0.0
 40
1.0
 50
180.0
 51
269.99999999999949
  0
POLYLINE
  5
1973
  8
0
 10
103.8444250749239
 20
123.49999999999851
 30
0.0
 66
     1
 70
     8
  0
VERTEX
  8
0
  5
2A97
 10
103.844
 20
123.500
 30
0.000000
  70
    32
  0
VERTEX
  8
0
  5
2A98
 10
103.845
 20
123.482
 30
0.000000
  70
    32
  0
VERTEX
  8
0
  5
2A99
 10
103.845
 20
123.463
 30
0.000000
  70
    32
  0
VERTEX
  8
0
  5
2A9A
 10
103.845
 20
123.445
 30
0.000000
  70
    32
  0
VERTEX
  8
0
  5
2A9B
 10
103.846
 20
123.426
 30
0.000000
  70
    32
  0
VERTEX
  8
0
  5
2A9C
 10
103.846
 20
123.408
 30
0.000000
  70
    32
  0
VERTEX
  8
0
  5
2A9D
 10
103.847
 20
123.390
 30
0.000000
  70
    32
  0
VERTEX
  8
0
  5
2A9E
 10
103.848
 20
123.371
 30
0.000000
  70
    32
  0
VERTEX
  8
0
  5
2A9F
 10
103.849
 20
123.353
 30
0.000000
  70
    32
  0
VERTEX
  8
0
  5
2AA0
 10
103.851
 20
123.335
 30
0.000000
  70
    32
  0
VERTEX
  8
0
  5
2AA1
 10
103.852
 20
123.316
 30
0.000000
  70
    32
  0
VERTEX
  8
0
  5
2AA2
 10
103.854
 20
123.298
 30
0.000000
  70
    32
  0
VERTEX
  8
0
  5
2AA3
 10
103.855
 20
123.280
 30
0.000000
  70
    32
  0
VERTEX
  8
0
  5
2AA4
 10
103.857
 20
123.262
 30
0.000000
  70
    32
  0
VERTEX
  8
0
  5
2AA5
 10
103.859
 20
123.244
 30
0.000000
  70
    32
  0
VERTEX
  8
0
  5
2AA6
 10
103.861
 20
123.225
 30
0.000000
  70
    32
  0
VERTEX
  8
0
  5
2AA7
 10
103.864
 20
123.207
 30
0.000000
  70
    32
  0
VERTEX
  8
0
  5
2AA8
 10
103.866
 20
123.189
 30
0.000000
  70
    32
  0
VERTEX
  8
0
  5
2AA9
 10
103.869
 20
123.171
 30
0.000000
  70
    32
  0
VERTEX
  8
0
  5
2AAA
 10
103.871
 20
123.153
 30
0.000000
  70
    32
  0
VERTEX
  8
0
  5
2AAB
 10
103.874
 20
123.136
 30
0.000000
  70
    32
  0
VERTEX
  8
0
  5
2AAC
 10
103.877
 20
123.118
 30
0.000000
  70
    32
  0
VERTEX
  8
0
  5
2AAD
 10
103.881
 20
123.100
 30
0.000000
  70
    32
  0
VERTEX
  8
0
  5
2AAE
 10
103.884
 20
123.082
 30
0.000000
  70
    32
  0
VERTEX
  8
0
  5
2AAF
 10
103.887
 20
123.065
 30
0.000000
  70
    32
  0
VERTEX
  8
0
  5
2AB0
 10
103.891
 20
123.047
 30
0.000000
  70
    32
  0
VERTEX
  8
0
  5
2AB1
 10
103.895
 20
123.029
 30
0.000000
  70
    32
  0
VERTEX
  8
0
  5
2AB2
 10
103.899
 20
123.012
 30
0.000000
  70
    32
  0
VERTEX
  8
0
  5
2AB3
 10
103.903
 20
122.995
 30
0.000000
  70
    32
  0
VERTEX
  8
0
  5
2AB4
 10
103.907
 20
122.977
 30
0.000000
  70
    32
  0
VERTEX
  8
0
  5
2AB5
 10
103.911
 20
122.960
 30
0.000000
  70
    32
  0
VERTEX
  8
0
  5
2AB6
 10
103.916
 20
122.943
 30
0.000000
  70
    32
  0
VERTEX
  8
0
  5
2AB7
 10
103.921
 20
122.926
 30
0.000000
  70
    32
  0
VERTEX
  8
0
  5
2AB8
 10
103.925
 20
122.909
 30
0.000000
  70
    32
  0
VERTEX
  8
0
  5
2AB9
 10
103.930
 20
122.892
 30
0.000000
  70
    32
  0
VERTEX
  8
0
  5
2ABA
 10
103.935
 20
122.875
 30
0.000000
  70
    32
  0
VERTEX
  8
0
  5
2ABB
 10
103.940
 20
122.859
 30
0.000000
  70
    32
  0
VERTEX
  8
0
  5
2ABC
 10
103.946
 20
122.842
 30
0.000000
  70
    32
  0
VERTEX
  8
0
  5
2ABD
 10
103.951
 20
122.826
 30
0.000000
  70
    32
  0
VERTEX
  8
0
  5
2ABE
 10
103.957
 20
122.809
 30
0.000000
  70
    32
  0
VERTEX
  8
0
  5
2ABF
 10
103.963
 20
122.793
 30
0.000000
  70
    32
  0
VERTEX
  8
0
  5
2AC0
 10
103.968
 20
122.777
 30
0.000000
  70
    32
  0
VERTEX
  8
0
  5
2AC1
 10
103.974
 20
122.761
 30
0.000000
  70
    32
  0
VERTEX
  8
0
  5
2AC2
 10
103.980
 20
122.745
 30
0.000000
  70
    32
  0
VERTEX
  8
0
  5
2AC3
 10
103.987
 20
122.729
 30
0.000000
  70
    32
  0
VERTEX
  8
0
  5
2AC4
 10
103.993
 20
122.713
 30
0.000000
  70
    32
  0
VERTEX
  8
0
  5
2AC5
 10
104.000
 20
122.698
 30
0.000000
  70
    32
  0
VERTEX
  8
0
  5
2AC6
 10
104.006
 20
122.682
 30
0.000000
  70
    32
  0
VERTEX
  8
0
  5
2AC7
 10
104.013
 20
122.667
 30
0.000000
  70
    32
  0
VERTEX
  8
0
  5
2AC8
 10
104.020
 20
122.651
 30
0.000000
  70
    32
  0
VERTEX
  8
0
  5
2AC9
 10
104.027
 20
122.636
 30
0.000000
  70
    32
  0
VERTEX
  8
0
  5
2ACA
 10
104.034
 20
122.621
 30
0.000000
  70
    32
  0
VERTEX
  8
0
  5
2ACB
 10
104.041
 20
122.606
 30
0.000000
  70
    32
  0
VERTEX
  8
0
  5
2ACC
 10
104.049
 20
122.592
 30
0.000000
  70
    32
  0
VERTEX
  8
0
  5
2ACD
 10
104.056
 20
122.577
 30
0.000000
  70
    32
  0
VERTEX
  8
0
  5
2ACE
 10
104.064
 20
122.563
 30
0.000000
  70
    32
  0
VERTEX
  8
0
  5
2ACF
 10
104.071
 20
122.548
 30
0.000000
  70
    32
  0
VERTEX
  8
0
  5
2AD0
 10
104.079
 20
122.534
 30
0.000000
  70
    32
  0
VERTEX
  8
0
  5
2AD1
 10
104.087
 20
122.520
 30
0.000000
  70
    32
  0
VERTEX
  8
0
  5
2AD2
 10
104.095
 20
122.506
 30
0.000000
  70
    32
  0
VERTEX
  8
0
  5
2AD3
 10
104.103
 20
122.493
 30
0.000000
  70
    32
  0
VERTEX
  8
0
  5
2AD4
 10
104.112
 20
122.479
 30
0.000000
  70
    32
  0
VERTEX
  8
0
  5
2AD5
 10
104.120
 20
122.466
 30
0.000000
  70
    32
  0
VERTEX
  8
0
  5
2AD6
 10
104.129
 20
122.452
 30
0.000000
  70
    32
  0
VERTEX
  8
0
  5
2AD7
 10
104.137
 20
122.439
 30
0.000000
  70
    32
  0
VERTEX
  8
0
  5
2AD8
 10
104.146
 20
122.426
 30
0.000000
  70
    32
  0
VERTEX
  8
0
  5
2AD9
 10
104.155
 20
122.414
 30
0.000000
  70
    32
  0
VERTEX
  8
0
  5
2ADA
 10
104.164
 20
122.401
 30
0.000000
  70
    32
  0
VERTEX
  8
0
  5
2ADB
 10
104.173
 20
122.389
 30
0.000000
  70
    32
  0
VERTEX
  8
0
  5
2ADC
 10
104.182
 20
122.376
 30
0.000000
  70
    32
  0
VERTEX
  8
0
  5
2ADD
 10
104.191
 20
122.364
 30
0.000000
  70
    32
  0
VERTEX
  8
0
  5
2ADE
 10
104.201
 20
122.352
 30
0.000000
  70
    32
  0
VERTEX
  8
0
  5
2ADF
 10
104.210
 20
122.340
 30
0.000000
  70
    32
  0
VERTEX
  8
0
  5
2AE0
 10
104.220
 20
122.329
 30
0.000000
  70
    32
  0
VERTEX
  8
0
  5
2AE1
 10
104.229
 20
122.317
 30
0.000000
  70
    32
  0
VERTEX
  8
0
  5
2AE2
 10
104.239
 20
122.306
 30
0.000000
  70
    32
  0
VERTEX
  8
0
  5
2AE3
 10
104.249
 20
122.295
 30
0.000000
  70
    32
  0
VERTEX
  8
0
  5
2AE4
 10
104.259
 20
122.284
 30
0.000000
  70
    32
  0
VERTEX
  8
0
  5
2AE5
 10
104.269
 20
122.274
 30
0.000000
  70
    32
  0
VERTEX
  8
0
  5
2AE6
 10
104.279
 20
122.263
 30
0.000000
  70
    32
  0
VERTEX
  8
0
  5
2AE7
 10
104.289
 20
122.253
 30
0.000000
  70
    32
  0
VERTEX
  8
0
  5
2AE8
 10
104.299
 20
122.243
 30
0.000000
  70
    32
  0
VERTEX
  8
0
  5
2AE9
 10
104.309
 20
122.233
 30
0.000000
  70
    32
  0
VERTEX
  8
0
  5
2AEA
 10
104.320
 20
122.223
 30
0.000000
  70
    32
  0
VERTEX
  8
0
  5
2AEB
 10
104.330
 20
122.213
 30
0.000000
  70
    32
  0
VERTEX
  8
0
  5
2AEC
 10
104.341
 20
122.204
 30
0.000000
  70
    32
  0
VERTEX
  8
0
  5
2AED
 10
104.352
 20
122.195
 30
0.000000
  70
    32
  0
VERTEX
  8
0
  5
2AEE
 10
104.362
 20
122.186
 30
0.000000
  70
    32
  0
VERTEX
  8
0
  5
2AEF
 10
104.373
 20
122.177
 30
0.000000
  70
    32
  0
VERTEX
  8
0
  5
2AF0
 10
104.384
 20
122.169
 30
0.000000
  70
    32
  0
VERTEX
  8
0
  5
2AF1
 10
104.395
 20
122.160
 30
0.000000
  70
    32
  0
VERTEX
  8
0
  5
2AF2
 10
104.406
 20
122.152
 30
0.000000
  70
    32
  0
VERTEX
  8
0
  5
2AF3
 10
104.417
 20
122.144
 30
0.000000
  70
    32
  0
VERTEX
  8
0
  5
2AF4
 10
104.428
 20
122.136
 30
0.000000
  70
    32
  0
VERTEX
  8
0
  5
2AF5
 10
104.439
 20
122.129
 30
0.000000
  70
    32
  0
VERTEX
  8
0
  5
2AF6
 10
104.450
 20
122.121
 30
0.000000
  70
    32
  0
VERTEX
  8
0
  5
2AF7
 10
104.462
 20
122.114
 30
0.000000
  70
    32
  0
VERTEX
  8
0
  5
2AF8
 10
104.473
 20
122.107
 30
0.000000
  70
    32
  0
VERTEX
  8
0
  5
2AF9
 10
104.485
 20
122.101
 30
0.000000
  70
    32
  0
VERTEX
  8
0
  5
2AFA
 10
104.496
 20
122.094
 30
0.000000
  70
    32
  0
VERTEX
  8
0
  5
2AFB
 10
104.508
 20
122.088
 30
0.000000
  70
    32
  0
VERTEX
  8
0
  5
2AFC
 10
104.519
 20
122.082
 30
0.000000
  70
    32
  0
VERTEX
  8
0
  5
2AFD
 10
104.531
 20
122.076
 30
0.000000
  70
    32
  0
VERTEX
  8
0
  5
2AFE
 10
104.542
 20
122.070
 30
0.000000
  70
    32
  0
VERTEX
  8
0
  5
2AFF
 10
104.554
 20
122.065
 30
0.000000
  70
    32
  0
VERTEX
  8
0
  5
2B00
 10
104.566
 20
122.059
 30
0.000000
  70
    32
  0
VERTEX
  8
0
  5
2B01
 10
104.578
 20
122.054
 30
0.000000
  70
    32
  0
VERTEX
  8
0
  5
2B02
 10
104.590
 20
122.050
 30
0.000000
  70
    32
  0
VERTEX
  8
0
  5
2B03
 10
104.601
 20
122.045
 30
0.000000
  70
    32
  0
VERTEX
  8
0
  5
2B04
 10
104.613
 20
122.041
 30
0.000000
  70
    32
  0
VERTEX
  8
0
  5
2B05
 10
104.625
 20
122.036
 30
0.000000
  70
    32
  0
VERTEX
  8
0
  5
2B06
 10
104.637
 20
122.033
 30
0.000000
  70
    32
  0
VERTEX
  8
0
  5
2B07
 10
104.649
 20
122.029
 30
0.000000
  70
    32
  0
VERTEX
  8
0
  5
2B08
 10
104.661
 20
122.025
 30
0.000000
  70
    32
  0
VERTEX
  8
0
  5
2B09
 10
104.673
 20
122.022
 30
0.000000
  70
    32
  0
VERTEX
  8
0
  5
2B0A
 10
104.686
 20
122.019
 30
0.000000
  70
    32
  0
VERTEX
  8
0
  5
2B0B
 10
104.698
 20
122.016
 30
0.000000
  70
    32
  0
VERTEX
  8
0
  5
2B0C
 10
104.710
 20
122.014
 30
0.000000
  70
    32
  0
VERTEX
  8
0
  5
2B0D
 10
104.722
 20
122.011
 30
0.000000
  70
    32
  0
VERTEX
  8
0
  5
2B0E
 10
104.734
 20
122.009
 30
0.000000
  70
    32
  0
VERTEX
  8
0
  5
2B0F
 10
104.746
 20
122.007
 30
0.000000
  70
    32
  0
VERTEX
  8
0
  5
2B10
 10
104.759
 20
122.006
 30
0.000000
  70
    32
  0
VERTEX
  8
0
  5
2B11
 10
104.771
 20
122.004
 30
0.000000
  70
    32
  0
VERTEX
  8
0
  5
2B12
 10
104.783
 20
122.003
 30
0.000000
  70
    32
  0
VERTEX
  8
0
  5
2B13
 10
104.795
 20
122.002
 30
0.000000
  70
    32
  0
VERTEX
  8
0
  5
2B14
 10
104.808
 20
122.001
 30
0.000000
  70
    32
  0
VERTEX
  8
0
  5
2B15
 10
104.820
 20
122.000
 30
0.000000
  70
    32
  0
VERTEX
  8
0
  5
2B16
 10
104.832
 20
122.000
 30
0.000000
  70
    32
  0
VERTEX
  8
0
  5
2B17
 10
104.844
 20
122.000
 30
0.000000
  70
    32
  0
SEQEND
  8
0
  5
2B18
  0
POLYLINE
  5
1974
  8
0
 10
103.844425074924
 20
130.5
 30
0.0
 66
     1
 70
     8
  0
VERTEX
  8
0
  5
2B19
 10
103.844
 20
130.500
 30
0.000000
  70
    32
  0
VERTEX
  8
0
  5
2B1A
 10
103.845
 20
130.518
 30
0.000000
  70
    32
  0
VERTEX
  8
0
  5
2B1B
 10
103.845
 20
130.537
 30
0.000000
  70
    32
  0
VERTEX
  8
0
  5
2B1C
 10
103.845
 20
130.555
 30
0.000000
  70
    32
  0
VERTEX
  8
0
  5
2B1D
 10
103.846
 20
130.574
 30
0.000000
  70
    32
  0
VERTEX
  8
0
  5
2B1E
 10
103.846
 20
130.592
 30
0.000000
  70
    32
  0
VERTEX
  8
0
  5
2B1F
 10
103.847
 20
130.610
 30
0.000000
  70
    32
  0
VERTEX
  8
0
  5
2B20
 10
103.848
 20
130.629
 30
0.000000
  70
    32
  0
VERTEX
  8
0
  5
2B21
 10
103.849
 20
130.647
 30
0.000000
  70
    32
  0
VERTEX
  8
0
  5
2B22
 10
103.851
 20
130.665
 30
0.000000
  70
    32
  0
VERTEX
  8
0
  5
2B23
 10
103.852
 20
130.684
 30
0.000000
  70
    32
  0
VERTEX
  8
0
  5
2B24
 10
103.854
 20
130.702
 30
0.000000
  70
    32
  0
VERTEX
  8
0
  5
2B25
 10
103.855
 20
130.720
 30
0.000000
  70
    32
  0
VERTEX
  8
0
  5
2B26
 10
103.857
 20
130.738
 30
0.000000
  70
    32
  0
VERTEX
  8
0
  5
2B27
 10
103.859
 20
130.756
 30
0.000000
  70
    32
  0
VERTEX
  8
0
  5
2B28
 10
103.861
 20
130.775
 30
0.000000
  70
    32
  0
VERTEX
  8
0
  5
2B29
 10
103.864
 20
130.793
 30
0.000000
  70
    32
  0
VERTEX
  8
0
  5
2B2A
 10
103.866
 20
130.811
 30
0.000000
  70
    32
  0
VERTEX
  8
0
  5
2B2B
 10
103.869
 20
130.829
 30
0.000000
  70
    32
  0
VERTEX
  8
0
  5
2B2C
 10
103.871
 20
130.847
 30
0.000000
  70
    32
  0
VERTEX
  8
0
  5
2B2D
 10
103.874
 20
130.864
 30
0.000000
  70
    32
  0
VERTEX
  8
0
  5
2B2E
 10
103.877
 20
130.882
 30
0.000000
  70
    32
  0
VERTEX
  8
0
  5
2B2F
 10
103.881
 20
130.900
 30
0.000000
  70
    32
  0
VERTEX
  8
0
  5
2B30
 10
103.884
 20
130.918
 30
0.000000
  70
    32
  0
VERTEX
  8
0
  5
2B31
 10
103.887
 20
130.935
 30
0.000000
  70
    32
  0
VERTEX
  8
0
  5
2B32
 10
103.891
 20
130.953
 30
0.000000
  70
    32
  0
VERTEX
  8
0
  5
2B33
 10
103.895
 20
130.971
 30
0.000000
  70
    32
  0
VERTEX
  8
0
  5
2B34
 10
103.899
 20
130.988
 30
0.000000
  70
    32
  0
VERTEX
  8
0
  5
2B35
 10
103.903
 20
131.005
 30
0.000000
  70
    32
  0
VERTEX
  8
0
  5
2B36
 10
103.907
 20
131.023
 30
0.000000
  70
    32
  0
VERTEX
  8
0
  5
2B37
 10
103.911
 20
131.040
 30
0.000000
  70
    32
  0
VERTEX
  8
0
  5
2B38
 10
103.916
 20
131.057
 30
0.000000
  70
    32
  0
VERTEX
  8
0
  5
2B39
 10
103.921
 20
131.074
 30
0.000000
  70
    32
  0
VERTEX
  8
0
  5
2B3A
 10
103.925
 20
131.091
 30
0.000000
  70
    32
  0
VERTEX
  8
0
  5
2B3B
 10
103.930
 20
131.108
 30
0.000000
  70
    32
  0
VERTEX
  8
0
  5
2B3C
 10
103.935
 20
131.125
 30
0.000000
  70
    32
  0
VERTEX
  8
0
  5
2B3D
 10
103.940
 20
131.141
 30
0.000000
  70
    32
  0
VERTEX
  8
0
  5
2B3E
 10
103.946
 20
131.158
 30
0.000000
  70
    32
  0
VERTEX
  8
0
  5
2B3F
 10
103.951
 20
131.174
 30
0.000000
  70
    32
  0
VERTEX
  8
0
  5
2B40
 10
103.957
 20
131.191
 30
0.000000
  70
    32
  0
VERTEX
  8
0
  5
2B41
 10
103.963
 20
131.207
 30
0.000000
  70
    32
  0
VERTEX
  8
0
  5
2B42
 10
103.968
 20
131.223
 30
0.000000
  70
    32
  0
VERTEX
  8
0
  5
2B43
 10
103.974
 20
131.239
 30
0.000000
  70
    32
  0
VERTEX
  8
0
  5
2B44
 10
103.980
 20
131.255
 30
0.000000
  70
    32
  0
VERTEX
  8
0
  5
2B45
 10
103.987
 20
131.271
 30
0.000000
  70
    32
  0
VERTEX
  8
0
  5
2B46
 10
103.993
 20
131.287
 30
0.000000
  70
    32
  0
VERTEX
  8
0
  5
2B47
 10
104.000
 20
131.302
 30
0.000000
  70
    32
  0
VERTEX
  8
0
  5
2B48
 10
104.006
 20
131.318
 30
0.000000
  70
    32
  0
VERTEX
  8
0
  5
2B49
 10
104.013
 20
131.333
 30
0.000000
  70
    32
  0
VERTEX
  8
0
  5
2B4A
 10
104.020
 20
131.349
 30
0.000000
  70
    32
  0
VERTEX
  8
0
  5
2B4B
 10
104.027
 20
131.364
 30
0.000000
  70
    32
  0
VERTEX
  8
0
  5
2B4C
 10
104.034
 20
131.379
 30
0.000000
  70
    32
  0
VERTEX
  8
0
  5
2B4D
 10
104.041
 20
131.394
 30
0.000000
  70
    32
  0
VERTEX
  8
0
  5
2B4E
 10
104.049
 20
131.408
 30
0.000000
  70
    32
  0
VERTEX
  8
0
  5
2B4F
 10
104.056
 20
131.423
 30
0.000000
  70
    32
  0
VERTEX
  8
0
  5
2B50
 10
104.064
 20
131.437
 30
0.000000
  70
    32
  0
VERTEX
  8
0
  5
2B51
 10
104.071
 20
131.452
 30
0.000000
  70
    32
  0
VERTEX
  8
0
  5
2B52
 10
104.079
 20
131.466
 30
0.000000
  70
    32
  0
VERTEX
  8
0
  5
2B53
 10
104.087
 20
131.480
 30
0.000000
  70
    32
  0
VERTEX
  8
0
  5
2B54
 10
104.095
 20
131.494
 30
0.000000
  70
    32
  0
VERTEX
  8
0
  5
2B55
 10
104.103
 20
131.507
 30
0.000000
  70
    32
  0
VERTEX
  8
0
  5
2B56
 10
104.112
 20
131.521
 30
0.000000
  70
    32
  0
VERTEX
  8
0
  5
2B57
 10
104.120
 20
131.534
 30
0.000000
  70
    32
  0
VERTEX
  8
0
  5
2B58
 10
104.129
 20
131.548
 30
0.000000
  70
    32
  0
VERTEX
  8
0
  5
2B59
 10
104.137
 20
131.561
 30
0.000000
  70
    32
  0
VERTEX
  8
0
  5
2B5A
 10
104.146
 20
131.574
 30
0.000000
  70
    32
  0
VERTEX
  8
0
  5
2B5B
 10
104.155
 20
131.586
 30
0.000000
  70
    32
  0
VERTEX
  8
0
  5
2B5C
 10
104.164
 20
131.599
 30
0.000000
  70
    32
  0
VERTEX
  8
0
  5
2B5D
 10
104.173
 20
131.611
 30
0.000000
  70
    32
  0
VERTEX
  8
0
  5
2B5E
 10
104.182
 20
131.624
 30
0.000000
  70
    32
  0
VERTEX
  8
0
  5
2B5F
 10
104.191
 20
131.636
 30
0.000000
  70
    32
  0
VERTEX
  8
0
  5
2B60
 10
104.201
 20
131.648
 30
0.000000
  70
    32
  0
VERTEX
  8
0
  5
2B61
 10
104.210
 20
131.660
 30
0.000000
  70
    32
  0
VERTEX
  8
0
  5
2B62
 10
104.220
 20
131.671
 30
0.000000
  70
    32
  0
VERTEX
  8
0
  5
2B63
 10
104.229
 20
131.683
 30
0.000000
  70
    32
  0
VERTEX
  8
0
  5
2B64
 10
104.239
 20
131.694
 30
0.000000
  70
    32
  0
VERTEX
  8
0
  5
2B65
 10
104.249
 20
131.705
 30
0.000000
  70
    32
  0
VERTEX
  8
0
  5
2B66
 10
104.259
 20
131.716
 30
0.000000
  70
    32
  0
VERTEX
  8
0
  5
2B67
 10
104.269
 20
131.726
 30
0.000000
  70
    32
  0
VERTEX
  8
0
  5
2B68
 10
104.279
 20
131.737
 30
0.000000
  70
    32
  0
VERTEX
  8
0
  5
2B69
 10
104.289
 20
131.747
 30
0.000000
  70
    32
  0
VERTEX
  8
0
  5
2B6A
 10
104.299
 20
131.757
 30
0.000000
  70
    32
  0
VERTEX
  8
0
  5
2B6B
 10
104.309
 20
131.767
 30
0.000000
  70
    32
  0
VERTEX
  8
0
  5
2B6C
 10
104.320
 20
131.777
 30
0.000000
  70
    32
  0
VERTEX
  8
0
  5
2B6D
 10
104.330
 20
131.787
 30
0.000000
  70
    32
  0
VERTEX
  8
0
  5
2B6E
 10
104.341
 20
131.796
 30
0.000000
  70
    32
  0
VERTEX
  8
0
  5
2B6F
 10
104.352
 20
131.805
 30
0.000000
  70
    32
  0
VERTEX
  8
0
  5
2B70
 10
104.362
 20
131.814
 30
0.000000
  70
    32
  0
VERTEX
  8
0
  5
2B71
 10
104.373
 20
131.823
 30
0.000000
  70
    32
  0
VERTEX
  8
0
  5
2B72
 10
104.384
 20
131.831
 30
0.000000
  70
    32
  0
VERTEX
  8
0
  5
2B73
 10
104.395
 20
131.840
 30
0.000000
  70
    32
  0
VERTEX
  8
0
  5
2B74
 10
104.406
 20
131.848
 30
0.000000
  70
    32
  0
VERTEX
  8
0
  5
2B75
 10
104.417
 20
131.856
 30
0.000000
  70
    32
  0
VERTEX
  8
0
  5
2B76
 10
104.428
 20
131.864
 30
0.000000
  70
    32
  0
VERTEX
  8
0
  5
2B77
 10
104.439
 20
131.871
 30
0.000000
  70
    32
  0
VERTEX
  8
0
  5
2B78
 10
104.450
 20
131.879
 30
0.000000
  70
    32
  0
VERTEX
  8
0
  5
2B79
 10
104.462
 20
131.886
 30
0.000000
  70
    32
  0
VERTEX
  8
0
  5
2B7A
 10
104.473
 20
131.893
 30
0.000000
  70
    32
  0
VERTEX
  8
0
  5
2B7B
 10
104.485
 20
131.899
 30
0.000000
  70
    32
  0
VERTEX
  8
0
  5
2B7C
 10
104.496
 20
131.906
 30
0.000000
  70
    32
  0
VERTEX
  8
0
  5
2B7D
 10
104.508
 20
131.912
 30
0.000000
  70
    32
  0
VERTEX
  8
0
  5
2B7E
 10
104.519
 20
131.918
 30
0.000000
  70
    32
  0
VERTEX
  8
0
  5
2B7F
 10
104.531
 20
131.924
 30
0.000000
  70
    32
  0
VERTEX
  8
0
  5
2B80
 10
104.542
 20
131.930
 30
0.000000
  70
    32
  0
VERTEX
  8
0
  5
2B81
 10
104.554
 20
131.935
 30
0.000000
  70
    32
  0
VERTEX
  8
0
  5
2B82
 10
104.566
 20
131.941
 30
0.000000
  70
    32
  0
VERTEX
  8
0
  5
2B83
 10
104.578
 20
131.946
 30
0.000000
  70
    32
  0
VERTEX
  8
0
  5
2B84
 10
104.590
 20
131.950
 30
0.000000
  70
    32
  0
VERTEX
  8
0
  5
2B85
 10
104.601
 20
131.955
 30
0.000000
  70
    32
  0
VERTEX
  8
0
  5
2B86
 10
104.613
 20
131.959
 30
0.000000
  70
    32
  0
VERTEX
  8
0
  5
2B87
 10
104.625
 20
131.964
 30
0.000000
  70
    32
  0
VERTEX
  8
0
  5
2B88
 10
104.637
 20
131.967
 30
0.000000
  70
    32
  0
VERTEX
  8
0
  5
2B89
 10
104.649
 20
131.971
 30
0.000000
  70
    32
  0
VERTEX
  8
0
  5
2B8A
 10
104.661
 20
131.975
 30
0.000000
  70
    32
  0
VERTEX
  8
0
  5
2B8B
 10
104.673
 20
131.978
 30
0.000000
  70
    32
  0
VERTEX
  8
0
  5
2B8C
 10
104.686
 20
131.981
 30
0.000000
  70
    32
  0
VERTEX
  8
0
  5
2B8D
 10
104.698
 20
131.984
 30
0.000000
  70
    32
  0
VERTEX
  8
0
  5
2B8E
 10
104.710
 20
131.986
 30
0.000000
  70
    32
  0
VERTEX
  8
0
  5
2B8F
 10
104.722
 20
131.989
 30
0.000000
  70
    32
  0
VERTEX
  8
0
  5
2B90
 10
104.734
 20
131.991
 30
0.000000
  70
    32
  0
VERTEX
  8
0
  5
2B91
 10
104.746
 20
131.993
 30
0.000000
  70
    32
  0
VERTEX
  8
0
  5
2B92
 10
104.759
 20
131.994
 30
0.000000
  70
    32
  0
VERTEX
  8
0
  5
2B93
 10
104.771
 20
131.996
 30
0.000000
  70
    32
  0
VERTEX
  8
0
  5
2B94
 10
104.783
 20
131.997
 30
0.000000
  70
    32
  0
VERTEX
  8
0
  5
2B95
 10
104.795
 20
131.998
 30
0.000000
  70
    32
  0
VERTEX
  8
0
  5
2B96
 10
104.808
 20
131.999
 30
0.000000
  70
    32
  0
VERTEX
  8
0
  5
2B97
 10
104.820
 20
132.000
 30
0.000000
  70
    32
  0
VERTEX
  8
0
  5
2B98
 10
104.832
 20
132.000
 30
0.000000
  70
    32
  0
VERTEX
  8
0
  5
2B99
 10
104.844
 20
132.000
 30
0.000000
  70
    32
  0
SEQEND
  8
0
  5
2B9A
  0
LINE
  5
1975
  8
0
 10
103.844425074924
 20
130.5
 30
0.0
 11
103.844425074924
 21
123.49999999999849
 31
0.0
  0
ARC
  5
1976
  8
0
 10
105.96499154918961
 20
128.6925304673795
 30
0.0
 40
1.0
 50
90.000000000000483
 51
180.0
  0
LINE
  5
1977
  8
0
 10
104.96499154918961
 20
128.6925304673795
 30
0.0
 11
104.96499154918961
 21
125.0
 31
0.0
  0
LINE
  5
1978
  8
0
 10
112.1555749250759
 20
132.0
 30
0.0
 11
111.3558911457271
 21
129.63964941244549
 31
0.0
  0
LINE
  5
1979
  8
0
 10
112.0350084508103
 20
128.6925304673795
 30
0.0
 11
113.1555749250758
 21
130.5
 31
0.0
  0
LINE
  5
197B
  8
0
 10
103.844425074924
 20
130.5
 30
0.0
 11
104.96499154918961
 21
128.6925304673795
 31
0.0
  0
LINE
  5
197C
  8
0
 10
104.844425074924
 20
132.0
 30
0.0
 11
105.96499154918961
 21
129.69253046737961
 31
0.0
  0
LINE
  5
1982
  8
0
 10
104.96499154918961
 20
125.0
 30
0.0
 11
103.8444250749239
 21
123.49999999999849
 31
0.0
  0
LINE
  5
1983
  8
0
 10
105.96499154918961
 20
124.0
 30
0.0
 11
104.8444250749239
 21
121.99999999999849
 31
0.0
  0
LINE
  5
1985
  8
0
 10
112.0350084508103
 20
125.0
 30
0.0
 11
113.1555749250759
 21
123.49999999999849
 31
0.0
  0
LINE
  5
1986
  8
0
 10
111.0350084508103
 20
124.0
 30
0.0
 11
112.1555749250759
 21
121.99999999999849
 31
0.0
  0
LINE
  5
2461
  8
0
 10
54.000000000000028
 20
36.999464410607992
 30
0.0
 11
54.000000000000028
 21
40.354248688935527
 31
0.0
  0
ARC
  5
2462
  8
0
 10
53.099999999999973
 20
41.677124344467778
 30
0.0
 40
1.6000000000000001
 50
304.2288663278153
 51
55.771133672182287
  0
ARC
  5
2463
  8
0
 10
57.240370349204028
 20
41.677124344467792
 30
0.0
 40
3.5
 50
157.7923457014038
 51
202.2076542985933
  0
LINE
  5
2464
  8
0
 10
54.000000000000092
 20
43.00000000000005
 30
0.0
 11
54.000000000000007
 21
103.0
 31
0.0
  0
LINE
  5
2465
  8
0
 10
45.999999999999922
 20
37.000000000000007
 30
0.0
 11
54.000000000000028
 21
37.000000000000007
 31
0.0
  0
ARC
  5
2467
  8
0
 10
42.759629650795922
 20
41.677124344467792
 30
0.0
 40
3.5
 50
337.7923457014067
 51
22.20765429859614
  0
ARC
  5
2468
  8
0
 10
46.899999999999977
 20
41.677124344467778
 30
0.0
 40
1.6000000000000001
 50
124.2288663278177
 51
235.77113367218459
  0
LINE
  5
2469
  8
0
 10
45.999999999999858
 20
43.00000000000005
 30
0.0
 11
45.99999999999995
 21
103.0
 31
0.0
  0
LINE
  5
246A
  8
0
 10
45.999999999999922
 20
37.000000000000007
 30
0.0
 11
45.999999999999922
 21
40.354248688935527
 31
0.0
  0
LINE
  5
246B
  8
0
 10
45.999999999999922
 20
37.000000000000007
 30
0.0
 11
46.700052584629738
 21
35.0
 31
0.0
  0
LINE
  5
2479
  8
0
 10
112.5000000000001
 20
37.000000000000021
 30
0.0
 11
112.5
 21
103.0000000000001
 31
0.0
  0
LINE
  5
247A
  8
0
 10
104.4999999999998
 20
37.000000000000028
 30
0.0
 11
104.4999999999999
 21
103.0000000000001
 31
0.0
  0
CIRCLE
  5
247E
  8
0
 10
108.4999999999999
 20
41.677124344467749
 30
0.0
 40
1.322875655532378
  0
TEXT
  5
2550
  8
0
 62
     3
 10
0.0
 20
0.0
 30
0.0
 40
10.0
  1
BJ773-08060-SUS
  7
STANDARD1
  0
LINE
  5
25E4
  8
0
 10
44.499999999999979
 20
103.0
 30
0.0
 11
44.499999999999979
 21
122.0
 31
0.0
  0
LINE
  5
25E7
  8
0
 10
55.499999999999993
 20
103.0
 30
0.0
 11
55.499999999999979
 21
122.0
 31
0.0
  0
LINE
  5
25EF
  8
0
 10
113.9999999999999
 20
103.0
 30
0.0
 11
113.9999999999999
 21
131.0
 31
0.0
  0
LINE
  5
25F0
  8
0
 10
103.0
 20
103.0
 30
0.0
 11
102.9999999999999
 21
131.0
 31
0.0
  0
LINE
  5
261B
  8
0
 10
54.000000000000043
 20
36.999999999999979
 30
0.0
 11
53.299947415370212
 21
34.999999999999972
 31
0.0
  0
LINE
  5
261C
  8
0
 10
46.700052584629738
 20
35.0
 30
0.0
 11
53.299947415370212
 21
34.999999999999972
 31
0.0
  0
LINE
  5
262A
  8
0
 10
104.4999999999998
 20
37.000000000000028
 30
0.0
 11
112.4999999999999
 21
37.000000000000028
 31
0.0
  0
LINE
  5
262B
  8
0
 10
104.4999999999998
 20
37.000000000000028
 30
0.0
 11
105.2000525846296
 21
35.000000000000028
 31
0.0
  0
LINE
  5
262C
  8
0
 10
112.4999999999999
 20
37.0
 30
0.0
 11
111.7999474153701
 21
35.0
 31
0.0
  0
LINE
  5
262D
  8
0
 10
105.2000525846296
 20
35.000000000000028
 30
0.0
 11
111.7999474153701
 21
35.0
 31
0.0
  0
ARC
  5
269E
  8
0
 10
49.999638160085098
 20
170.49999999995271
 30
0.0
 40
5.5
 50
235.9524567679515
 51
304.0470677531768
  0
ARC
  5
269F
  8
0
 10
49.999638160085098
 20
170.49999999995271
 30
0.0
 40
5.5
 50
55.952932246822542
 51
124.0475432320485
  0
ARC
  5
26A0
  8
0
 10
53.918754469714777
 20
164.6999545387865
 30
0.0
 40
1.5
 50
92.412978451484065
 51
124.0470677531769
  0
ARC
  5
26A1
  8
0
 10
46.080473717916483
 20
164.69998706244641
 30
0.0
 40
1.5
 50
55.952456767951652
 51
87.587021548516148
  0
ARC
  5
26A2
  8
0
 10
46.08047371791649
 20
176.30001293745909
 30
0.0
 40
1.5
 50
272.41297845148409
 51
304.04754323204833
  0
ARC
  5
26A3
  8
0
 10
53.918754469714841
 20
176.30004546111891
 30
0.0
 40
1.5
 50
235.9529322468224
 51
267.58702154851591
  0
ARC
  5
26B4
  8
0
 10
57.711264145277113
 20
125.26223951224929
 30
0.0
 40
4.0570165041249862
 50
198.1270450416672
 51
233.52324947234391
  0
POLYLINE
  5
26B9
  8
0
 10
44.700237415958014
 20
121.9999999999999
 30
0.0
 66
     1
 70
     8
  0
VERTEX
  8
0
  5
2B9B
 10
44.7002
 20
122.000
 30
0.000000
  70
    32
  0
VERTEX
  8
0
  5
2B9C
 10
44.7000
 20
122.025
 30
0.000000
  70
    32
  0
VERTEX
  8
0
  5
2B9D
 10
44.6995
 20
122.049
 30
0.000000
  70
    32
  0
VERTEX
  8
0
  5
2B9E
 10
44.6985
 20
122.074
 30
0.000000
  70
    32
  0
VERTEX
  8
0
  5
2B9F
 10
44.6972
 20
122.098
 30
0.000000
  70
    32
  0
VERTEX
  8
0
  5
2BA0
 10
44.6955
 20
122.123
 30
0.000000
  70
    32
  0
VERTEX
  8
0
  5
2BA1
 10
44.6934
 20
122.147
 30
0.000000
  70
    32
  0
VERTEX
  8
0
  5
2BA2
 10
44.6910
 20
122.172
 30
0.000000
  70
    32
  0
VERTEX
  8
0
  5
2BA3
 10
44.6882
 20
122.196
 30
0.000000
  70
    32
  0
VERTEX
  8
0
  5
2BA4
 10
44.6850
 20
122.220
 30
0.000000
  70
    32
  0
VERTEX
  8
0
  5
2BA5
 10
44.6814
 20
122.245
 30
0.000000
  70
    32
  0
VERTEX
  8
0
  5
2BA6
 10
44.6774
 20
122.269
 30
0.000000
  70
    32
  0
VERTEX
  8
0
  5
2BA7
 10
44.6731
 20
122.293
 30
0.000000
  70
    32
  0
VERTEX
  8
0
  5
2BA8
 10
44.6684
 20
122.318
 30
0.000000
  70
    32
  0
VERTEX
  8
0
  5
2BA9
 10
44.6633
 20
122.342
 30
0.000000
  70
    32
  0
VERTEX
  8
0
  5
2BAA
 10
44.6579
 20
122.366
 30
0.000000
  70
    32
  0
VERTEX
  8
0
  5
2BAB
 10
44.6520
 20
122.390
 30
0.000000
  70
    32
  0
VERTEX
  8
0
  5
2BAC
 10
44.6459
 20
122.414
 30
0.000000
  70
    32
  0
VERTEX
  8
0
  5
2BAD
 10
44.6393
 20
122.438
 30
0.000000
  70
    32
  0
VERTEX
  8
0
  5
2BAE
 10
44.6324
 20
122.462
 30
0.000000
  70
    32
  0
VERTEX
  8
0
  5
2BAF
 10
44.6251
 20
122.486
 30
0.000000
  70
    32
  0
VERTEX
  8
0
  5
2BB0
 10
44.6174
 20
122.510
 30
0.000000
  70
    32
  0
VERTEX
  8
0
  5
2BB1
 10
44.6094
 20
122.533
 30
0.000000
  70
    32
  0
VERTEX
  8
0
  5
2BB2
 10
44.6010
 20
122.557
 30
0.000000
  70
    32
  0
VERTEX
  8
0
  5
2BB3
 10
44.5922
 20
122.581
 30
0.000000
  70
    32
  0
VERTEX
  8
0
  5
2BB4
 10
44.5831
 20
122.604
 30
0.000000
  70
    32
  0
VERTEX
  8
0
  5
2BB5
 10
44.5737
 20
122.627
 30
0.000000
  70
    32
  0
VERTEX
  8
0
  5
2BB6
 10
44.5638
 20
122.651
 30
0.000000
  70
    32
  0
VERTEX
  8
0
  5
2BB7
 10
44.5536
 20
122.674
 30
0.000000
  70
    32
  0
VERTEX
  8
0
  5
2BB8
 10
44.5431
 20
122.697
 30
0.000000
  70
    32
  0
VERTEX
  8
0
  5
2BB9
 10
44.5322
 20
122.720
 30
0.000000
  70
    32
  0
VERTEX
  8
0
  5
2BBA
 10
44.5209
 20
122.743
 30
0.000000
  70
    32
  0
VERTEX
  8
0
  5
2BBB
 10
44.5093
 20
122.765
 30
0.000000
  70
    32
  0
VERTEX
  8
0
  5
2BBC
 10
44.4974
 20
122.788
 30
0.000000
  70
    32
  0
VERTEX
  8
0
  5
2BBD
 10
44.4851
 20
122.810
 30
0.000000
  70
    32
  0
VERTEX
  8
0
  5
2BBE
 10
44.4724
 20
122.833
 30
0.000000
  70
    32
  0
VERTEX
  8
0
  5
2BBF
 10
44.4594
 20
122.855
 30
0.000000
  70
    32
  0
VERTEX
  8
0
  5
2BC0
 10
44.4461
 20
122.877
 30
0.000000
  70
    32
  0
VERTEX
  8
0
  5
2BC1
 10
44.4324
 20
122.899
 30
0.000000
  70
    32
  0
VERTEX
  8
0
  5
2BC2
 10
44.4184
 20
122.921
 30
0.000000
  70
    32
  0
VERTEX
  8
0
  5
2BC3
 10
44.4041
 20
122.943
 30
0.000000
  70
    32
  0
VERTEX
  8
0
  5
2BC4
 10
44.3894
 20
122.964
 30
0.000000
  70
    32
  0
VERTEX
  8
0
  5
2BC5
 10
44.3744
 20
122.986
 30
0.000000
  70
    32
  0
VERTEX
  8
0
  5
2BC6
 10
44.3591
 20
123.007
 30
0.000000
  70
    32
  0
VERTEX
  8
0
  5
2BC7
 10
44.3434
 20
123.028
 30
0.000000
  70
    32
  0
VERTEX
  8
0
  5
2BC8
 10
44.3274
 20
123.049
 30
0.000000
  70
    32
  0
VERTEX
  8
0
  5
2BC9
 10
44.3111
 20
123.070
 30
0.000000
  70
    32
  0
VERTEX
  8
0
  5
2BCA
 10
44.2945
 20
123.091
 30
0.000000
  70
    32
  0
VERTEX
  8
0
  5
2BCB
 10
44.2776
 20
123.111
 30
0.000000
  70
    32
  0
VERTEX
  8
0
  5
2BCC
 10
44.2603
 20
123.131
 30
0.000000
  70
    32
  0
VERTEX
  8
0
  5
2BCD
 10
44.2427
 20
123.152
 30
0.000000
  70
    32
  0
VERTEX
  8
0
  5
2BCE
 10
44.2249
 20
123.172
 30
0.000000
  70
    32
  0
VERTEX
  8
0
  5
2BCF
 10
44.2067
 20
123.191
 30
0.000000
  70
    32
  0
VERTEX
  8
0
  5
2BD0
 10
44.1882
 20
123.211
 30
0.000000
  70
    32
  0
VERTEX
  8
0
  5
2BD1
 10
44.1694
 20
123.230
 30
0.000000
  70
    32
  0
VERTEX
  8
0
  5
2BD2
 10
44.1503
 20
123.250
 30
0.000000
  70
    32
  0
VERTEX
  8
0
  5
2BD3
 10
44.1310
 20
123.269
 30
0.000000
  70
    32
  0
VERTEX
  8
0
  5
2BD4
 10
44.1113
 20
123.288
 30
0.000000
  70
    32
  0
VERTEX
  8
0
  5
2BD5
 10
44.0913
 20
123.306
 30
0.000000
  70
    32
  0
VERTEX
  8
0
  5
2BD6
 10
44.0711
 20
123.325
 30
0.000000
  70
    32
  0
VERTEX
  8
0
  5
2BD7
 10
44.0505
 20
123.343
 30
0.000000
  70
    32
  0
VERTEX
  8
0
  5
2BD8
 10
44.0297
 20
123.361
 30
0.000000
  70
    32
  0
VERTEX
  8
0
  5
2BD9
 10
44.0087
 20
123.379
 30
0.000000
  70
    32
  0
VERTEX
  8
0
  5
2BDA
 10
43.9873
 20
123.397
 30
0.000000
  70
    32
  0
VERTEX
  8
0
  5
2BDB
 10
43.9657
 20
123.414
 30
0.000000
  70
    32
  0
VERTEX
  8
0
  5
2BDC
 10
43.9438
 20
123.431
 30
0.000000
  70
    32
  0
VERTEX
  8
0
  5
2BDD
 10
43.9216
 20
123.448
 30
0.000000
  70
    32
  0
VERTEX
  8
0
  5
2BDE
 10
43.8992
 20
123.465
 30
0.000000
  70
    32
  0
VERTEX
  8
0
  5
2BDF
 10
43.8765
 20
123.482
 30
0.000000
  70
    32
  0
VERTEX
  8
0
  5
2BE0
 10
43.8536
 20
123.498
 30
0.000000
  70
    32
  0
VERTEX
  8
0
  5
2BE1
 10
43.8304
 20
123.514
 30
0.000000
  70
    32
  0
VERTEX
  8
0
  5
2BE2
 10
43.8070
 20
123.530
 30
0.000000
  70
    32
  0
VERTEX
  8
0
  5
2BE3
 10
43.7833
 20
123.546
 30
0.000000
  70
    32
  0
VERTEX
  8
0
  5
2BE4
 10
43.7594
 20
123.561
 30
0.000000
  70
    32
  0
VERTEX
  8
0
  5
2BE5
 10
43.7352
 20
123.577
 30
0.000000
  70
    32
  0
VERTEX
  8
0
  5
2BE6
 10
43.7109
 20
123.592
 30
0.000000
  70
    32
  0
VERTEX
  8
0
  5
2BE7
 10
43.6863
 20
123.606
 30
0.000000
  70
    32
  0
VERTEX
  8
0
  5
2BE8
 10
43.6614
 20
123.621
 30
0.000000
  70
    32
  0
VERTEX
  8
0
  5
2BE9
 10
43.6364
 20
123.635
 30
0.000000
  70
    32
  0
VERTEX
  8
0
  5
2BEA
 10
43.6111
 20
123.649
 30
0.000000
  70
    32
  0
VERTEX
  8
0
  5
2BEB
 10
43.5856
 20
123.663
 30
0.000000
  70
    32
  0
VERTEX
  8
0
  5
2BEC
 10
43.5599
 20
123.676
 30
0.000000
  70
    32
  0
VERTEX
  8
0
  5
2BED
 10
43.5340
 20
123.690
 30
0.000000
  70
    32
  0
VERTEX
  8
0
  5
2BEE
 10
43.5079
 20
123.703
 30
0.000000
  70
    32
  0
VERTEX
  8
0
  5
2BEF
 10
43.4816
 20
123.715
 30
0.000000
  70
    32
  0
VERTEX
  8
0
  5
2BF0
 10
43.4551
 20
123.728
 30
0.000000
  70
    32
  0
VERTEX
  8
0
  5
2BF1
 10
43.4284
 20
123.740
 30
0.000000
  70
    32
  0
VERTEX
  8
0
  5
2BF2
 10
43.4016
 20
123.752
 30
0.000000
  70
    32
  0
VERTEX
  8
0
  5
2BF3
 10
43.3745
 20
123.764
 30
0.000000
  70
    32
  0
VERTEX
  8
0
  5
2BF4
 10
43.3473
 20
123.775
 30
0.000000
  70
    32
  0
VERTEX
  8
0
  5
2BF5
 10
43.3199
 20
123.786
 30
0.000000
  70
    32
  0
VERTEX
  8
0
  5
2BF6
 10
43.2923
 20
123.797
 30
0.000000
  70
    32
  0
VERTEX
  8
0
  5
2BF7
 10
43.2646
 20
123.808
 30
0.000000
  70
    32
  0
VERTEX
  8
0
  5
2BF8
 10
43.2367
 20
123.818
 30
0.000000
  70
    32
  0
VERTEX
  8
0
  5
2BF9
 10
43.2086
 20
123.828
 30
0.000000
  70
    32
  0
VERTEX
  8
0
  5
2BFA
 10
43.1804
 20
123.838
 30
0.000000
  70
    32
  0
VERTEX
  8
0
  5
2BFB
 10
43.1520
 20
123.848
 30
0.000000
  70
    32
  0
VERTEX
  8
0
  5
2BFC
 10
43.1235
 20
123.857
 30
0.000000
  70
    32
  0
VERTEX
  8
0
  5
2BFD
 10
43.0949
 20
123.866
 30
0.000000
  70
    32
  0
VERTEX
  8
0
  5
2BFE
 10
43.0661
 20
123.875
 30
0.000000
  70
    32
  0
VERTEX
  8
0
  5
2BFF
 10
43.0372
 20
123.883
 30
0.000000
  70
    32
  0
VERTEX
  8
0
  5
2C00
 10
43.0081
 20
123.891
 30
0.000000
  70
    32
  0
VERTEX
  8
0
  5
2C01
 10
42.9790
 20
123.899
 30
0.000000
  70
    32
  0
VERTEX
  8
0
  5
2C02
 10
42.9497
 20
123.907
 30
0.000000
  70
    32
  0
VERTEX
  8
0
  5
2C03
 10
42.9203
 20
123.914
 30
0.000000
  70
    32
  0
VERTEX
  8
0
  5
2C04
 10
42.8908
 20
123.921
 30
0.000000
  70
    32
  0
VERTEX
  8
0
  5
2C05
 10
42.8612
 20
123.928
 30
0.000000
  70
    32
  0
VERTEX
  8
0
  5
2C06
 10
42.8315
 20
123.934
 30
0.000000
  70
    32
  0
VERTEX
  8
0
  5
2C07
 10
42.8016
 20
123.940
 30
0.000000
  70
    32
  0
VERTEX
  8
0
  5
2C08
 10
42.7717
 20
123.946
 30
0.000000
  70
    32
  0
VERTEX
  8
0
  5
2C09
 10
42.7418
 20
123.951
 30
0.000000
  70
    32
  0
VERTEX
  8
0
  5
2C0A
 10
42.7117
 20
123.957
 30
0.000000
  70
    32
  0
VERTEX
  8
0
  5
2C0B
 10
42.6815
 20
123.962
 30
0.000000
  70
    32
  0
VERTEX
  8
0
  5
2C0C
 10
42.6513
 20
123.966
 30
0.000000
  70
    32
  0
VERTEX
  8
0
  5
2C0D
 10
42.6210
 20
123.971
 30
0.000000
  70
    32
  0
VERTEX
  8
0
  5
2C0E
 10
42.5907
 20
123.975
 30
0.000000
  70
    32
  0
VERTEX
  8
0
  5
2C0F
 10
42.5602
 20
123.978
 30
0.000000
  70
    32
  0
VERTEX
  8
0
  5
2C10
 10
42.5298
 20
123.982
 30
0.000000
  70
    32
  0
VERTEX
  8
0
  5
2C11
 10
42.4993
 20
123.985
 30
0.000000
  70
    32
  0
VERTEX
  8
0
  5
2C12
 10
42.4687
 20
123.988
 30
0.000000
  70
    32
  0
VERTEX
  8
0
  5
2C13
 10
42.4381
 20
123.990
 30
0.000000
  70
    32
  0
VERTEX
  8
0
  5
2C14
 10
42.4074
 20
123.993
 30
0.000000
  70
    32
  0
VERTEX
  8
0
  5
2C15
 10
42.3767
 20
123.995
 30
0.000000
  70
    32
  0
VERTEX
  8
0
  5
2C16
 10
42.3460
 20
123.996
 30
0.000000
  70
    32
  0
VERTEX
  8
0
  5
2C17
 10
42.3153
 20
123.998
 30
0.000000
  70
    32
  0
VERTEX
  8
0
  5
2C18
 10
42.2846
 20
123.999
 30
0.000000
  70
    32
  0
VERTEX
  8
0
  5
2C19
 10
42.2538
 20
123.999
 30
0.000000
  70
    32
  0
VERTEX
  8
0
  5
2C1A
 10
42.2230
 20
124.000
 30
0.000000
  70
    32
  0
VERTEX
  8
0
  5
2C1B
 10
42.1923
 20
124.000
 30
0.000000
  70
    32
  0
SEQEND
  8
0
  5
2C1C
  0
ARC
  5
270A
  8
0
 10
47.208715804266937
 20
130.93106966659681
 30
0.0
 40
1.064631737088876
 50
105.67595264568421
 51
178.60747473664679
  0
LINE
  5
270B
  8
0
 10
46.144398486289447
 20
124.0
 30
0.0
 11
46.144398486289433
 21
130.95694208956181
 31
0.0
  0
LINE
  5
270C
  8
0
 10
27.999999999999869
 20
124.0
 30
0.0
 11
46.144398486289461
 21
124.0000000000002
 31
0.0
  0
ARC
  5
270D
  8
0
 10
42.288735854722809
 20
125.26223951224929
 30
0.0
 40
4.0570165041249862
 50
306.47675052765601
 51
341.87295495833268
  0
ENDSEC
  0
EOF
