  0
SECTION
  2
HEADER
  9
$ACADVER
  1
AC1009
  9
$INSBASE
 10
0.0
 20
0.0
 30
0.0
  9
$EXTMIN
 10
0.0
 20
-2.960436562073669
 30
0.0
  9
$EXTMAX
 10
116.4870395634379
 20
140.99999998805009
 30
0.0
  9
$LIMMIN
 10
0.0
 20
0.0
  9
$LIMMAX
 10
12.0
 20
9.0
  9
$ORTHOMODE
 70
     1
  9
$REGENMODE
 70
     1
  9
$FILLMODE
 70
     1
  9
$QTEXTMODE
 70
     0
  9
$MIRRTEXT
 70
     0
  9
$DRAGMODE
 70
     2
  9
$LTSCALE
 40
10.0
  9
$OSMODE
 70
    37
  9
$ATTMODE
 70
     1
  9
$TEXTSIZE
 40
0.2
  9
$TRACEWID
 40
0.05
  9
$TEXTSTYLE
  7
STANDARD
  9
$CLAYER
  8
0
  9
$CELTYPE
  6
BYLAYER
  9
$CECOLOR
 62
   256
  9
$DIMSCALE
 40
1.0
  9
$DIMASZ
 40
0.18
  9
$DIMEXO
 40
0.0625
  9
$DIMDLI
 40
0.38
  9
$DIMRND
 40
0.0
  9
$DIMDLE
 40
0.0
  9
$DIMEXE
 40
0.18
  9
$DIMTP
 40
0.0
  9
$DIMTM
 40
0.0
  9
$DIMTXT
 40
0.18
  9
$DIMCEN
 40
0.09
  9
$DIMTSZ
 40
0.0
  9
$DIMTOL
 70
     0
  9
$DIMLIM
 70
     0
  9
$DIMTIH
 70
     1
  9
$DIMTOH
 70
     1
  9
$DIMSE1
 70
     0
  9
$DIMSE2
 70
     0
  9
$DIMTAD
 70
     0
  9
$DIMZIN
 70
     0
  9
$DIMBLK
  1

  9
$DIMASO
 70
     1
  9
$DIMSHO
 70
     1
  9
$DIMPOST
  1

  9
$DIMAPOST
  1

  9
$DIMALT
 70
     0
  9
$DIMALTD
 70
     2
  9
$DIMALTF
 40
25.399999999999999
  9
$DIMLFAC
 40
1.0
  9
$DIMTOFL
 70
     0
  9
$DIMTVP
 40
0.0
  9
$DIMTIX
 70
     0
  9
$DIMSOXD
 70
     0
  9
$DIMSAH
 70
     0
  9
$DIMBLK1
  1

  9
$DIMBLK2
  1

  9
$DIMSTYLE
  2
STANDARD
  9
$DIMCLRD
 70
     0
  9
$DIMCLRE
 70
     0
  9
$DIMCLRT
 70
     0
  9
$DIMTFAC
 40
1.0
  9
$DIMGAP
 40
0.09
  9
$LUNITS
 70
     2
  9
$LUPREC
 70
     4
  9
$SKETCHINC
 40
0.1
  9
$FILLETRAD
 40
1.5
  9
$AUNITS
 70
     0
  9
$AUPREC
 70
     0
  9
$MENU
  1
.
  9
$ELEVATION
 40
0.0
  9
$PELEVATION
 40
0.0
  9
$THICKNESS
 40
0.0
  9
$LIMCHECK
 70
     0
  9
$BLIPMODE
 70
     0
  9
$CHAMFERA
 40
0.0
  9
$CHAMFERB
 40
0.0
  9
$SKPOLY
 70
     0
  9
$TDCREATE
 40
2453083.4120647679
  9
$TDUPDATE
 40
2457497.6471010419
  9
$TDINDWG
 40
0.3813742708
  9
$TDUSRTIMER
 40
0.3813741551
  9
$USRTIMER
 70
     1
  9
$ANGBASE
 50
0.0
  9
$ANGDIR
 70
     0
  9
$PDMODE
 70
     0
  9
$PDSIZE
 40
0.0
  9
$PLINEWID
 40
0.0
  9
$COORDS
 70
     1
  9
$SPLFRAME
 70
     0
  9
$SPLINETYPE
 70
     6
  9
$SPLINESEGS
 70
     8
  9
$ATTDIA
 70
     0
  9
$ATTREQ
 70
     1
  9
$HANDLING
 70
     1
  9
$HANDSEED
  5
2B01
  9
$SURFTAB1
 70
     6
  9
$SURFTAB2
 70
     6
  9
$SURFTYPE
 70
     6
  9
$SURFU
 70
     6
  9
$SURFV
 70
     6
  9
$UCSNAME
  2

  9
$UCSORG
 10
0.0
 20
0.0
 30
0.0
  9
$UCSXDIR
 10
1.0
 20
0.0
 30
0.0
  9
$UCSYDIR
 10
0.0
 20
1.0
 30
0.0
  9
$PUCSNAME
  2

  9
$PUCSORG
 10
0.0
 20
0.0
 30
0.0
  9
$PUCSXDIR
 10
1.0
 20
0.0
 30
0.0
  9
$PUCSYDIR
 10
0.0
 20
1.0
 30
0.0
  9
$USERI1
 70
     0
  9
$USERI2
 70
     1
  9
$USERI3
 70
     0
  9
$USERI4
 70
     0
  9
$USERI5
 70
     0
  9
$USERR1
 40
0.0
  9
$USERR2
 40
0.0
  9
$USERR3
 40
0.0
  9
$USERR4
 40
0.0
  9
$USERR5
 40
0.0
  9
$WORLDVIEW
 70
     1
  9
$SHADEDGE
 70
     3
  9
$SHADEDIF
 70
    70
  9
$TILEMODE
 70
     1
  9
$MAXACTVP
 70
    64
  9
$PLIMCHECK
 70
     0
  9
$PEXTMIN
 10
0.0
 20
0.0
 30
0.0
  9
$PEXTMAX
 10
0.0
 20
0.0
 30
0.0
  9
$PLIMMIN
 10
0.0
 20
0.0
  9
$PLIMMAX
 10
12.0
 20
9.0
  9
$UNITMODE
 70
     0
  9
$VISRETAIN
 70
     1
  9
$PLINEGEN
 70
     0
  9
$PSLTSCALE
 70
     1
  0
ENDSEC
  0
SECTION
  2
TABLES
  0
TABLE
  2
VPORT
 70
     1
  0
VPORT
  2
*ACTIVE
 70
     0
 10
0.0
 20
0.0
 11
1.0
 21
1.0
 12
131.61531289641371
 22
69.019196497112134
 13
0.0
 23
0.0
 14
0.5
 24
0.5
 15
0.5
 25
0.5
 16
0.0
 26
0.0
 36
1.0
 17
0.0
 27
0.0
 37
0.0
 40
145.2260403106329
 41
2.6019575856443709
 42
50.0
 43
0.0
 44
0.0
 50
0.0
 51
0.0
 71
     0
 72
  1000
 73
     1
 74
     2
 75
     0
 76
     0
 77
     0
 78
     0
  0
ENDTAB
  0
TABLE
  2
LTYPE
 70
     3
  0
LTYPE
  2
CONTINUOUS
 70
     0
  3
Solid Line
 72
    65
 73
     0
 40
0.0
  0
LTYPE
  2
CENTER
 70
     0
  3
____ _ ____ _ ____ _ ____ _ ____ _ ____ _ ____
 72
    65
 73
     4
 40
2.0
 49
1.25
 49
-0.25
 49
0.25
 49
-0.25
  0
LTYPE
  2
PHANTOM2
 70
     0
  3
___ _ _ ___ _ _ ___ _ _ ___ _ _
 72
    65
 73
     6
 40
1.25
 49
0.625
 49
-0.125
 49
0.125
 49
-0.125
 49
0.125
 49
-0.125
  0
ENDTAB
  0
TABLE
  2
LAYER
 70
     2
  0
LAYER
  2
0
 70
     0
 62
     7
  6
CONTINUOUS
  0
LAYER
  2
1
 70
     0
 62
     1
  6
CENTER
  0
ENDTAB
  0
TABLE
  2
STYLE
 70
     2
  0
STYLE
  2
STANDARD
 70
     0
 40
0.0
 41
1.0
 50
0.0
 71
     0
 42
0.2
  3
simplex.shx
  4
bigfont.shx
  0
STYLE
  2
STANDARD1
 70
     0
 40
0.0
 41
1.0
 50
0.0
 71
     0
 42
3.0
  3
txt
  4

  0
ENDTAB
  0
TABLE
  2
VIEW
 70
     0
  0
ENDTAB
  0
TABLE
  2
UCS
 70
     0
  0
ENDTAB
  0
TABLE
  2
APPID
 70
     5
  0
APPID
  2
ACAD
 70
     0
  0
APPID
  2
DCO15
 70
     0
  0
APPID
  2
ACAD_MLEADERVER
 70
     0
  0
APPID
  2
ACAD_NAV_VCDISPLAY
 70
     0
  0
APPID
  2
ACAD_EXEMPT_FROM_CAD_STANDARDS
 70
     0
  0
ENDTAB
  0
TABLE
  2
DIMSTYLE
 70
     1
  0
DIMSTYLE
  2
STANDARD
 70
     0
  3

  4

  5

  6

  7

 40
1.0
 41
0.18
 42
0.0625
 43
0.38
 44
0.18
 45
0.0
 46
0.0
 47
0.0
 48
0.0
140
0.18
141
0.09
142
0.0
143
25.399999999999999
144
1.0
145
0.0
146
1.0
147
0.09
 71
     0
 72
     0
 73
     1
 74
     1
 75
     0
 76
     0
 77
     0
 78
     0
170
     0
171
     2
172
     0
173
     0
174
     0
175
     0
176
     0
177
     0
178
     0
  0
ENDTAB
  0
ENDSEC
  0
SECTION
  2
BLOCKS
  0
BLOCK
  8
0
  2
$MODEL_SPACE
 70
     0
 10
0.0
 20
0.0
 30
0.0
  3
$MODEL_SPACE
  1

  0
ENDBLK
  5
21
  8
0
  0
BLOCK
 67
     1
  8
0
  2
$PAPER_SPACE
 70
     0
 10
0.0
 20
0.0
 30
0.0
  3
$PAPER_SPACE
  1

  0
ENDBLK
  5
5B
 67
     1
  8
0
  0
ENDSEC
  0
SECTION
  2
ENTITIES
  0
LINE
  5
13CF
  8
0
 10
27.957898029330462
 20
134.03500845076309
 30
0.0
 11
46.143626673920757
 21
134.8013429590622
 31
0.0
  0
LINE
  5
144E
  8
0
 10
44.700237415958171
 20
82.000000000000057
 30
0.0
 11
44.499999999999979
 21
82.000000000000057
 31
0.0
  0
LINE
  5
1456
  8
0
 10
52.749999999999943
 20
95.000000000000057
 30
0.0
 11
47.249999999999929
 21
95.000000000000085
 31
0.0
  0
LINE
  5
1469
  8
0
 10
44.499999999999979
 20
63.00000000000005
 30
0.0
 11
55.499999999999979
 21
63.000000000000043
 31
0.0
  0
LINE
  5
146B
  8
0
 10
44.499999999999979
 20
64.650999999999925
 30
0.0
 11
55.5
 21
64.650999999999925
 31
0.0
  0
LINE
  5
147B
  8
0
 10
46.749999999999929
 20
94.500000000000057
 30
0.0
 11
46.749999999999929
 21
91.951088461392175
 31
0.0
  0
LINE
  5
1485
  8
1
 10
50.0
 20
30.0
 30
0.0
 11
49.999999999999957
 21
100.0000000000001
 31
0.0
  0
ARC
  5
14CF
  8
0
 10
40.132704598304862
 20
78.69905689745741
 30
0.0
 40
5.4744401076175118
 50
37.083167419832563
 51
75.53669752820764
  0
ARC
  5
14E1
  8
0
 10
50.000000000106581
 20
-15.99999999999994
 30
0.0
 40
108.0
 50
78.134937542536775
 51
101.86506245757479
  0
LINE
  5
14E3
  8
0
 10
26.999999999999989
 20
85.000000000000057
 30
0.0
 11
26.999999999999989
 21
88.713895925972139
 31
0.0
  0
ARC
  5
14E4
  8
0
 10
27.999999999999989
 20
85.000000000000057
 30
0.0
 40
1.0
 50
180.0
 51
270.0
  0
ARC
  5
14E5
  8
0
 10
28.000000000000021
 20
88.713895925972139
 30
0.0
 40
1.0
 50
101.8650624575735
 51
180.0
  0
ARC
  5
14E6
  8
0
 10
72.000000000000085
 20
88.713895925972139
 30
0.0
 40
1.0
 50
0.0
 51
78.134937542426457
  0
ARC
  5
14E7
  8
0
 10
72.000000000000057
 20
85.000000000000057
 30
0.0
 40
1.0
 50
270.0
 51
0.0
  0
LINE
  5
14E8
  8
0
 10
73.000000000000057
 20
85.000000000000057
 30
0.0
 11
73.000000000000028
 21
88.713895925972139
 31
0.0
  0
ARC
  5
14E9
  8
0
 10
52.791284195732977
 20
90.931069666596841
 30
0.0
 40
1.064631737088876
 50
1.392525263353187
 51
74.324047354315852
  0
LINE
  5
14EA
  8
0
 10
53.855601513710482
 20
84.000000000000057
 30
0.0
 11
53.855601513710504
 21
90.956942089561835
 31
0.0
  0
POLYLINE
  5
14EB
  8
0
 10
55.299762584041851
 20
81.999999999999929
 30
0.0
 66
     1
 70
     8
  0
VERTEX
  8
0
  5
27F5
 10
55.2998
 20
82.0000
 30
0.000000
  70
    32
  0
VERTEX
  8
0
  5
27F6
 10
55.3000
 20
82.0245
 30
0.000000
  70
    32
  0
VERTEX
  8
0
  5
27F7
 10
55.3005
 20
82.0491
 30
0.000000
  70
    32
  0
VERTEX
  8
0
  5
27F8
 10
55.3015
 20
82.0736
 30
0.000000
  70
    32
  0
VERTEX
  8
0
  5
27F9
 10
55.3028
 20
82.0981
 30
0.000000
  70
    32
  0
VERTEX
  8
0
  5
27FA
 10
55.3045
 20
82.1226
 30
0.000000
  70
    32
  0
VERTEX
  8
0
  5
27FB
 10
55.3066
 20
82.1471
 30
0.000000
  70
    32
  0
VERTEX
  8
0
  5
27FC
 10
55.3090
 20
82.1716
 30
0.000000
  70
    32
  0
VERTEX
  8
0
  5
27FD
 10
55.3118
 20
82.1960
 30
0.000000
  70
    32
  0
VERTEX
  8
0
  5
27FE
 10
55.3150
 20
82.2204
 30
0.000000
  70
    32
  0
VERTEX
  8
0
  5
27FF
 10
55.3186
 20
82.2448
 30
0.000000
  70
    32
  0
VERTEX
  8
0
  5
2800
 10
55.3226
 20
82.2692
 30
0.000000
  70
    32
  0
VERTEX
  8
0
  5
2801
 10
55.3269
 20
82.2935
 30
0.000000
  70
    32
  0
VERTEX
  8
0
  5
2802
 10
55.3316
 20
82.3177
 30
0.000000
  70
    32
  0
VERTEX
  8
0
  5
2803
 10
55.3367
 20
82.3419
 30
0.000000
  70
    32
  0
VERTEX
  8
0
  5
2804
 10
55.3421
 20
82.3661
 30
0.000000
  70
    32
  0
VERTEX
  8
0
  5
2805
 10
55.3480
 20
82.3902
 30
0.000000
  70
    32
  0
VERTEX
  8
0
  5
2806
 10
55.3541
 20
82.4142
 30
0.000000
  70
    32
  0
VERTEX
  8
0
  5
2807
 10
55.3607
 20
82.4382
 30
0.000000
  70
    32
  0
VERTEX
  8
0
  5
2808
 10
55.3676
 20
82.4621
 30
0.000000
  70
    32
  0
VERTEX
  8
0
  5
2809
 10
55.3749
 20
82.4860
 30
0.000000
  70
    32
  0
VERTEX
  8
0
  5
280A
 10
55.3826
 20
82.5097
 30
0.000000
  70
    32
  0
VERTEX
  8
0
  5
280B
 10
55.3906
 20
82.5334
 30
0.000000
  70
    32
  0
VERTEX
  8
0
  5
280C
 10
55.3990
 20
82.5570
 30
0.000000
  70
    32
  0
VERTEX
  8
0
  5
280D
 10
55.4078
 20
82.5806
 30
0.000000
  70
    32
  0
VERTEX
  8
0
  5
280E
 10
55.4169
 20
82.6040
 30
0.000000
  70
    32
  0
VERTEX
  8
0
  5
280F
 10
55.4263
 20
82.6274
 30
0.000000
  70
    32
  0
VERTEX
  8
0
  5
2810
 10
55.4362
 20
82.6506
 30
0.000000
  70
    32
  0
VERTEX
  8
0
  5
2811
 10
55.4464
 20
82.6738
 30
0.000000
  70
    32
  0
VERTEX
  8
0
  5
2812
 10
55.4569
 20
82.6968
 30
0.000000
  70
    32
  0
VERTEX
  8
0
  5
2813
 10
55.4678
 20
82.7198
 30
0.000000
  70
    32
  0
VERTEX
  8
0
  5
2814
 10
55.4791
 20
82.7426
 30
0.000000
  70
    32
  0
VERTEX
  8
0
  5
2815
 10
55.4907
 20
82.7654
 30
0.000000
  70
    32
  0
VERTEX
  8
0
  5
2816
 10
55.5026
 20
82.7880
 30
0.000000
  70
    32
  0
VERTEX
  8
0
  5
2817
 10
55.5149
 20
82.8105
 30
0.000000
  70
    32
  0
VERTEX
  8
0
  5
2818
 10
55.5276
 20
82.8329
 30
0.000000
  70
    32
  0
VERTEX
  8
0
  5
2819
 10
55.5406
 20
82.8551
 30
0.000000
  70
    32
  0
VERTEX
  8
0
  5
281A
 10
55.5539
 20
82.8772
 30
0.000000
  70
    32
  0
VERTEX
  8
0
  5
281B
 10
55.5676
 20
82.8992
 30
0.000000
  70
    32
  0
VERTEX
  8
0
  5
281C
 10
55.5816
 20
82.9211
 30
0.000000
  70
    32
  0
VERTEX
  8
0
  5
281D
 10
55.5959
 20
82.9428
 30
0.000000
  70
    32
  0
VERTEX
  8
0
  5
281E
 10
55.6106
 20
82.9644
 30
0.000000
  70
    32
  0
VERTEX
  8
0
  5
281F
 10
55.6256
 20
82.9858
 30
0.000000
  70
    32
  0
VERTEX
  8
0
  5
2820
 10
55.6409
 20
83.0071
 30
0.000000
  70
    32
  0
VERTEX
  8
0
  5
2821
 10
55.6566
 20
83.0282
 30
0.000000
  70
    32
  0
VERTEX
  8
0
  5
2822
 10
55.6726
 20
83.0492
 30
0.000000
  70
    32
  0
VERTEX
  8
0
  5
2823
 10
55.6889
 20
83.0700
 30
0.000000
  70
    32
  0
VERTEX
  8
0
  5
2824
 10
55.7055
 20
83.0906
 30
0.000000
  70
    32
  0
VERTEX
  8
0
  5
2825
 10
55.7224
 20
83.1111
 30
0.000000
  70
    32
  0
VERTEX
  8
0
  5
2826
 10
55.7397
 20
83.1315
 30
0.000000
  70
    32
  0
VERTEX
  8
0
  5
2827
 10
55.7573
 20
83.1516
 30
0.000000
  70
    32
  0
VERTEX
  8
0
  5
2828
 10
55.7751
 20
83.1716
 30
0.000000
  70
    32
  0
VERTEX
  8
0
  5
2829
 10
55.7933
 20
83.1914
 30
0.000000
  70
    32
  0
VERTEX
  8
0
  5
282A
 10
55.8118
 20
83.2110
 30
0.000000
  70
    32
  0
VERTEX
  8
0
  5
282B
 10
55.8306
 20
83.2305
 30
0.000000
  70
    32
  0
VERTEX
  8
0
  5
282C
 10
55.8497
 20
83.2497
 30
0.000000
  70
    32
  0
VERTEX
  8
0
  5
282D
 10
55.8690
 20
83.2688
 30
0.000000
  70
    32
  0
VERTEX
  8
0
  5
282E
 10
55.8887
 20
83.2877
 30
0.000000
  70
    32
  0
VERTEX
  8
0
  5
282F
 10
55.9087
 20
83.3063
 30
0.000000
  70
    32
  0
VERTEX
  8
0
  5
2830
 10
55.9289
 20
83.3248
 30
0.000000
  70
    32
  0
VERTEX
  8
0
  5
2831
 10
55.9495
 20
83.3431
 30
0.000000
  70
    32
  0
VERTEX
  8
0
  5
2832
 10
55.9703
 20
83.3612
 30
0.000000
  70
    32
  0
VERTEX
  8
0
  5
2833
 10
55.9913
 20
83.3791
 30
0.000000
  70
    32
  0
VERTEX
  8
0
  5
2834
 10
56.0127
 20
83.3968
 30
0.000000
  70
    32
  0
VERTEX
  8
0
  5
2835
 10
56.0343
 20
83.4142
 30
0.000000
  70
    32
  0
VERTEX
  8
0
  5
2836
 10
56.0562
 20
83.4315
 30
0.000000
  70
    32
  0
VERTEX
  8
0
  5
2837
 10
56.0784
 20
83.4485
 30
0.000000
  70
    32
  0
VERTEX
  8
0
  5
2838
 10
56.1008
 20
83.4653
 30
0.000000
  70
    32
  0
VERTEX
  8
0
  5
2839
 10
56.1235
 20
83.4819
 30
0.000000
  70
    32
  0
VERTEX
  8
0
  5
283A
 10
56.1464
 20
83.4983
 30
0.000000
  70
    32
  0
VERTEX
  8
0
  5
283B
 10
56.1696
 20
83.5144
 30
0.000000
  70
    32
  0
VERTEX
  8
0
  5
283C
 10
56.1930
 20
83.5303
 30
0.000000
  70
    32
  0
VERTEX
  8
0
  5
283D
 10
56.2167
 20
83.5460
 30
0.000000
  70
    32
  0
VERTEX
  8
0
  5
283E
 10
56.2406
 20
83.5615
 30
0.000000
  70
    32
  0
VERTEX
  8
0
  5
283F
 10
56.2648
 20
83.5767
 30
0.000000
  70
    32
  0
VERTEX
  8
0
  5
2840
 10
56.2891
 20
83.5917
 30
0.000000
  70
    32
  0
VERTEX
  8
0
  5
2841
 10
56.3137
 20
83.6064
 30
0.000000
  70
    32
  0
VERTEX
  8
0
  5
2842
 10
56.3386
 20
83.6209
 30
0.000000
  70
    32
  0
VERTEX
  8
0
  5
2843
 10
56.3636
 20
83.6352
 30
0.000000
  70
    32
  0
VERTEX
  8
0
  5
2844
 10
56.3889
 20
83.6492
 30
0.000000
  70
    32
  0
VERTEX
  8
0
  5
2845
 10
56.4144
 20
83.6629
 30
0.000000
  70
    32
  0
VERTEX
  8
0
  5
2846
 10
56.4401
 20
83.6764
 30
0.000000
  70
    32
  0
VERTEX
  8
0
  5
2847
 10
56.4660
 20
83.6897
 30
0.000000
  70
    32
  0
VERTEX
  8
0
  5
2848
 10
56.4921
 20
83.7027
 30
0.000000
  70
    32
  0
VERTEX
  8
0
  5
2849
 10
56.5184
 20
83.7155
 30
0.000000
  70
    32
  0
VERTEX
  8
0
  5
284A
 10
56.5449
 20
83.7279
 30
0.000000
  70
    32
  0
VERTEX
  8
0
  5
284B
 10
56.5716
 20
83.7402
 30
0.000000
  70
    32
  0
VERTEX
  8
0
  5
284C
 10
56.5984
 20
83.7521
 30
0.000000
  70
    32
  0
VERTEX
  8
0
  5
284D
 10
56.6255
 20
83.7638
 30
0.000000
  70
    32
  0
VERTEX
  8
0
  5
284E
 10
56.6527
 20
83.7753
 30
0.000000
  70
    32
  0
VERTEX
  8
0
  5
284F
 10
56.6801
 20
83.7864
 30
0.000000
  70
    32
  0
VERTEX
  8
0
  5
2850
 10
56.7077
 20
83.7973
 30
0.000000
  70
    32
  0
VERTEX
  8
0
  5
2851
 10
56.7354
 20
83.8080
 30
0.000000
  70
    32
  0
VERTEX
  8
0
  5
2852
 10
56.7633
 20
83.8183
 30
0.000000
  70
    32
  0
VERTEX
  8
0
  5
2853
 10
56.7914
 20
83.8284
 30
0.000000
  70
    32
  0
VERTEX
  8
0
  5
2854
 10
56.8196
 20
83.8382
 30
0.000000
  70
    32
  0
VERTEX
  8
0
  5
2855
 10
56.8480
 20
83.8478
 30
0.000000
  70
    32
  0
VERTEX
  8
0
  5
2856
 10
56.8765
 20
83.8570
 30
0.000000
  70
    32
  0
VERTEX
  8
0
  5
2857
 10
56.9051
 20
83.8660
 30
0.000000
  70
    32
  0
VERTEX
  8
0
  5
2858
 10
56.9339
 20
83.8747
 30
0.000000
  70
    32
  0
VERTEX
  8
0
  5
2859
 10
56.9628
 20
83.8831
 30
0.000000
  70
    32
  0
VERTEX
  8
0
  5
285A
 10
56.9919
 20
83.8912
 30
0.000000
  70
    32
  0
VERTEX
  8
0
  5
285B
 10
57.0210
 20
83.8991
 30
0.000000
  70
    32
  0
VERTEX
  8
0
  5
285C
 10
57.0503
 20
83.9066
 30
0.000000
  70
    32
  0
VERTEX
  8
0
  5
285D
 10
57.0797
 20
83.9139
 30
0.000000
  70
    32
  0
VERTEX
  8
0
  5
285E
 10
57.1092
 20
83.9209
 30
0.000000
  70
    32
  0
VERTEX
  8
0
  5
285F
 10
57.1388
 20
83.9276
 30
0.000000
  70
    32
  0
VERTEX
  8
0
  5
2860
 10
57.1685
 20
83.9340
 30
0.000000
  70
    32
  0
VERTEX
  8
0
  5
2861
 10
57.1984
 20
83.9401
 30
0.000000
  70
    32
  0
VERTEX
  8
0
  5
2862
 10
57.2283
 20
83.9459
 30
0.000000
  70
    32
  0
VERTEX
  8
0
  5
2863
 10
57.2582
 20
83.9514
 30
0.000000
  70
    32
  0
VERTEX
  8
0
  5
2864
 10
57.2883
 20
83.9566
 30
0.000000
  70
    32
  0
VERTEX
  8
0
  5
2865
 10
57.3185
 20
83.9616
 30
0.000000
  70
    32
  0
VERTEX
  8
0
  5
2866
 10
57.3487
 20
83.9662
 30
0.000000
  70
    32
  0
VERTEX
  8
0
  5
2867
 10
57.3790
 20
83.9706
 30
0.000000
  70
    32
  0
VERTEX
  8
0
  5
2868
 10
57.4093
 20
83.9746
 30
0.000000
  70
    32
  0
VERTEX
  8
0
  5
2869
 10
57.4398
 20
83.9784
 30
0.000000
  70
    32
  0
VERTEX
  8
0
  5
286A
 10
57.4702
 20
83.9818
 30
0.000000
  70
    32
  0
VERTEX
  8
0
  5
286B
 10
57.5007
 20
83.9850
 30
0.000000
  70
    32
  0
VERTEX
  8
0
  5
286C
 10
57.5313
 20
83.9878
 30
0.000000
  70
    32
  0
VERTEX
  8
0
  5
286D
 10
57.5619
 20
83.9904
 30
0.000000
  70
    32
  0
VERTEX
  8
0
  5
286E
 10
57.5926
 20
83.9926
 30
0.000000
  70
    32
  0
VERTEX
  8
0
  5
286F
 10
57.6233
 20
83.9946
 30
0.000000
  70
    32
  0
VERTEX
  8
0
  5
2870
 10
57.6540
 20
83.9962
 30
0.000000
  70
    32
  0
VERTEX
  8
0
  5
2871
 10
57.6847
 20
83.9976
 30
0.000000
  70
    32
  0
VERTEX
  8
0
  5
2872
 10
57.7154
 20
83.9986
 30
0.000000
  70
    32
  0
VERTEX
  8
0
  5
2873
 10
57.7462
 20
83.9994
 30
0.000000
  70
    32
  0
VERTEX
  8
0
  5
2874
 10
57.7770
 20
83.9998
 30
0.000000
  70
    32
  0
VERTEX
  8
0
  5
2875
 10
57.8077
 20
84.0000
 30
0.000000
  70
    32
  0
SEQEND
  8
0
  5
2876
  0
ARC
  5
14EC
  8
0
 10
59.867295401695301
 20
78.699056897457041
 30
0.0
 40
5.4744401076179008
 50
104.4633024717928
 51
142.91683258016559
  0
LINE
  5
14ED
  8
0
 10
72.000000000000057
 20
84.000000000000057
 30
0.0
 11
53.855601513710468
 21
84.000000000000256
 31
0.0
  0
LINE
  5
14EE
  8
0
 10
55.299762584041829
 20
82.000000000000057
 30
0.0
 11
55.499999999999972
 21
82.000000000000057
 31
0.0
  0
LINE
  5
14F9
  8
0
 10
53.249999999999929
 20
94.500000000000057
 30
0.0
 11
46.749999999999929
 21
94.500000000000057
 31
0.0
  0
ARC
  5
14FB
  8
0
 10
47.249999999999929
 20
94.500000000000057
 30
0.0
 40
0.5
 50
90.0
 51
180.0000000000006
  0
ARC
  5
14FF
  8
0
 10
52.749999999999943
 20
94.500000000000057
 30
0.0
 40
0.5
 50
359.99999999999932
 51
90.0
  0
LINE
  5
1500
  8
0
 10
53.249999999999929
 20
94.500000000000057
 30
0.0
 11
53.249999999999929
 21
91.951088461392175
 31
0.0
  0
LINE
  5
151D
  8
0
 10
105.96499154918961
 20
84.000000000000028
 30
0.0
 11
111.0350084508102
 21
84.000000000000028
 31
0.0
  0
LINE
  5
153B
  8
0
 10
105.96499154918961
 20
89.69253046737964
 30
0.0
 11
111.0350084508102
 21
89.692530467379527
 31
0.0
  0
LINE
  5
1546
  8
0
 10
112.1555749250759
 20
81.99999999999855
 30
0.0
 11
104.8444250749239
 21
81.99999999999855
 31
0.0
  0
LINE
  5
1678
  8
1
 10
108.5
 20
30.000000000000028
 30
0.0
 11
108.4999999999999
 21
100.0
 31
0.0
  0
LINE
  5
167D
  8
0
 10
103.0
 20
64.650999999999925
 30
0.0
 11
114.0
 21
64.650999999999897
 31
0.0
  0
LINE
  5
167E
  8
0
 10
102.9999999999999
 20
63.000000000000043
 30
0.0
 11
113.9999999999999
 21
63.000000000000028
 31
0.0
  0
LINE
  5
1685
  8
0
 10
111.7499999999999
 20
94.500000000000057
 30
0.0
 11
111.7499999999998
 21
92.000000000000014
 31
0.0
  0
ARC
  5
1686
  8
0
 10
111.2499999999999
 20
94.500000000000057
 30
0.0
 40
0.5
 50
359.99999999999932
 51
90.0
  0
LINE
  5
1687
  8
0
 10
111.7499999999999
 20
94.500000000000057
 30
0.0
 11
105.2499999999999
 21
94.500000000000057
 31
0.0
  0
LINE
  5
1688
  8
0
 10
111.2499999999999
 20
95.000000000000057
 30
0.0
 11
105.7499999999998
 21
95.000000000000085
 31
0.0
  0
ARC
  5
1689
  8
0
 10
105.7499999999998
 20
94.500000000000057
 30
0.0
 40
0.5
 50
90.0
 51
180.0000000000006
  0
LINE
  5
168A
  8
0
 10
105.2499999999999
 20
94.500000000000057
 30
0.0
 11
105.2499999999999
 21
92.000000000000014
 31
0.0
  0
LINE
  5
168D
  8
1
 10
21.999999999999972
 20
130.49999999995271
 30
0.0
 11
77.999999999999972
 21
130.49999999995271
 31
0.0
  0
LINE
  5
168E
  8
1
 10
49.999999999999957
 20
120.0000000000001
 30
0.0
 11
49.999999999999957
 21
140.99999998805009
 31
0.0
  0
LINE
  5
1694
  8
0
 10
26.999999999999972
 20
127.96410486807351
 30
0.0
 11
26.999999999999972
 21
133.03589513183189
 31
0.0
  0
ARC
  5
1695
  8
0
 10
27.999999999999972
 20
133.03589513183189
 30
0.0
 40
1.0
 50
92.412978451483923
 51
180.0
  0
ARC
  5
169C
  8
0
 10
27.999999999999972
 20
127.96410486807351
 30
0.0
 40
1.0
 50
180.0
 51
267.58702154851602
  0
LINE
  5
169D
  8
0
 10
27.957898029330462
 20
126.9649915491423
 30
0.0
 11
46.143626673920743
 21
126.1986570408432
 31
0.0
  0
LINE
  5
16A8
  8
0
 10
72.042101970669478
 20
126.9649915491423
 30
0.0
 11
53.855601513710504
 21
126.1986245171833
 31
0.0
  0
ARC
  5
16A9
  8
0
 10
71.999999999999972
 20
127.96410486807351
 30
0.0
 40
1.0
 50
272.41297845148398
 51
0.0
  0
LINE
  5
16AA
  8
0
 10
72.999999999999972
 20
127.96410486807351
 30
0.0
 11
72.999999999999972
 21
133.03589513183189
 31
0.0
  0
ARC
  5
16AB
  8
0
 10
71.999999999999972
 20
133.03589513183189
 30
0.0
 40
1.0
 50
0.0
 51
87.587021548516034
  0
LINE
  5
16AC
  8
0
 10
72.042101970669478
 20
134.03500845076309
 30
0.0
 11
53.85560151371056
 21
134.80137548272211
 31
0.0
  0
CIRCLE
  5
16B5
  8
0
 10
49.999999999999957
 20
130.49999999995271
 30
0.0
 40
2.7499999999999711
  0
CIRCLE
  5
16B6
  8
0
 10
49.999999999999957
 20
130.49999999995271
 30
0.0
 40
3.2499999999999711
  0
CIRCLE
  5
16B8
  8
0
 10
68.761085088233727
 20
130.5000773436696
 30
0.0
 40
1.6000000000000001
  0
CIRCLE
  5
16B9
  8
0
 10
68.761085088233727
 20
130.5000773436696
 30
0.0
 40
1.75
  0
LINE
  5
16D4
  8
0
 10
103.9999999999999
 20
92.000000000000014
 30
0.0
 11
113.0
 21
92.000000000000014
 31
0.0
  0
ARC
  5
16D6
  8
0
 10
103.9999999999999
 20
91.000000000000028
 30
0.0
 40
1.0
 50
90.0
 51
180.0
  0
ARC
  5
16D7
  8
0
 10
113.0
 20
91.000000000000028
 30
0.0
 40
1.0
 50
0.0
 51
90.0
  0
LINE
  5
1924
  8
0
 10
111.9270113598387
 20
92.000000000000014
 30
0.0
 11
105.0729886401612
 21
92.000000000000014
 31
0.0
  0
LINE
  5
1925
  8
0
 10
112.0350084508103
 20
88.692530467379555
 30
0.0
 11
112.0350084508103
 21
85.000000000000028
 31
0.0
  0
ARC
  5
1926
  8
0
 10
111.0350084508102
 20
88.692530467379555
 30
0.0
 40
1.0
 50
0.0
 51
89.999999999999474
  0
LINE
  5
1927
  8
0
 10
113.1555749250758
 20
90.500000000000014
 30
0.0
 11
113.1555749250758
 21
83.499999999998522
 31
0.0
  0
POLYLINE
  5
192B
  8
0
 10
113.1555749250759
 20
90.500000000000014
 30
0.0
 66
     1
 70
     8
  0
VERTEX
  8
0
  5
2877
 10
113.156
 20
90.5000
 30
0.000000
  70
    32
  0
VERTEX
  8
0
  5
2878
 10
113.155
 20
90.5184
 30
0.000000
  70
    32
  0
VERTEX
  8
0
  5
2879
 10
113.155
 20
90.5368
 30
0.000000
  70
    32
  0
VERTEX
  8
0
  5
287A
 10
113.155
 20
90.5552
 30
0.000000
  70
    32
  0
VERTEX
  8
0
  5
287B
 10
113.154
 20
90.5736
 30
0.000000
  70
    32
  0
VERTEX
  8
0
  5
287C
 10
113.154
 20
90.5920
 30
0.000000
  70
    32
  0
VERTEX
  8
0
  5
287D
 10
113.153
 20
90.6103
 30
0.000000
  70
    32
  0
VERTEX
  8
0
  5
287E
 10
113.152
 20
90.6287
 30
0.000000
  70
    32
  0
VERTEX
  8
0
  5
287F
 10
113.151
 20
90.6470
 30
0.000000
  70
    32
  0
VERTEX
  8
0
  5
2880
 10
113.149
 20
90.6653
 30
0.000000
  70
    32
  0
VERTEX
  8
0
  5
2881
 10
113.148
 20
90.6836
 30
0.000000
  70
    32
  0
VERTEX
  8
0
  5
2882
 10
113.146
 20
90.7019
 30
0.000000
  70
    32
  0
VERTEX
  8
0
  5
2883
 10
113.145
 20
90.7201
 30
0.000000
  70
    32
  0
VERTEX
  8
0
  5
2884
 10
113.143
 20
90.7383
 30
0.000000
  70
    32
  0
VERTEX
  8
0
  5
2885
 10
113.141
 20
90.7564
 30
0.000000
  70
    32
  0
VERTEX
  8
0
  5
2886
 10
113.139
 20
90.7746
 30
0.000000
  70
    32
  0
VERTEX
  8
0
  5
2887
 10
113.136
 20
90.7926
 30
0.000000
  70
    32
  0
VERTEX
  8
0
  5
2888
 10
113.134
 20
90.8107
 30
0.000000
  70
    32
  0
VERTEX
  8
0
  5
2889
 10
113.131
 20
90.8287
 30
0.000000
  70
    32
  0
VERTEX
  8
0
  5
288A
 10
113.129
 20
90.8466
 30
0.000000
  70
    32
  0
VERTEX
  8
0
  5
288B
 10
113.126
 20
90.8645
 30
0.000000
  70
    32
  0
VERTEX
  8
0
  5
288C
 10
113.123
 20
90.8823
 30
0.000000
  70
    32
  0
VERTEX
  8
0
  5
288D
 10
113.119
 20
90.9001
 30
0.000000
  70
    32
  0
VERTEX
  8
0
  5
288E
 10
113.116
 20
90.9178
 30
0.000000
  70
    32
  0
VERTEX
  8
0
  5
288F
 10
113.113
 20
90.9354
 30
0.000000
  70
    32
  0
VERTEX
  8
0
  5
2890
 10
113.109
 20
90.9530
 30
0.000000
  70
    32
  0
VERTEX
  8
0
  5
2891
 10
113.105
 20
90.9705
 30
0.000000
  70
    32
  0
VERTEX
  8
0
  5
2892
 10
113.101
 20
90.9880
 30
0.000000
  70
    32
  0
VERTEX
  8
0
  5
2893
 10
113.097
 20
91.0053
 30
0.000000
  70
    32
  0
VERTEX
  8
0
  5
2894
 10
113.093
 20
91.0226
 30
0.000000
  70
    32
  0
VERTEX
  8
0
  5
2895
 10
113.089
 20
91.0398
 30
0.000000
  70
    32
  0
VERTEX
  8
0
  5
2896
 10
113.084
 20
91.0570
 30
0.000000
  70
    32
  0
VERTEX
  8
0
  5
2897
 10
113.079
 20
91.0740
 30
0.000000
  70
    32
  0
VERTEX
  8
0
  5
2898
 10
113.075
 20
91.0910
 30
0.000000
  70
    32
  0
VERTEX
  8
0
  5
2899
 10
113.070
 20
91.1079
 30
0.000000
  70
    32
  0
VERTEX
  8
0
  5
289A
 10
113.065
 20
91.1246
 30
0.000000
  70
    32
  0
VERTEX
  8
0
  5
289B
 10
113.060
 20
91.1413
 30
0.000000
  70
    32
  0
VERTEX
  8
0
  5
289C
 10
113.054
 20
91.1579
 30
0.000000
  70
    32
  0
VERTEX
  8
0
  5
289D
 10
113.049
 20
91.1744
 30
0.000000
  70
    32
  0
VERTEX
  8
0
  5
289E
 10
113.043
 20
91.1908
 30
0.000000
  70
    32
  0
VERTEX
  8
0
  5
289F
 10
113.037
 20
91.2071
 30
0.000000
  70
    32
  0
VERTEX
  8
0
  5
28A0
 10
113.032
 20
91.2233
 30
0.000000
  70
    32
  0
VERTEX
  8
0
  5
28A1
 10
113.026
 20
91.2393
 30
0.000000
  70
    32
  0
VERTEX
  8
0
  5
28A2
 10
113.020
 20
91.2553
 30
0.000000
  70
    32
  0
VERTEX
  8
0
  5
28A3
 10
113.013
 20
91.2712
 30
0.000000
  70
    32
  0
VERTEX
  8
0
  5
28A4
 10
113.007
 20
91.2869
 30
0.000000
  70
    32
  0
VERTEX
  8
0
  5
28A5
 10
113.000
 20
91.3025
 30
0.000000
  70
    32
  0
VERTEX
  8
0
  5
28A6
 10
112.994
 20
91.3180
 30
0.000000
  70
    32
  0
VERTEX
  8
0
  5
28A7
 10
112.987
 20
91.3334
 30
0.000000
  70
    32
  0
VERTEX
  8
0
  5
28A8
 10
112.980
 20
91.3486
 30
0.000000
  70
    32
  0
VERTEX
  8
0
  5
28A9
 10
112.973
 20
91.3637
 30
0.000000
  70
    32
  0
VERTEX
  8
0
  5
28AA
 10
112.966
 20
91.3787
 30
0.000000
  70
    32
  0
VERTEX
  8
0
  5
28AB
 10
112.959
 20
91.3935
 30
0.000000
  70
    32
  0
VERTEX
  8
0
  5
28AC
 10
112.951
 20
91.4083
 30
0.000000
  70
    32
  0
VERTEX
  8
0
  5
28AD
 10
112.944
 20
91.4228
 30
0.000000
  70
    32
  0
VERTEX
  8
0
  5
28AE
 10
112.936
 20
91.4373
 30
0.000000
  70
    32
  0
VERTEX
  8
0
  5
28AF
 10
112.929
 20
91.4516
 30
0.000000
  70
    32
  0
VERTEX
  8
0
  5
28B0
 10
112.921
 20
91.4657
 30
0.000000
  70
    32
  0
VERTEX
  8
0
  5
28B1
 10
112.913
 20
91.4798
 30
0.000000
  70
    32
  0
VERTEX
  8
0
  5
28B2
 10
112.905
 20
91.4936
 30
0.000000
  70
    32
  0
VERTEX
  8
0
  5
28B3
 10
112.897
 20
91.5073
 30
0.000000
  70
    32
  0
VERTEX
  8
0
  5
28B4
 10
112.888
 20
91.5209
 30
0.000000
  70
    32
  0
VERTEX
  8
0
  5
28B5
 10
112.880
 20
91.5343
 30
0.000000
  70
    32
  0
VERTEX
  8
0
  5
28B6
 10
112.871
 20
91.5476
 30
0.000000
  70
    32
  0
VERTEX
  8
0
  5
28B7
 10
112.863
 20
91.5607
 30
0.000000
  70
    32
  0
VERTEX
  8
0
  5
28B8
 10
112.854
 20
91.5736
 30
0.000000
  70
    32
  0
VERTEX
  8
0
  5
28B9
 10
112.845
 20
91.5864
 30
0.000000
  70
    32
  0
VERTEX
  8
0
  5
28BA
 10
112.836
 20
91.5990
 30
0.000000
  70
    32
  0
VERTEX
  8
0
  5
28BB
 10
112.827
 20
91.6114
 30
0.000000
  70
    32
  0
VERTEX
  8
0
  5
28BC
 10
112.818
 20
91.6237
 30
0.000000
  70
    32
  0
VERTEX
  8
0
  5
28BD
 10
112.809
 20
91.6358
 30
0.000000
  70
    32
  0
VERTEX
  8
0
  5
28BE
 10
112.799
 20
91.6478
 30
0.000000
  70
    32
  0
VERTEX
  8
0
  5
28BF
 10
112.790
 20
91.6595
 30
0.000000
  70
    32
  0
VERTEX
  8
0
  5
28C0
 10
112.780
 20
91.6711
 30
0.000000
  70
    32
  0
VERTEX
  8
0
  5
28C1
 10
112.771
 20
91.6825
 30
0.000000
  70
    32
  0
VERTEX
  8
0
  5
28C2
 10
112.761
 20
91.6938
 30
0.000000
  70
    32
  0
VERTEX
  8
0
  5
28C3
 10
112.751
 20
91.7048
 30
0.000000
  70
    32
  0
VERTEX
  8
0
  5
28C4
 10
112.741
 20
91.7157
 30
0.000000
  70
    32
  0
VERTEX
  8
0
  5
28C5
 10
112.731
 20
91.7264
 30
0.000000
  70
    32
  0
VERTEX
  8
0
  5
28C6
 10
112.721
 20
91.7369
 30
0.000000
  70
    32
  0
VERTEX
  8
0
  5
28C7
 10
112.711
 20
91.7472
 30
0.000000
  70
    32
  0
VERTEX
  8
0
  5
28C8
 10
112.701
 20
91.7573
 30
0.000000
  70
    32
  0
VERTEX
  8
0
  5
28C9
 10
112.691
 20
91.7673
 30
0.000000
  70
    32
  0
VERTEX
  8
0
  5
28CA
 10
112.680
 20
91.7770
 30
0.000000
  70
    32
  0
VERTEX
  8
0
  5
28CB
 10
112.670
 20
91.7866
 30
0.000000
  70
    32
  0
VERTEX
  8
0
  5
28CC
 10
112.659
 20
91.7960
 30
0.000000
  70
    32
  0
VERTEX
  8
0
  5
28CD
 10
112.648
 20
91.8051
 30
0.000000
  70
    32
  0
VERTEX
  8
0
  5
28CE
 10
112.638
 20
91.8141
 30
0.000000
  70
    32
  0
VERTEX
  8
0
  5
28CF
 10
112.627
 20
91.8229
 30
0.000000
  70
    32
  0
VERTEX
  8
0
  5
28D0
 10
112.616
 20
91.8315
 30
0.000000
  70
    32
  0
VERTEX
  8
0
  5
28D1
 10
112.605
 20
91.8398
 30
0.000000
  70
    32
  0
VERTEX
  8
0
  5
28D2
 10
112.594
 20
91.8480
 30
0.000000
  70
    32
  0
VERTEX
  8
0
  5
28D3
 10
112.583
 20
91.8560
 30
0.000000
  70
    32
  0
VERTEX
  8
0
  5
28D4
 10
112.572
 20
91.8638
 30
0.000000
  70
    32
  0
VERTEX
  8
0
  5
28D5
 10
112.561
 20
91.8713
 30
0.000000
  70
    32
  0
VERTEX
  8
0
  5
28D6
 10
112.550
 20
91.8787
 30
0.000000
  70
    32
  0
VERTEX
  8
0
  5
28D7
 10
112.538
 20
91.8858
 30
0.000000
  70
    32
  0
VERTEX
  8
0
  5
28D8
 10
112.527
 20
91.8928
 30
0.000000
  70
    32
  0
VERTEX
  8
0
  5
28D9
 10
112.515
 20
91.8995
 30
0.000000
  70
    32
  0
VERTEX
  8
0
  5
28DA
 10
112.504
 20
91.9060
 30
0.000000
  70
    32
  0
VERTEX
  8
0
  5
28DB
 10
112.492
 20
91.9123
 30
0.000000
  70
    32
  0
VERTEX
  8
0
  5
28DC
 10
112.481
 20
91.9184
 30
0.000000
  70
    32
  0
VERTEX
  8
0
  5
28DD
 10
112.469
 20
91.9243
 30
0.000000
  70
    32
  0
VERTEX
  8
0
  5
28DE
 10
112.458
 20
91.9300
 30
0.000000
  70
    32
  0
VERTEX
  8
0
  5
28DF
 10
112.446
 20
91.9354
 30
0.000000
  70
    32
  0
VERTEX
  8
0
  5
28E0
 10
112.434
 20
91.9406
 30
0.000000
  70
    32
  0
VERTEX
  8
0
  5
28E1
 10
112.422
 20
91.9457
 30
0.000000
  70
    32
  0
VERTEX
  8
0
  5
28E2
 10
112.410
 20
91.9505
 30
0.000000
  70
    32
  0
VERTEX
  8
0
  5
28E3
 10
112.399
 20
91.9550
 30
0.000000
  70
    32
  0
VERTEX
  8
0
  5
28E4
 10
112.387
 20
91.9594
 30
0.000000
  70
    32
  0
VERTEX
  8
0
  5
28E5
 10
112.375
 20
91.9636
 30
0.000000
  70
    32
  0
VERTEX
  8
0
  5
28E6
 10
112.363
 20
91.9675
 30
0.000000
  70
    32
  0
VERTEX
  8
0
  5
28E7
 10
112.351
 20
91.9712
 30
0.000000
  70
    32
  0
VERTEX
  8
0
  5
28E8
 10
112.339
 20
91.9747
 30
0.000000
  70
    32
  0
VERTEX
  8
0
  5
28E9
 10
112.327
 20
91.9779
 30
0.000000
  70
    32
  0
VERTEX
  8
0
  5
28EA
 10
112.314
 20
91.9810
 30
0.000000
  70
    32
  0
VERTEX
  8
0
  5
28EB
 10
112.302
 20
91.9838
 30
0.000000
  70
    32
  0
VERTEX
  8
0
  5
28EC
 10
112.290
 20
91.9864
 30
0.000000
  70
    32
  0
VERTEX
  8
0
  5
28ED
 10
112.278
 20
91.9887
 30
0.000000
  70
    32
  0
VERTEX
  8
0
  5
28EE
 10
112.266
 20
91.9909
 30
0.000000
  70
    32
  0
VERTEX
  8
0
  5
28EF
 10
112.254
 20
91.9928
 30
0.000000
  70
    32
  0
VERTEX
  8
0
  5
28F0
 10
112.241
 20
91.9945
 30
0.000000
  70
    32
  0
VERTEX
  8
0
  5
28F1
 10
112.229
 20
91.9959
 30
0.000000
  70
    32
  0
VERTEX
  8
0
  5
28F2
 10
112.217
 20
91.9972
 30
0.000000
  70
    32
  0
VERTEX
  8
0
  5
28F3
 10
112.205
 20
91.9982
 30
0.000000
  70
    32
  0
VERTEX
  8
0
  5
28F4
 10
112.192
 20
91.9990
 30
0.000000
  70
    32
  0
VERTEX
  8
0
  5
28F5
 10
112.180
 20
91.9995
 30
0.000000
  70
    32
  0
VERTEX
  8
0
  5
28F6
 10
112.168
 20
91.9999
 30
0.000000
  70
    32
  0
VERTEX
  8
0
  5
28F7
 10
112.156
 20
92.0000
 30
0.000000
  70
    32
  0
SEQEND
  8
0
  5
28F8
  0
POLYLINE
  5
192D
  8
0
 10
113.1555749250759
 20
83.49999999999855
 30
0.0
 66
     1
 70
     8
  0
VERTEX
  8
0
  5
28F9
 10
113.156
 20
83.5000
 30
0.000000
  70
    32
  0
VERTEX
  8
0
  5
28FA
 10
113.155
 20
83.4816
 30
0.000000
  70
    32
  0
VERTEX
  8
0
  5
28FB
 10
113.155
 20
83.4632
 30
0.000000
  70
    32
  0
VERTEX
  8
0
  5
28FC
 10
113.155
 20
83.4448
 30
0.000000
  70
    32
  0
VERTEX
  8
0
  5
28FD
 10
113.154
 20
83.4264
 30
0.000000
  70
    32
  0
VERTEX
  8
0
  5
28FE
 10
113.154
 20
83.4080
 30
0.000000
  70
    32
  0
VERTEX
  8
0
  5
28FF
 10
113.153
 20
83.3897
 30
0.000000
  70
    32
  0
VERTEX
  8
0
  5
2900
 10
113.152
 20
83.3713
 30
0.000000
  70
    32
  0
VERTEX
  8
0
  5
2901
 10
113.151
 20
83.3530
 30
0.000000
  70
    32
  0
VERTEX
  8
0
  5
2902
 10
113.149
 20
83.3347
 30
0.000000
  70
    32
  0
VERTEX
  8
0
  5
2903
 10
113.148
 20
83.3164
 30
0.000000
  70
    32
  0
VERTEX
  8
0
  5
2904
 10
113.146
 20
83.2981
 30
0.000000
  70
    32
  0
VERTEX
  8
0
  5
2905
 10
113.145
 20
83.2799
 30
0.000000
  70
    32
  0
VERTEX
  8
0
  5
2906
 10
113.143
 20
83.2617
 30
0.000000
  70
    32
  0
VERTEX
  8
0
  5
2907
 10
113.141
 20
83.2436
 30
0.000000
  70
    32
  0
VERTEX
  8
0
  5
2908
 10
113.139
 20
83.2254
 30
0.000000
  70
    32
  0
VERTEX
  8
0
  5
2909
 10
113.136
 20
83.2074
 30
0.000000
  70
    32
  0
VERTEX
  8
0
  5
290A
 10
113.134
 20
83.1893
 30
0.000000
  70
    32
  0
VERTEX
  8
0
  5
290B
 10
113.131
 20
83.1713
 30
0.000000
  70
    32
  0
VERTEX
  8
0
  5
290C
 10
113.129
 20
83.1534
 30
0.000000
  70
    32
  0
VERTEX
  8
0
  5
290D
 10
113.126
 20
83.1355
 30
0.000000
  70
    32
  0
VERTEX
  8
0
  5
290E
 10
113.123
 20
83.1177
 30
0.000000
  70
    32
  0
VERTEX
  8
0
  5
290F
 10
113.119
 20
83.0999
 30
0.000000
  70
    32
  0
VERTEX
  8
0
  5
2910
 10
113.116
 20
83.0822
 30
0.000000
  70
    32
  0
VERTEX
  8
0
  5
2911
 10
113.113
 20
83.0646
 30
0.000000
  70
    32
  0
VERTEX
  8
0
  5
2912
 10
113.109
 20
83.0470
 30
0.000000
  70
    32
  0
VERTEX
  8
0
  5
2913
 10
113.105
 20
83.0295
 30
0.000000
  70
    32
  0
VERTEX
  8
0
  5
2914
 10
113.101
 20
83.0120
 30
0.000000
  70
    32
  0
VERTEX
  8
0
  5
2915
 10
113.097
 20
82.9947
 30
0.000000
  70
    32
  0
VERTEX
  8
0
  5
2916
 10
113.093
 20
82.9774
 30
0.000000
  70
    32
  0
VERTEX
  8
0
  5
2917
 10
113.089
 20
82.9602
 30
0.000000
  70
    32
  0
VERTEX
  8
0
  5
2918
 10
113.084
 20
82.9430
 30
0.000000
  70
    32
  0
VERTEX
  8
0
  5
2919
 10
113.079
 20
82.9260
 30
0.000000
  70
    32
  0
VERTEX
  8
0
  5
291A
 10
113.075
 20
82.9090
 30
0.000000
  70
    32
  0
VERTEX
  8
0
  5
291B
 10
113.070
 20
82.8921
 30
0.000000
  70
    32
  0
VERTEX
  8
0
  5
291C
 10
113.065
 20
82.8754
 30
0.000000
  70
    32
  0
VERTEX
  8
0
  5
291D
 10
113.060
 20
82.8587
 30
0.000000
  70
    32
  0
VERTEX
  8
0
  5
291E
 10
113.054
 20
82.8421
 30
0.000000
  70
    32
  0
VERTEX
  8
0
  5
291F
 10
113.049
 20
82.8256
 30
0.000000
  70
    32
  0
VERTEX
  8
0
  5
2920
 10
113.043
 20
82.8092
 30
0.000000
  70
    32
  0
VERTEX
  8
0
  5
2921
 10
113.037
 20
82.7929
 30
0.000000
  70
    32
  0
VERTEX
  8
0
  5
2922
 10
113.032
 20
82.7767
 30
0.000000
  70
    32
  0
VERTEX
  8
0
  5
2923
 10
113.026
 20
82.7607
 30
0.000000
  70
    32
  0
VERTEX
  8
0
  5
2924
 10
113.020
 20
82.7447
 30
0.000000
  70
    32
  0
VERTEX
  8
0
  5
2925
 10
113.013
 20
82.7288
 30
0.000000
  70
    32
  0
VERTEX
  8
0
  5
2926
 10
113.007
 20
82.7131
 30
0.000000
  70
    32
  0
VERTEX
  8
0
  5
2927
 10
113.000
 20
82.6975
 30
0.000000
  70
    32
  0
VERTEX
  8
0
  5
2928
 10
112.994
 20
82.6820
 30
0.000000
  70
    32
  0
VERTEX
  8
0
  5
2929
 10
112.987
 20
82.6666
 30
0.000000
  70
    32
  0
VERTEX
  8
0
  5
292A
 10
112.980
 20
82.6514
 30
0.000000
  70
    32
  0
VERTEX
  8
0
  5
292B
 10
112.973
 20
82.6363
 30
0.000000
  70
    32
  0
VERTEX
  8
0
  5
292C
 10
112.966
 20
82.6213
 30
0.000000
  70
    32
  0
VERTEX
  8
0
  5
292D
 10
112.959
 20
82.6065
 30
0.000000
  70
    32
  0
VERTEX
  8
0
  5
292E
 10
112.951
 20
82.5917
 30
0.000000
  70
    32
  0
VERTEX
  8
0
  5
292F
 10
112.944
 20
82.5772
 30
0.000000
  70
    32
  0
VERTEX
  8
0
  5
2930
 10
112.936
 20
82.5627
 30
0.000000
  70
    32
  0
VERTEX
  8
0
  5
2931
 10
112.929
 20
82.5484
 30
0.000000
  70
    32
  0
VERTEX
  8
0
  5
2932
 10
112.921
 20
82.5343
 30
0.000000
  70
    32
  0
VERTEX
  8
0
  5
2933
 10
112.913
 20
82.5202
 30
0.000000
  70
    32
  0
VERTEX
  8
0
  5
2934
 10
112.905
 20
82.5064
 30
0.000000
  70
    32
  0
VERTEX
  8
0
  5
2935
 10
112.897
 20
82.4927
 30
0.000000
  70
    32
  0
VERTEX
  8
0
  5
2936
 10
112.888
 20
82.4791
 30
0.000000
  70
    32
  0
VERTEX
  8
0
  5
2937
 10
112.880
 20
82.4657
 30
0.000000
  70
    32
  0
VERTEX
  8
0
  5
2938
 10
112.871
 20
82.4524
 30
0.000000
  70
    32
  0
VERTEX
  8
0
  5
2939
 10
112.863
 20
82.4393
 30
0.000000
  70
    32
  0
VERTEX
  8
0
  5
293A
 10
112.854
 20
82.4264
 30
0.000000
  70
    32
  0
VERTEX
  8
0
  5
293B
 10
112.845
 20
82.4136
 30
0.000000
  70
    32
  0
VERTEX
  8
0
  5
293C
 10
112.836
 20
82.4010
 30
0.000000
  70
    32
  0
VERTEX
  8
0
  5
293D
 10
112.827
 20
82.3886
 30
0.000000
  70
    32
  0
VERTEX
  8
0
  5
293E
 10
112.818
 20
82.3763
 30
0.000000
  70
    32
  0
VERTEX
  8
0
  5
293F
 10
112.809
 20
82.3642
 30
0.000000
  70
    32
  0
VERTEX
  8
0
  5
2940
 10
112.799
 20
82.3522
 30
0.000000
  70
    32
  0
VERTEX
  8
0
  5
2941
 10
112.790
 20
82.3405
 30
0.000000
  70
    32
  0
VERTEX
  8
0
  5
2942
 10
112.780
 20
82.3289
 30
0.000000
  70
    32
  0
VERTEX
  8
0
  5
2943
 10
112.771
 20
82.3175
 30
0.000000
  70
    32
  0
VERTEX
  8
0
  5
2944
 10
112.761
 20
82.3062
 30
0.000000
  70
    32
  0
VERTEX
  8
0
  5
2945
 10
112.751
 20
82.2952
 30
0.000000
  70
    32
  0
VERTEX
  8
0
  5
2946
 10
112.741
 20
82.2843
 30
0.000000
  70
    32
  0
VERTEX
  8
0
  5
2947
 10
112.731
 20
82.2736
 30
0.000000
  70
    32
  0
VERTEX
  8
0
  5
2948
 10
112.721
 20
82.2631
 30
0.000000
  70
    32
  0
VERTEX
  8
0
  5
2949
 10
112.711
 20
82.2528
 30
0.000000
  70
    32
  0
VERTEX
  8
0
  5
294A
 10
112.701
 20
82.2427
 30
0.000000
  70
    32
  0
VERTEX
  8
0
  5
294B
 10
112.691
 20
82.2327
 30
0.000000
  70
    32
  0
VERTEX
  8
0
  5
294C
 10
112.680
 20
82.2230
 30
0.000000
  70
    32
  0
VERTEX
  8
0
  5
294D
 10
112.670
 20
82.2134
 30
0.000000
  70
    32
  0
VERTEX
  8
0
  5
294E
 10
112.659
 20
82.2040
 30
0.000000
  70
    32
  0
VERTEX
  8
0
  5
294F
 10
112.648
 20
82.1949
 30
0.000000
  70
    32
  0
VERTEX
  8
0
  5
2950
 10
112.638
 20
82.1859
 30
0.000000
  70
    32
  0
VERTEX
  8
0
  5
2951
 10
112.627
 20
82.1771
 30
0.000000
  70
    32
  0
VERTEX
  8
0
  5
2952
 10
112.616
 20
82.1685
 30
0.000000
  70
    32
  0
VERTEX
  8
0
  5
2953
 10
112.605
 20
82.1602
 30
0.000000
  70
    32
  0
VERTEX
  8
0
  5
2954
 10
112.594
 20
82.1520
 30
0.000000
  70
    32
  0
VERTEX
  8
0
  5
2955
 10
112.583
 20
82.1440
 30
0.000000
  70
    32
  0
VERTEX
  8
0
  5
2956
 10
112.572
 20
82.1362
 30
0.000000
  70
    32
  0
VERTEX
  8
0
  5
2957
 10
112.561
 20
82.1287
 30
0.000000
  70
    32
  0
VERTEX
  8
0
  5
2958
 10
112.550
 20
82.1213
 30
0.000000
  70
    32
  0
VERTEX
  8
0
  5
2959
 10
112.538
 20
82.1142
 30
0.000000
  70
    32
  0
VERTEX
  8
0
  5
295A
 10
112.527
 20
82.1072
 30
0.000000
  70
    32
  0
VERTEX
  8
0
  5
295B
 10
112.515
 20
82.1005
 30
0.000000
  70
    32
  0
VERTEX
  8
0
  5
295C
 10
112.504
 20
82.0940
 30
0.000000
  70
    32
  0
VERTEX
  8
0
  5
295D
 10
112.492
 20
82.0877
 30
0.000000
  70
    32
  0
VERTEX
  8
0
  5
295E
 10
112.481
 20
82.0816
 30
0.000000
  70
    32
  0
VERTEX
  8
0
  5
295F
 10
112.469
 20
82.0757
 30
0.000000
  70
    32
  0
VERTEX
  8
0
  5
2960
 10
112.458
 20
82.0700
 30
0.000000
  70
    32
  0
VERTEX
  8
0
  5
2961
 10
112.446
 20
82.0646
 30
0.000000
  70
    32
  0
VERTEX
  8
0
  5
2962
 10
112.434
 20
82.0594
 30
0.000000
  70
    32
  0
VERTEX
  8
0
  5
2963
 10
112.422
 20
82.0543
 30
0.000000
  70
    32
  0
VERTEX
  8
0
  5
2964
 10
112.410
 20
82.0495
 30
0.000000
  70
    32
  0
VERTEX
  8
0
  5
2965
 10
112.399
 20
82.0450
 30
0.000000
  70
    32
  0
VERTEX
  8
0
  5
2966
 10
112.387
 20
82.0406
 30
0.000000
  70
    32
  0
VERTEX
  8
0
  5
2967
 10
112.375
 20
82.0364
 30
0.000000
  70
    32
  0
VERTEX
  8
0
  5
2968
 10
112.363
 20
82.0325
 30
0.000000
  70
    32
  0
VERTEX
  8
0
  5
2969
 10
112.351
 20
82.0288
 30
0.000000
  70
    32
  0
VERTEX
  8
0
  5
296A
 10
112.339
 20
82.0253
 30
0.000000
  70
    32
  0
VERTEX
  8
0
  5
296B
 10
112.327
 20
82.0221
 30
0.000000
  70
    32
  0
VERTEX
  8
0
  5
296C
 10
112.314
 20
82.0190
 30
0.000000
  70
    32
  0
VERTEX
  8
0
  5
296D
 10
112.302
 20
82.0162
 30
0.000000
  70
    32
  0
VERTEX
  8
0
  5
296E
 10
112.290
 20
82.0136
 30
0.000000
  70
    32
  0
VERTEX
  8
0
  5
296F
 10
112.278
 20
82.0113
 30
0.000000
  70
    32
  0
VERTEX
  8
0
  5
2970
 10
112.266
 20
82.0091
 30
0.000000
  70
    32
  0
VERTEX
  8
0
  5
2971
 10
112.254
 20
82.0072
 30
0.000000
  70
    32
  0
VERTEX
  8
0
  5
2972
 10
112.241
 20
82.0055
 30
0.000000
  70
    32
  0
VERTEX
  8
0
  5
2973
 10
112.229
 20
82.0041
 30
0.000000
  70
    32
  0
VERTEX
  8
0
  5
2974
 10
112.217
 20
82.0028
 30
0.000000
  70
    32
  0
VERTEX
  8
0
  5
2975
 10
112.205
 20
82.0018
 30
0.000000
  70
    32
  0
VERTEX
  8
0
  5
2976
 10
112.192
 20
82.0010
 30
0.000000
  70
    32
  0
VERTEX
  8
0
  5
2977
 10
112.180
 20
82.0005
 30
0.000000
  70
    32
  0
VERTEX
  8
0
  5
2978
 10
112.168
 20
82.0001
 30
0.000000
  70
    32
  0
VERTEX
  8
0
  5
2979
 10
112.156
 20
82.0000
 30
0.000000
  70
    32
  0
SEQEND
  8
0
  5
297A
  0
ARC
  5
192E
  8
0
 10
111.0350084508102
 20
85.000000000000028
 30
0.0
 40
1.0
 50
270.00000000000051
 51
0.0
  0
ARC
  5
1972
  8
0
 10
105.96499154918961
 20
85.000000000000028
 30
0.0
 40
1.0
 50
180.0
 51
269.99999999999949
  0
POLYLINE
  5
1973
  8
0
 10
103.8444250749239
 20
83.49999999999855
 30
0.0
 66
     1
 70
     8
  0
VERTEX
  8
0
  5
297B
 10
103.844
 20
83.5000
 30
0.000000
  70
    32
  0
VERTEX
  8
0
  5
297C
 10
103.845
 20
83.4816
 30
0.000000
  70
    32
  0
VERTEX
  8
0
  5
297D
 10
103.845
 20
83.4632
 30
0.000000
  70
    32
  0
VERTEX
  8
0
  5
297E
 10
103.845
 20
83.4448
 30
0.000000
  70
    32
  0
VERTEX
  8
0
  5
297F
 10
103.846
 20
83.4264
 30
0.000000
  70
    32
  0
VERTEX
  8
0
  5
2980
 10
103.846
 20
83.4080
 30
0.000000
  70
    32
  0
VERTEX
  8
0
  5
2981
 10
103.847
 20
83.3897
 30
0.000000
  70
    32
  0
VERTEX
  8
0
  5
2982
 10
103.848
 20
83.3713
 30
0.000000
  70
    32
  0
VERTEX
  8
0
  5
2983
 10
103.849
 20
83.3530
 30
0.000000
  70
    32
  0
VERTEX
  8
0
  5
2984
 10
103.851
 20
83.3347
 30
0.000000
  70
    32
  0
VERTEX
  8
0
  5
2985
 10
103.852
 20
83.3164
 30
0.000000
  70
    32
  0
VERTEX
  8
0
  5
2986
 10
103.854
 20
83.2981
 30
0.000000
  70
    32
  0
VERTEX
  8
0
  5
2987
 10
103.855
 20
83.2799
 30
0.000000
  70
    32
  0
VERTEX
  8
0
  5
2988
 10
103.857
 20
83.2617
 30
0.000000
  70
    32
  0
VERTEX
  8
0
  5
2989
 10
103.859
 20
83.2436
 30
0.000000
  70
    32
  0
VERTEX
  8
0
  5
298A
 10
103.861
 20
83.2254
 30
0.000000
  70
    32
  0
VERTEX
  8
0
  5
298B
 10
103.864
 20
83.2074
 30
0.000000
  70
    32
  0
VERTEX
  8
0
  5
298C
 10
103.866
 20
83.1893
 30
0.000000
  70
    32
  0
VERTEX
  8
0
  5
298D
 10
103.869
 20
83.1713
 30
0.000000
  70
    32
  0
VERTEX
  8
0
  5
298E
 10
103.871
 20
83.1534
 30
0.000000
  70
    32
  0
VERTEX
  8
0
  5
298F
 10
103.874
 20
83.1355
 30
0.000000
  70
    32
  0
VERTEX
  8
0
  5
2990
 10
103.877
 20
83.1177
 30
0.000000
  70
    32
  0
VERTEX
  8
0
  5
2991
 10
103.881
 20
83.0999
 30
0.000000
  70
    32
  0
VERTEX
  8
0
  5
2992
 10
103.884
 20
83.0822
 30
0.000000
  70
    32
  0
VERTEX
  8
0
  5
2993
 10
103.887
 20
83.0646
 30
0.000000
  70
    32
  0
VERTEX
  8
0
  5
2994
 10
103.891
 20
83.0470
 30
0.000000
  70
    32
  0
VERTEX
  8
0
  5
2995
 10
103.895
 20
83.0295
 30
0.000000
  70
    32
  0
VERTEX
  8
0
  5
2996
 10
103.899
 20
83.0120
 30
0.000000
  70
    32
  0
VERTEX
  8
0
  5
2997
 10
103.903
 20
82.9947
 30
0.000000
  70
    32
  0
VERTEX
  8
0
  5
2998
 10
103.907
 20
82.9774
 30
0.000000
  70
    32
  0
VERTEX
  8
0
  5
2999
 10
103.911
 20
82.9602
 30
0.000000
  70
    32
  0
VERTEX
  8
0
  5
299A
 10
103.916
 20
82.9430
 30
0.000000
  70
    32
  0
VERTEX
  8
0
  5
299B
 10
103.921
 20
82.9260
 30
0.000000
  70
    32
  0
VERTEX
  8
0
  5
299C
 10
103.925
 20
82.9090
 30
0.000000
  70
    32
  0
VERTEX
  8
0
  5
299D
 10
103.930
 20
82.8921
 30
0.000000
  70
    32
  0
VERTEX
  8
0
  5
299E
 10
103.935
 20
82.8754
 30
0.000000
  70
    32
  0
VERTEX
  8
0
  5
299F
 10
103.940
 20
82.8587
 30
0.000000
  70
    32
  0
VERTEX
  8
0
  5
29A0
 10
103.946
 20
82.8421
 30
0.000000
  70
    32
  0
VERTEX
  8
0
  5
29A1
 10
103.951
 20
82.8256
 30
0.000000
  70
    32
  0
VERTEX
  8
0
  5
29A2
 10
103.957
 20
82.8092
 30
0.000000
  70
    32
  0
VERTEX
  8
0
  5
29A3
 10
103.963
 20
82.7929
 30
0.000000
  70
    32
  0
VERTEX
  8
0
  5
29A4
 10
103.968
 20
82.7767
 30
0.000000
  70
    32
  0
VERTEX
  8
0
  5
29A5
 10
103.974
 20
82.7607
 30
0.000000
  70
    32
  0
VERTEX
  8
0
  5
29A6
 10
103.980
 20
82.7447
 30
0.000000
  70
    32
  0
VERTEX
  8
0
  5
29A7
 10
103.987
 20
82.7288
 30
0.000000
  70
    32
  0
VERTEX
  8
0
  5
29A8
 10
103.993
 20
82.7131
 30
0.000000
  70
    32
  0
VERTEX
  8
0
  5
29A9
 10
104.000
 20
82.6975
 30
0.000000
  70
    32
  0
VERTEX
  8
0
  5
29AA
 10
104.006
 20
82.6820
 30
0.000000
  70
    32
  0
VERTEX
  8
0
  5
29AB
 10
104.013
 20
82.6666
 30
0.000000
  70
    32
  0
VERTEX
  8
0
  5
29AC
 10
104.020
 20
82.6514
 30
0.000000
  70
    32
  0
VERTEX
  8
0
  5
29AD
 10
104.027
 20
82.6363
 30
0.000000
  70
    32
  0
VERTEX
  8
0
  5
29AE
 10
104.034
 20
82.6213
 30
0.000000
  70
    32
  0
VERTEX
  8
0
  5
29AF
 10
104.041
 20
82.6065
 30
0.000000
  70
    32
  0
VERTEX
  8
0
  5
29B0
 10
104.049
 20
82.5917
 30
0.000000
  70
    32
  0
VERTEX
  8
0
  5
29B1
 10
104.056
 20
82.5772
 30
0.000000
  70
    32
  0
VERTEX
  8
0
  5
29B2
 10
104.064
 20
82.5627
 30
0.000000
  70
    32
  0
VERTEX
  8
0
  5
29B3
 10
104.071
 20
82.5484
 30
0.000000
  70
    32
  0
VERTEX
  8
0
  5
29B4
 10
104.079
 20
82.5343
 30
0.000000
  70
    32
  0
VERTEX
  8
0
  5
29B5
 10
104.087
 20
82.5202
 30
0.000000
  70
    32
  0
VERTEX
  8
0
  5
29B6
 10
104.095
 20
82.5064
 30
0.000000
  70
    32
  0
VERTEX
  8
0
  5
29B7
 10
104.103
 20
82.4927
 30
0.000000
  70
    32
  0
VERTEX
  8
0
  5
29B8
 10
104.112
 20
82.4791
 30
0.000000
  70
    32
  0
VERTEX
  8
0
  5
29B9
 10
104.120
 20
82.4657
 30
0.000000
  70
    32
  0
VERTEX
  8
0
  5
29BA
 10
104.129
 20
82.4524
 30
0.000000
  70
    32
  0
VERTEX
  8
0
  5
29BB
 10
104.137
 20
82.4393
 30
0.000000
  70
    32
  0
VERTEX
  8
0
  5
29BC
 10
104.146
 20
82.4264
 30
0.000000
  70
    32
  0
VERTEX
  8
0
  5
29BD
 10
104.155
 20
82.4136
 30
0.000000
  70
    32
  0
VERTEX
  8
0
  5
29BE
 10
104.164
 20
82.4010
 30
0.000000
  70
    32
  0
VERTEX
  8
0
  5
29BF
 10
104.173
 20
82.3886
 30
0.000000
  70
    32
  0
VERTEX
  8
0
  5
29C0
 10
104.182
 20
82.3763
 30
0.000000
  70
    32
  0
VERTEX
  8
0
  5
29C1
 10
104.191
 20
82.3642
 30
0.000000
  70
    32
  0
VERTEX
  8
0
  5
29C2
 10
104.201
 20
82.3522
 30
0.000000
  70
    32
  0
VERTEX
  8
0
  5
29C3
 10
104.210
 20
82.3405
 30
0.000000
  70
    32
  0
VERTEX
  8
0
  5
29C4
 10
104.220
 20
82.3289
 30
0.000000
  70
    32
  0
VERTEX
  8
0
  5
29C5
 10
104.229
 20
82.3175
 30
0.000000
  70
    32
  0
VERTEX
  8
0
  5
29C6
 10
104.239
 20
82.3062
 30
0.000000
  70
    32
  0
VERTEX
  8
0
  5
29C7
 10
104.249
 20
82.2952
 30
0.000000
  70
    32
  0
VERTEX
  8
0
  5
29C8
 10
104.259
 20
82.2843
 30
0.000000
  70
    32
  0
VERTEX
  8
0
  5
29C9
 10
104.269
 20
82.2736
 30
0.000000
  70
    32
  0
VERTEX
  8
0
  5
29CA
 10
104.279
 20
82.2631
 30
0.000000
  70
    32
  0
VERTEX
  8
0
  5
29CB
 10
104.289
 20
82.2528
 30
0.000000
  70
    32
  0
VERTEX
  8
0
  5
29CC
 10
104.299
 20
82.2427
 30
0.000000
  70
    32
  0
VERTEX
  8
0
  5
29CD
 10
104.309
 20
82.2327
 30
0.000000
  70
    32
  0
VERTEX
  8
0
  5
29CE
 10
104.320
 20
82.2230
 30
0.000000
  70
    32
  0
VERTEX
  8
0
  5
29CF
 10
104.330
 20
82.2134
 30
0.000000
  70
    32
  0
VERTEX
  8
0
  5
29D0
 10
104.341
 20
82.2040
 30
0.000000
  70
    32
  0
VERTEX
  8
0
  5
29D1
 10
104.352
 20
82.1949
 30
0.000000
  70
    32
  0
VERTEX
  8
0
  5
29D2
 10
104.362
 20
82.1859
 30
0.000000
  70
    32
  0
VERTEX
  8
0
  5
29D3
 10
104.373
 20
82.1771
 30
0.000000
  70
    32
  0
VERTEX
  8
0
  5
29D4
 10
104.384
 20
82.1685
 30
0.000000
  70
    32
  0
VERTEX
  8
0
  5
29D5
 10
104.395
 20
82.1602
 30
0.000000
  70
    32
  0
VERTEX
  8
0
  5
29D6
 10
104.406
 20
82.1520
 30
0.000000
  70
    32
  0
VERTEX
  8
0
  5
29D7
 10
104.417
 20
82.1440
 30
0.000000
  70
    32
  0
VERTEX
  8
0
  5
29D8
 10
104.428
 20
82.1362
 30
0.000000
  70
    32
  0
VERTEX
  8
0
  5
29D9
 10
104.439
 20
82.1287
 30
0.000000
  70
    32
  0
VERTEX
  8
0
  5
29DA
 10
104.450
 20
82.1213
 30
0.000000
  70
    32
  0
VERTEX
  8
0
  5
29DB
 10
104.462
 20
82.1142
 30
0.000000
  70
    32
  0
VERTEX
  8
0
  5
29DC
 10
104.473
 20
82.1072
 30
0.000000
  70
    32
  0
VERTEX
  8
0
  5
29DD
 10
104.485
 20
82.1005
 30
0.000000
  70
    32
  0
VERTEX
  8
0
  5
29DE
 10
104.496
 20
82.0940
 30
0.000000
  70
    32
  0
VERTEX
  8
0
  5
29DF
 10
104.508
 20
82.0877
 30
0.000000
  70
    32
  0
VERTEX
  8
0
  5
29E0
 10
104.519
 20
82.0816
 30
0.000000
  70
    32
  0
VERTEX
  8
0
  5
29E1
 10
104.531
 20
82.0757
 30
0.000000
  70
    32
  0
VERTEX
  8
0
  5
29E2
 10
104.542
 20
82.0700
 30
0.000000
  70
    32
  0
VERTEX
  8
0
  5
29E3
 10
104.554
 20
82.0646
 30
0.000000
  70
    32
  0
VERTEX
  8
0
  5
29E4
 10
104.566
 20
82.0594
 30
0.000000
  70
    32
  0
VERTEX
  8
0
  5
29E5
 10
104.578
 20
82.0543
 30
0.000000
  70
    32
  0
VERTEX
  8
0
  5
29E6
 10
104.590
 20
82.0495
 30
0.000000
  70
    32
  0
VERTEX
  8
0
  5
29E7
 10
104.601
 20
82.0450
 30
0.000000
  70
    32
  0
VERTEX
  8
0
  5
29E8
 10
104.613
 20
82.0406
 30
0.000000
  70
    32
  0
VERTEX
  8
0
  5
29E9
 10
104.625
 20
82.0364
 30
0.000000
  70
    32
  0
VERTEX
  8
0
  5
29EA
 10
104.637
 20
82.0325
 30
0.000000
  70
    32
  0
VERTEX
  8
0
  5
29EB
 10
104.649
 20
82.0288
 30
0.000000
  70
    32
  0
VERTEX
  8
0
  5
29EC
 10
104.661
 20
82.0253
 30
0.000000
  70
    32
  0
VERTEX
  8
0
  5
29ED
 10
104.673
 20
82.0221
 30
0.000000
  70
    32
  0
VERTEX
  8
0
  5
29EE
 10
104.686
 20
82.0190
 30
0.000000
  70
    32
  0
VERTEX
  8
0
  5
29EF
 10
104.698
 20
82.0162
 30
0.000000
  70
    32
  0
VERTEX
  8
0
  5
29F0
 10
104.710
 20
82.0136
 30
0.000000
  70
    32
  0
VERTEX
  8
0
  5
29F1
 10
104.722
 20
82.0113
 30
0.000000
  70
    32
  0
VERTEX
  8
0
  5
29F2
 10
104.734
 20
82.0091
 30
0.000000
  70
    32
  0
VERTEX
  8
0
  5
29F3
 10
104.746
 20
82.0072
 30
0.000000
  70
    32
  0
VERTEX
  8
0
  5
29F4
 10
104.759
 20
82.0055
 30
0.000000
  70
    32
  0
VERTEX
  8
0
  5
29F5
 10
104.771
 20
82.0041
 30
0.000000
  70
    32
  0
VERTEX
  8
0
  5
29F6
 10
104.783
 20
82.0028
 30
0.000000
  70
    32
  0
VERTEX
  8
0
  5
29F7
 10
104.795
 20
82.0018
 30
0.000000
  70
    32
  0
VERTEX
  8
0
  5
29F8
 10
104.808
 20
82.0010
 30
0.000000
  70
    32
  0
VERTEX
  8
0
  5
29F9
 10
104.820
 20
82.0005
 30
0.000000
  70
    32
  0
VERTEX
  8
0
  5
29FA
 10
104.832
 20
82.0001
 30
0.000000
  70
    32
  0
VERTEX
  8
0
  5
29FB
 10
104.844
 20
82.0000
 30
0.000000
  70
    32
  0
SEQEND
  8
0
  5
29FC
  0
POLYLINE
  5
1974
  8
0
 10
103.844425074924
 20
90.500000000000014
 30
0.0
 66
     1
 70
     8
  0
VERTEX
  8
0
  5
29FD
 10
103.844
 20
90.5000
 30
0.000000
  70
    32
  0
VERTEX
  8
0
  5
29FE
 10
103.845
 20
90.5184
 30
0.000000
  70
    32
  0
VERTEX
  8
0
  5
29FF
 10
103.845
 20
90.5368
 30
0.000000
  70
    32
  0
VERTEX
  8
0
  5
2A00
 10
103.845
 20
90.5552
 30
0.000000
  70
    32
  0
VERTEX
  8
0
  5
2A01
 10
103.846
 20
90.5736
 30
0.000000
  70
    32
  0
VERTEX
  8
0
  5
2A02
 10
103.846
 20
90.5920
 30
0.000000
  70
    32
  0
VERTEX
  8
0
  5
2A03
 10
103.847
 20
90.6103
 30
0.000000
  70
    32
  0
VERTEX
  8
0
  5
2A04
 10
103.848
 20
90.6287
 30
0.000000
  70
    32
  0
VERTEX
  8
0
  5
2A05
 10
103.849
 20
90.6470
 30
0.000000
  70
    32
  0
VERTEX
  8
0
  5
2A06
 10
103.851
 20
90.6653
 30
0.000000
  70
    32
  0
VERTEX
  8
0
  5
2A07
 10
103.852
 20
90.6836
 30
0.000000
  70
    32
  0
VERTEX
  8
0
  5
2A08
 10
103.854
 20
90.7019
 30
0.000000
  70
    32
  0
VERTEX
  8
0
  5
2A09
 10
103.855
 20
90.7201
 30
0.000000
  70
    32
  0
VERTEX
  8
0
  5
2A0A
 10
103.857
 20
90.7383
 30
0.000000
  70
    32
  0
VERTEX
  8
0
  5
2A0B
 10
103.859
 20
90.7564
 30
0.000000
  70
    32
  0
VERTEX
  8
0
  5
2A0C
 10
103.861
 20
90.7746
 30
0.000000
  70
    32
  0
VERTEX
  8
0
  5
2A0D
 10
103.864
 20
90.7926
 30
0.000000
  70
    32
  0
VERTEX
  8
0
  5
2A0E
 10
103.866
 20
90.8107
 30
0.000000
  70
    32
  0
VERTEX
  8
0
  5
2A0F
 10
103.869
 20
90.8287
 30
0.000000
  70
    32
  0
VERTEX
  8
0
  5
2A10
 10
103.871
 20
90.8466
 30
0.000000
  70
    32
  0
VERTEX
  8
0
  5
2A11
 10
103.874
 20
90.8645
 30
0.000000
  70
    32
  0
VERTEX
  8
0
  5
2A12
 10
103.877
 20
90.8823
 30
0.000000
  70
    32
  0
VERTEX
  8
0
  5
2A13
 10
103.881
 20
90.9001
 30
0.000000
  70
    32
  0
VERTEX
  8
0
  5
2A14
 10
103.884
 20
90.9178
 30
0.000000
  70
    32
  0
VERTEX
  8
0
  5
2A15
 10
103.887
 20
90.9354
 30
0.000000
  70
    32
  0
VERTEX
  8
0
  5
2A16
 10
103.891
 20
90.9530
 30
0.000000
  70
    32
  0
VERTEX
  8
0
  5
2A17
 10
103.895
 20
90.9705
 30
0.000000
  70
    32
  0
VERTEX
  8
0
  5
2A18
 10
103.899
 20
90.9880
 30
0.000000
  70
    32
  0
VERTEX
  8
0
  5
2A19
 10
103.903
 20
91.0053
 30
0.000000
  70
    32
  0
VERTEX
  8
0
  5
2A1A
 10
103.907
 20
91.0226
 30
0.000000
  70
    32
  0
VERTEX
  8
0
  5
2A1B
 10
103.911
 20
91.0398
 30
0.000000
  70
    32
  0
VERTEX
  8
0
  5
2A1C
 10
103.916
 20
91.0570
 30
0.000000
  70
    32
  0
VERTEX
  8
0
  5
2A1D
 10
103.921
 20
91.0740
 30
0.000000
  70
    32
  0
VERTEX
  8
0
  5
2A1E
 10
103.925
 20
91.0910
 30
0.000000
  70
    32
  0
VERTEX
  8
0
  5
2A1F
 10
103.930
 20
91.1079
 30
0.000000
  70
    32
  0
VERTEX
  8
0
  5
2A20
 10
103.935
 20
91.1246
 30
0.000000
  70
    32
  0
VERTEX
  8
0
  5
2A21
 10
103.940
 20
91.1413
 30
0.000000
  70
    32
  0
VERTEX
  8
0
  5
2A22
 10
103.946
 20
91.1579
 30
0.000000
  70
    32
  0
VERTEX
  8
0
  5
2A23
 10
103.951
 20
91.1744
 30
0.000000
  70
    32
  0
VERTEX
  8
0
  5
2A24
 10
103.957
 20
91.1908
 30
0.000000
  70
    32
  0
VERTEX
  8
0
  5
2A25
 10
103.963
 20
91.2071
 30
0.000000
  70
    32
  0
VERTEX
  8
0
  5
2A26
 10
103.968
 20
91.2233
 30
0.000000
  70
    32
  0
VERTEX
  8
0
  5
2A27
 10
103.974
 20
91.2393
 30
0.000000
  70
    32
  0
VERTEX
  8
0
  5
2A28
 10
103.980
 20
91.2553
 30
0.000000
  70
    32
  0
VERTEX
  8
0
  5
2A29
 10
103.987
 20
91.2712
 30
0.000000
  70
    32
  0
VERTEX
  8
0
  5
2A2A
 10
103.993
 20
91.2869
 30
0.000000
  70
    32
  0
VERTEX
  8
0
  5
2A2B
 10
104.000
 20
91.3025
 30
0.000000
  70
    32
  0
VERTEX
  8
0
  5
2A2C
 10
104.006
 20
91.3180
 30
0.000000
  70
    32
  0
VERTEX
  8
0
  5
2A2D
 10
104.013
 20
91.3334
 30
0.000000
  70
    32
  0
VERTEX
  8
0
  5
2A2E
 10
104.020
 20
91.3486
 30
0.000000
  70
    32
  0
VERTEX
  8
0
  5
2A2F
 10
104.027
 20
91.3637
 30
0.000000
  70
    32
  0
VERTEX
  8
0
  5
2A30
 10
104.034
 20
91.3787
 30
0.000000
  70
    32
  0
VERTEX
  8
0
  5
2A31
 10
104.041
 20
91.3935
 30
0.000000
  70
    32
  0
VERTEX
  8
0
  5
2A32
 10
104.049
 20
91.4083
 30
0.000000
  70
    32
  0
VERTEX
  8
0
  5
2A33
 10
104.056
 20
91.4228
 30
0.000000
  70
    32
  0
VERTEX
  8
0
  5
2A34
 10
104.064
 20
91.4373
 30
0.000000
  70
    32
  0
VERTEX
  8
0
  5
2A35
 10
104.071
 20
91.4516
 30
0.000000
  70
    32
  0
VERTEX
  8
0
  5
2A36
 10
104.079
 20
91.4657
 30
0.000000
  70
    32
  0
VERTEX
  8
0
  5
2A37
 10
104.087
 20
91.4798
 30
0.000000
  70
    32
  0
VERTEX
  8
0
  5
2A38
 10
104.095
 20
91.4936
 30
0.000000
  70
    32
  0
VERTEX
  8
0
  5
2A39
 10
104.103
 20
91.5073
 30
0.000000
  70
    32
  0
VERTEX
  8
0
  5
2A3A
 10
104.112
 20
91.5209
 30
0.000000
  70
    32
  0
VERTEX
  8
0
  5
2A3B
 10
104.120
 20
91.5343
 30
0.000000
  70
    32
  0
VERTEX
  8
0
  5
2A3C
 10
104.129
 20
91.5476
 30
0.000000
  70
    32
  0
VERTEX
  8
0
  5
2A3D
 10
104.137
 20
91.5607
 30
0.000000
  70
    32
  0
VERTEX
  8
0
  5
2A3E
 10
104.146
 20
91.5736
 30
0.000000
  70
    32
  0
VERTEX
  8
0
  5
2A3F
 10
104.155
 20
91.5864
 30
0.000000
  70
    32
  0
VERTEX
  8
0
  5
2A40
 10
104.164
 20
91.5990
 30
0.000000
  70
    32
  0
VERTEX
  8
0
  5
2A41
 10
104.173
 20
91.6114
 30
0.000000
  70
    32
  0
VERTEX
  8
0
  5
2A42
 10
104.182
 20
91.6237
 30
0.000000
  70
    32
  0
VERTEX
  8
0
  5
2A43
 10
104.191
 20
91.6358
 30
0.000000
  70
    32
  0
VERTEX
  8
0
  5
2A44
 10
104.201
 20
91.6478
 30
0.000000
  70
    32
  0
VERTEX
  8
0
  5
2A45
 10
104.210
 20
91.6595
 30
0.000000
  70
    32
  0
VERTEX
  8
0
  5
2A46
 10
104.220
 20
91.6711
 30
0.000000
  70
    32
  0
VERTEX
  8
0
  5
2A47
 10
104.229
 20
91.6825
 30
0.000000
  70
    32
  0
VERTEX
  8
0
  5
2A48
 10
104.239
 20
91.6938
 30
0.000000
  70
    32
  0
VERTEX
  8
0
  5
2A49
 10
104.249
 20
91.7048
 30
0.000000
  70
    32
  0
VERTEX
  8
0
  5
2A4A
 10
104.259
 20
91.7157
 30
0.000000
  70
    32
  0
VERTEX
  8
0
  5
2A4B
 10
104.269
 20
91.7264
 30
0.000000
  70
    32
  0
VERTEX
  8
0
  5
2A4C
 10
104.279
 20
91.7369
 30
0.000000
  70
    32
  0
VERTEX
  8
0
  5
2A4D
 10
104.289
 20
91.7472
 30
0.000000
  70
    32
  0
VERTEX
  8
0
  5
2A4E
 10
104.299
 20
91.7573
 30
0.000000
  70
    32
  0
VERTEX
  8
0
  5
2A4F
 10
104.309
 20
91.7673
 30
0.000000
  70
    32
  0
VERTEX
  8
0
  5
2A50
 10
104.320
 20
91.7770
 30
0.000000
  70
    32
  0
VERTEX
  8
0
  5
2A51
 10
104.330
 20
91.7866
 30
0.000000
  70
    32
  0
VERTEX
  8
0
  5
2A52
 10
104.341
 20
91.7960
 30
0.000000
  70
    32
  0
VERTEX
  8
0
  5
2A53
 10
104.352
 20
91.8051
 30
0.000000
  70
    32
  0
VERTEX
  8
0
  5
2A54
 10
104.362
 20
91.8141
 30
0.000000
  70
    32
  0
VERTEX
  8
0
  5
2A55
 10
104.373
 20
91.8229
 30
0.000000
  70
    32
  0
VERTEX
  8
0
  5
2A56
 10
104.384
 20
91.8315
 30
0.000000
  70
    32
  0
VERTEX
  8
0
  5
2A57
 10
104.395
 20
91.8398
 30
0.000000
  70
    32
  0
VERTEX
  8
0
  5
2A58
 10
104.406
 20
91.8480
 30
0.000000
  70
    32
  0
VERTEX
  8
0
  5
2A59
 10
104.417
 20
91.8560
 30
0.000000
  70
    32
  0
VERTEX
  8
0
  5
2A5A
 10
104.428
 20
91.8638
 30
0.000000
  70
    32
  0
VERTEX
  8
0
  5
2A5B
 10
104.439
 20
91.8713
 30
0.000000
  70
    32
  0
VERTEX
  8
0
  5
2A5C
 10
104.450
 20
91.8787
 30
0.000000
  70
    32
  0
VERTEX
  8
0
  5
2A5D
 10
104.462
 20
91.8858
 30
0.000000
  70
    32
  0
VERTEX
  8
0
  5
2A5E
 10
104.473
 20
91.8928
 30
0.000000
  70
    32
  0
VERTEX
  8
0
  5
2A5F
 10
104.485
 20
91.8995
 30
0.000000
  70
    32
  0
VERTEX
  8
0
  5
2A60
 10
104.496
 20
91.9060
 30
0.000000
  70
    32
  0
VERTEX
  8
0
  5
2A61
 10
104.508
 20
91.9123
 30
0.000000
  70
    32
  0
VERTEX
  8
0
  5
2A62
 10
104.519
 20
91.9184
 30
0.000000
  70
    32
  0
VERTEX
  8
0
  5
2A63
 10
104.531
 20
91.9243
 30
0.000000
  70
    32
  0
VERTEX
  8
0
  5
2A64
 10
104.542
 20
91.9300
 30
0.000000
  70
    32
  0
VERTEX
  8
0
  5
2A65
 10
104.554
 20
91.9354
 30
0.000000
  70
    32
  0
VERTEX
  8
0
  5
2A66
 10
104.566
 20
91.9406
 30
0.000000
  70
    32
  0
VERTEX
  8
0
  5
2A67
 10
104.578
 20
91.9457
 30
0.000000
  70
    32
  0
VERTEX
  8
0
  5
2A68
 10
104.590
 20
91.9505
 30
0.000000
  70
    32
  0
VERTEX
  8
0
  5
2A69
 10
104.601
 20
91.9550
 30
0.000000
  70
    32
  0
VERTEX
  8
0
  5
2A6A
 10
104.613
 20
91.9594
 30
0.000000
  70
    32
  0
VERTEX
  8
0
  5
2A6B
 10
104.625
 20
91.9636
 30
0.000000
  70
    32
  0
VERTEX
  8
0
  5
2A6C
 10
104.637
 20
91.9675
 30
0.000000
  70
    32
  0
VERTEX
  8
0
  5
2A6D
 10
104.649
 20
91.9712
 30
0.000000
  70
    32
  0
VERTEX
  8
0
  5
2A6E
 10
104.661
 20
91.9747
 30
0.000000
  70
    32
  0
VERTEX
  8
0
  5
2A6F
 10
104.673
 20
91.9779
 30
0.000000
  70
    32
  0
VERTEX
  8
0
  5
2A70
 10
104.686
 20
91.9810
 30
0.000000
  70
    32
  0
VERTEX
  8
0
  5
2A71
 10
104.698
 20
91.9838
 30
0.000000
  70
    32
  0
VERTEX
  8
0
  5
2A72
 10
104.710
 20
91.9864
 30
0.000000
  70
    32
  0
VERTEX
  8
0
  5
2A73
 10
104.722
 20
91.9887
 30
0.000000
  70
    32
  0
VERTEX
  8
0
  5
2A74
 10
104.734
 20
91.9909
 30
0.000000
  70
    32
  0
VERTEX
  8
0
  5
2A75
 10
104.746
 20
91.9928
 30
0.000000
  70
    32
  0
VERTEX
  8
0
  5
2A76
 10
104.759
 20
91.9945
 30
0.000000
  70
    32
  0
VERTEX
  8
0
  5
2A77
 10
104.771
 20
91.9959
 30
0.000000
  70
    32
  0
VERTEX
  8
0
  5
2A78
 10
104.783
 20
91.9972
 30
0.000000
  70
    32
  0
VERTEX
  8
0
  5
2A79
 10
104.795
 20
91.9982
 30
0.000000
  70
    32
  0
VERTEX
  8
0
  5
2A7A
 10
104.808
 20
91.9990
 30
0.000000
  70
    32
  0
VERTEX
  8
0
  5
2A7B
 10
104.820
 20
91.9995
 30
0.000000
  70
    32
  0
VERTEX
  8
0
  5
2A7C
 10
104.832
 20
91.9999
 30
0.000000
  70
    32
  0
VERTEX
  8
0
  5
2A7D
 10
104.844
 20
92.0000
 30
0.000000
  70
    32
  0
SEQEND
  8
0
  5
2A7E
  0
LINE
  5
1975
  8
0
 10
103.844425074924
 20
90.500000000000014
 30
0.0
 11
103.844425074924
 21
83.499999999998522
 31
0.0
  0
ARC
  5
1976
  8
0
 10
105.96499154918961
 20
88.692530467379555
 30
0.0
 40
1.0
 50
90.000000000000483
 51
180.0
  0
LINE
  5
1977
  8
0
 10
104.96499154918961
 20
88.692530467379555
 30
0.0
 11
104.96499154918961
 21
85.000000000000028
 31
0.0
  0
LINE
  5
1978
  8
0
 10
112.1555749250759
 20
92.000000000000014
 30
0.0
 11
111.3558911457271
 21
89.639649412445536
 31
0.0
  0
LINE
  5
1979
  8
0
 10
112.0350084508103
 20
88.692530467379555
 30
0.0
 11
113.1555749250758
 21
90.500000000000014
 31
0.0
  0
LINE
  5
197B
  8
0
 10
103.844425074924
 20
90.500000000000014
 30
0.0
 11
104.96499154918961
 21
88.692530467379555
 31
0.0
  0
LINE
  5
197C
  8
0
 10
104.844425074924
 20
92.000000000000014
 30
0.0
 11
105.96499154918961
 21
89.69253046737964
 31
0.0
  0
LINE
  5
1982
  8
0
 10
104.96499154918961
 20
85.000000000000028
 30
0.0
 11
103.8444250749239
 21
83.49999999999855
 31
0.0
  0
LINE
  5
1983
  8
0
 10
105.96499154918961
 20
84.000000000000028
 30
0.0
 11
104.8444250749239
 21
81.99999999999855
 31
0.0
  0
LINE
  5
1985
  8
0
 10
112.0350084508103
 20
85.000000000000028
 30
0.0
 11
113.1555749250759
 21
83.49999999999855
 31
0.0
  0
LINE
  5
1986
  8
0
 10
111.0350084508103
 20
84.000000000000028
 30
0.0
 11
112.1555749250759
 21
81.99999999999855
 31
0.0
  0
LINE
  5
2461
  8
0
 10
54.000000000000028
 20
36.999464410607992
 30
0.0
 11
54.000000000000028
 21
40.354248688935527
 31
0.0
  0
ARC
  5
2462
  8
0
 10
53.099999999999973
 20
41.677124344467778
 30
0.0
 40
1.6000000000000001
 50
304.2288663278153
 51
55.771133672182287
  0
ARC
  5
2463
  8
0
 10
57.240370349204028
 20
41.677124344467792
 30
0.0
 40
3.5
 50
157.7923457014038
 51
202.2076542985933
  0
LINE
  5
2464
  8
0
 10
54.000000000000092
 20
43.00000000000005
 30
0.0
 11
54.000000000000007
 21
63.00000000000005
 31
0.0
  0
LINE
  5
2465
  8
0
 10
45.999999999999922
 20
37.000000000000007
 30
0.0
 11
54.000000000000028
 21
37.000000000000007
 31
0.0
  0
ARC
  5
2467
  8
0
 10
42.759629650795922
 20
41.677124344467792
 30
0.0
 40
3.5
 50
337.7923457014067
 51
22.20765429859614
  0
ARC
  5
2468
  8
0
 10
46.899999999999977
 20
41.677124344467778
 30
0.0
 40
1.6000000000000001
 50
124.2288663278177
 51
235.77113367218459
  0
LINE
  5
2469
  8
0
 10
45.999999999999858
 20
43.00000000000005
 30
0.0
 11
45.99999999999995
 21
63.00000000000005
 31
0.0
  0
LINE
  5
246A
  8
0
 10
45.999999999999922
 20
37.000000000000007
 30
0.0
 11
45.999999999999922
 21
40.354248688935527
 31
0.0
  0
LINE
  5
246B
  8
0
 10
45.999999999999922
 20
37.000000000000007
 30
0.0
 11
46.700052584629738
 21
35.0
 31
0.0
  0
LINE
  5
2479
  8
0
 10
112.5000000000001
 20
37.000000000000021
 30
0.0
 11
112.5
 21
63.000000000000071
 31
0.0
  0
LINE
  5
247A
  8
0
 10
104.4999999999998
 20
37.000000000000028
 30
0.0
 11
104.4999999999999
 21
63.000000000000071
 31
0.0
  0
CIRCLE
  5
247E
  8
0
 10
108.4999999999999
 20
41.677124344467749
 30
0.0
 40
1.322875655532378
  0
TEXT
  5
2550
  8
0
 62
     3
 10
0.0
 20
0.0
 30
0.0
 40
10.0
  1
BJ773-08020-SUS
  7
STANDARD1
  0
LINE
  5
25E4
  8
0
 10
44.499999999999979
 20
63.00000000000005
 30
0.0
 11
44.499999999999979
 21
82.000000000000057
 31
0.0
  0
LINE
  5
25E7
  8
0
 10
55.499999999999993
 20
63.00000000000005
 30
0.0
 11
55.499999999999979
 21
82.000000000000057
 31
0.0
  0
LINE
  5
25EF
  8
0
 10
113.9999999999999
 20
63.000000000000043
 30
0.0
 11
113.9999999999999
 21
91.000000000000028
 31
0.0
  0
LINE
  5
25F0
  8
0
 10
103.0
 20
63.000000000000043
 30
0.0
 11
102.9999999999999
 21
91.000000000000028
 31
0.0
  0
LINE
  5
261B
  8
0
 10
54.000000000000043
 20
36.999999999999979
 30
0.0
 11
53.299947415370212
 21
34.999999999999972
 31
0.0
  0
LINE
  5
261C
  8
0
 10
46.700052584629738
 20
35.0
 30
0.0
 11
53.299947415370212
 21
34.999999999999972
 31
0.0
  0
LINE
  5
262A
  8
0
 10
104.4999999999998
 20
37.000000000000028
 30
0.0
 11
112.4999999999999
 21
37.000000000000028
 31
0.0
  0
LINE
  5
262B
  8
0
 10
104.4999999999998
 20
37.000000000000028
 30
0.0
 11
105.2000525846296
 21
35.000000000000028
 31
0.0
  0
LINE
  5
262C
  8
0
 10
112.4999999999999
 20
37.0
 30
0.0
 11
111.7999474153701
 21
35.0
 31
0.0
  0
LINE
  5
262D
  8
0
 10
105.2000525846296
 20
35.000000000000028
 30
0.0
 11
111.7999474153701
 21
35.0
 31
0.0
  0
ARC
  5
269E
  8
0
 10
49.999638160085098
 20
130.49999999995271
 30
0.0
 40
5.5
 50
235.9524567679515
 51
304.0470677531768
  0
ARC
  5
269F
  8
0
 10
49.999638160085098
 20
130.49999999995271
 30
0.0
 40
5.5
 50
55.952932246822542
 51
124.0475432320485
  0
ARC
  5
26A0
  8
0
 10
53.918754469714777
 20
124.6999545387865
 30
0.0
 40
1.5
 50
92.412978451484065
 51
124.0470677531769
  0
ARC
  5
26A1
  8
0
 10
46.080473717916483
 20
124.6999870624464
 30
0.0
 40
1.5
 50
55.952456767951652
 51
87.587021548516148
  0
ARC
  5
26A2
  8
0
 10
46.08047371791649
 20
136.30001293745909
 30
0.0
 40
1.5
 50
272.41297845148409
 51
304.04754323204833
  0
ARC
  5
26A3
  8
0
 10
53.918754469714841
 20
136.30004546111891
 30
0.0
 40
1.5
 50
235.9529322468224
 51
267.58702154851591
  0
ARC
  5
26B4
  8
0
 10
57.711264145277113
 20
85.262239512249295
 30
0.0
 40
4.0570165041249862
 50
198.1270450416672
 51
233.52324947234391
  0
POLYLINE
  5
26B9
  8
0
 10
44.700237415958014
 20
81.999999999999929
 30
0.0
 66
     1
 70
     8
  0
VERTEX
  8
0
  5
2A7F
 10
44.7002
 20
82.0000
 30
0.000000
  70
    32
  0
VERTEX
  8
0
  5
2A80
 10
44.7000
 20
82.0245
 30
0.000000
  70
    32
  0
VERTEX
  8
0
  5
2A81
 10
44.6995
 20
82.0491
 30
0.000000
  70
    32
  0
VERTEX
  8
0
  5
2A82
 10
44.6985
 20
82.0736
 30
0.000000
  70
    32
  0
VERTEX
  8
0
  5
2A83
 10
44.6972
 20
82.0981
 30
0.000000
  70
    32
  0
VERTEX
  8
0
  5
2A84
 10
44.6955
 20
82.1226
 30
0.000000
  70
    32
  0
VERTEX
  8
0
  5
2A85
 10
44.6934
 20
82.1471
 30
0.000000
  70
    32
  0
VERTEX
  8
0
  5
2A86
 10
44.6910
 20
82.1716
 30
0.000000
  70
    32
  0
VERTEX
  8
0
  5
2A87
 10
44.6882
 20
82.1960
 30
0.000000
  70
    32
  0
VERTEX
  8
0
  5
2A88
 10
44.6850
 20
82.2204
 30
0.000000
  70
    32
  0
VERTEX
  8
0
  5
2A89
 10
44.6814
 20
82.2448
 30
0.000000
  70
    32
  0
VERTEX
  8
0
  5
2A8A
 10
44.6774
 20
82.2692
 30
0.000000
  70
    32
  0
VERTEX
  8
0
  5
2A8B
 10
44.6731
 20
82.2935
 30
0.000000
  70
    32
  0
VERTEX
  8
0
  5
2A8C
 10
44.6684
 20
82.3177
 30
0.000000
  70
    32
  0
VERTEX
  8
0
  5
2A8D
 10
44.6633
 20
82.3419
 30
0.000000
  70
    32
  0
VERTEX
  8
0
  5
2A8E
 10
44.6579
 20
82.3661
 30
0.000000
  70
    32
  0
VERTEX
  8
0
  5
2A8F
 10
44.6520
 20
82.3902
 30
0.000000
  70
    32
  0
VERTEX
  8
0
  5
2A90
 10
44.6459
 20
82.4142
 30
0.000000
  70
    32
  0
VERTEX
  8
0
  5
2A91
 10
44.6393
 20
82.4382
 30
0.000000
  70
    32
  0
VERTEX
  8
0
  5
2A92
 10
44.6324
 20
82.4621
 30
0.000000
  70
    32
  0
VERTEX
  8
0
  5
2A93
 10
44.6251
 20
82.4860
 30
0.000000
  70
    32
  0
VERTEX
  8
0
  5
2A94
 10
44.6174
 20
82.5097
 30
0.000000
  70
    32
  0
VERTEX
  8
0
  5
2A95
 10
44.6094
 20
82.5334
 30
0.000000
  70
    32
  0
VERTEX
  8
0
  5
2A96
 10
44.6010
 20
82.5570
 30
0.000000
  70
    32
  0
VERTEX
  8
0
  5
2A97
 10
44.5922
 20
82.5806
 30
0.000000
  70
    32
  0
VERTEX
  8
0
  5
2A98
 10
44.5831
 20
82.6040
 30
0.000000
  70
    32
  0
VERTEX
  8
0
  5
2A99
 10
44.5737
 20
82.6274
 30
0.000000
  70
    32
  0
VERTEX
  8
0
  5
2A9A
 10
44.5638
 20
82.6506
 30
0.000000
  70
    32
  0
VERTEX
  8
0
  5
2A9B
 10
44.5536
 20
82.6738
 30
0.000000
  70
    32
  0
VERTEX
  8
0
  5
2A9C
 10
44.5431
 20
82.6968
 30
0.000000
  70
    32
  0
VERTEX
  8
0
  5
2A9D
 10
44.5322
 20
82.7198
 30
0.000000
  70
    32
  0
VERTEX
  8
0
  5
2A9E
 10
44.5209
 20
82.7426
 30
0.000000
  70
    32
  0
VERTEX
  8
0
  5
2A9F
 10
44.5093
 20
82.7654
 30
0.000000
  70
    32
  0
VERTEX
  8
0
  5
2AA0
 10
44.4974
 20
82.7880
 30
0.000000
  70
    32
  0
VERTEX
  8
0
  5
2AA1
 10
44.4851
 20
82.8105
 30
0.000000
  70
    32
  0
VERTEX
  8
0
  5
2AA2
 10
44.4724
 20
82.8329
 30
0.000000
  70
    32
  0
VERTEX
  8
0
  5
2AA3
 10
44.4594
 20
82.8551
 30
0.000000
  70
    32
  0
VERTEX
  8
0
  5
2AA4
 10
44.4461
 20
82.8772
 30
0.000000
  70
    32
  0
VERTEX
  8
0
  5
2AA5
 10
44.4324
 20
82.8992
 30
0.000000
  70
    32
  0
VERTEX
  8
0
  5
2AA6
 10
44.4184
 20
82.9211
 30
0.000000
  70
    32
  0
VERTEX
  8
0
  5
2AA7
 10
44.4041
 20
82.9428
 30
0.000000
  70
    32
  0
VERTEX
  8
0
  5
2AA8
 10
44.3894
 20
82.9644
 30
0.000000
  70
    32
  0
VERTEX
  8
0
  5
2AA9
 10
44.3744
 20
82.9858
 30
0.000000
  70
    32
  0
VERTEX
  8
0
  5
2AAA
 10
44.3591
 20
83.0071
 30
0.000000
  70
    32
  0
VERTEX
  8
0
  5
2AAB
 10
44.3434
 20
83.0282
 30
0.000000
  70
    32
  0
VERTEX
  8
0
  5
2AAC
 10
44.3274
 20
83.0492
 30
0.000000
  70
    32
  0
VERTEX
  8
0
  5
2AAD
 10
44.3111
 20
83.0700
 30
0.000000
  70
    32
  0
VERTEX
  8
0
  5
2AAE
 10
44.2945
 20
83.0906
 30
0.000000
  70
    32
  0
VERTEX
  8
0
  5
2AAF
 10
44.2776
 20
83.1111
 30
0.000000
  70
    32
  0
VERTEX
  8
0
  5
2AB0
 10
44.2603
 20
83.1315
 30
0.000000
  70
    32
  0
VERTEX
  8
0
  5
2AB1
 10
44.2427
 20
83.1516
 30
0.000000
  70
    32
  0
VERTEX
  8
0
  5
2AB2
 10
44.2249
 20
83.1716
 30
0.000000
  70
    32
  0
VERTEX
  8
0
  5
2AB3
 10
44.2067
 20
83.1914
 30
0.000000
  70
    32
  0
VERTEX
  8
0
  5
2AB4
 10
44.1882
 20
83.2110
 30
0.000000
  70
    32
  0
VERTEX
  8
0
  5
2AB5
 10
44.1694
 20
83.2305
 30
0.000000
  70
    32
  0
VERTEX
  8
0
  5
2AB6
 10
44.1503
 20
83.2497
 30
0.000000
  70
    32
  0
VERTEX
  8
0
  5
2AB7
 10
44.1310
 20
83.2688
 30
0.000000
  70
    32
  0
VERTEX
  8
0
  5
2AB8
 10
44.1113
 20
83.2877
 30
0.000000
  70
    32
  0
VERTEX
  8
0
  5
2AB9
 10
44.0913
 20
83.3063
 30
0.000000
  70
    32
  0
VERTEX
  8
0
  5
2ABA
 10
44.0711
 20
83.3248
 30
0.000000
  70
    32
  0
VERTEX
  8
0
  5
2ABB
 10
44.0505
 20
83.3431
 30
0.000000
  70
    32
  0
VERTEX
  8
0
  5
2ABC
 10
44.0297
 20
83.3612
 30
0.000000
  70
    32
  0
VERTEX
  8
0
  5
2ABD
 10
44.0087
 20
83.3791
 30
0.000000
  70
    32
  0
VERTEX
  8
0
  5
2ABE
 10
43.9873
 20
83.3968
 30
0.000000
  70
    32
  0
VERTEX
  8
0
  5
2ABF
 10
43.9657
 20
83.4142
 30
0.000000
  70
    32
  0
VERTEX
  8
0
  5
2AC0
 10
43.9438
 20
83.4315
 30
0.000000
  70
    32
  0
VERTEX
  8
0
  5
2AC1
 10
43.9216
 20
83.4485
 30
0.000000
  70
    32
  0
VERTEX
  8
0
  5
2AC2
 10
43.8992
 20
83.4653
 30
0.000000
  70
    32
  0
VERTEX
  8
0
  5
2AC3
 10
43.8765
 20
83.4819
 30
0.000000
  70
    32
  0
VERTEX
  8
0
  5
2AC4
 10
43.8536
 20
83.4983
 30
0.000000
  70
    32
  0
VERTEX
  8
0
  5
2AC5
 10
43.8304
 20
83.5144
 30
0.000000
  70
    32
  0
VERTEX
  8
0
  5
2AC6
 10
43.8070
 20
83.5303
 30
0.000000
  70
    32
  0
VERTEX
  8
0
  5
2AC7
 10
43.7833
 20
83.5460
 30
0.000000
  70
    32
  0
VERTEX
  8
0
  5
2AC8
 10
43.7594
 20
83.5615
 30
0.000000
  70
    32
  0
VERTEX
  8
0
  5
2AC9
 10
43.7352
 20
83.5767
 30
0.000000
  70
    32
  0
VERTEX
  8
0
  5
2ACA
 10
43.7109
 20
83.5917
 30
0.000000
  70
    32
  0
VERTEX
  8
0
  5
2ACB
 10
43.6863
 20
83.6064
 30
0.000000
  70
    32
  0
VERTEX
  8
0
  5
2ACC
 10
43.6614
 20
83.6209
 30
0.000000
  70
    32
  0
VERTEX
  8
0
  5
2ACD
 10
43.6364
 20
83.6352
 30
0.000000
  70
    32
  0
VERTEX
  8
0
  5
2ACE
 10
43.6111
 20
83.6492
 30
0.000000
  70
    32
  0
VERTEX
  8
0
  5
2ACF
 10
43.5856
 20
83.6629
 30
0.000000
  70
    32
  0
VERTEX
  8
0
  5
2AD0
 10
43.5599
 20
83.6764
 30
0.000000
  70
    32
  0
VERTEX
  8
0
  5
2AD1
 10
43.5340
 20
83.6897
 30
0.000000
  70
    32
  0
VERTEX
  8
0
  5
2AD2
 10
43.5079
 20
83.7027
 30
0.000000
  70
    32
  0
VERTEX
  8
0
  5
2AD3
 10
43.4816
 20
83.7155
 30
0.000000
  70
    32
  0
VERTEX
  8
0
  5
2AD4
 10
43.4551
 20
83.7279
 30
0.000000
  70
    32
  0
VERTEX
  8
0
  5
2AD5
 10
43.4284
 20
83.7402
 30
0.000000
  70
    32
  0
VERTEX
  8
0
  5
2AD6
 10
43.4016
 20
83.7521
 30
0.000000
  70
    32
  0
VERTEX
  8
0
  5
2AD7
 10
43.3745
 20
83.7638
 30
0.000000
  70
    32
  0
VERTEX
  8
0
  5
2AD8
 10
43.3473
 20
83.7753
 30
0.000000
  70
    32
  0
VERTEX
  8
0
  5
2AD9
 10
43.3199
 20
83.7864
 30
0.000000
  70
    32
  0
VERTEX
  8
0
  5
2ADA
 10
43.2923
 20
83.7973
 30
0.000000
  70
    32
  0
VERTEX
  8
0
  5
2ADB
 10
43.2646
 20
83.8080
 30
0.000000
  70
    32
  0
VERTEX
  8
0
  5
2ADC
 10
43.2367
 20
83.8183
 30
0.000000
  70
    32
  0
VERTEX
  8
0
  5
2ADD
 10
43.2086
 20
83.8284
 30
0.000000
  70
    32
  0
VERTEX
  8
0
  5
2ADE
 10
43.1804
 20
83.8382
 30
0.000000
  70
    32
  0
VERTEX
  8
0
  5
2ADF
 10
43.1520
 20
83.8478
 30
0.000000
  70
    32
  0
VERTEX
  8
0
  5
2AE0
 10
43.1235
 20
83.8570
 30
0.000000
  70
    32
  0
VERTEX
  8
0
  5
2AE1
 10
43.0949
 20
83.8660
 30
0.000000
  70
    32
  0
VERTEX
  8
0
  5
2AE2
 10
43.0661
 20
83.8747
 30
0.000000
  70
    32
  0
VERTEX
  8
0
  5
2AE3
 10
43.0372
 20
83.8831
 30
0.000000
  70
    32
  0
VERTEX
  8
0
  5
2AE4
 10
43.0081
 20
83.8912
 30
0.000000
  70
    32
  0
VERTEX
  8
0
  5
2AE5
 10
42.9790
 20
83.8991
 30
0.000000
  70
    32
  0
VERTEX
  8
0
  5
2AE6
 10
42.9497
 20
83.9066
 30
0.000000
  70
    32
  0
VERTEX
  8
0
  5
2AE7
 10
42.9203
 20
83.9139
 30
0.000000
  70
    32
  0
VERTEX
  8
0
  5
2AE8
 10
42.8908
 20
83.9209
 30
0.000000
  70
    32
  0
VERTEX
  8
0
  5
2AE9
 10
42.8612
 20
83.9276
 30
0.000000
  70
    32
  0
VERTEX
  8
0
  5
2AEA
 10
42.8315
 20
83.9340
 30
0.000000
  70
    32
  0
VERTEX
  8
0
  5
2AEB
 10
42.8016
 20
83.9401
 30
0.000000
  70
    32
  0
VERTEX
  8
0
  5
2AEC
 10
42.7717
 20
83.9459
 30
0.000000
  70
    32
  0
VERTEX
  8
0
  5
2AED
 10
42.7418
 20
83.9514
 30
0.000000
  70
    32
  0
VERTEX
  8
0
  5
2AEE
 10
42.7117
 20
83.9566
 30
0.000000
  70
    32
  0
VERTEX
  8
0
  5
2AEF
 10
42.6815
 20
83.9616
 30
0.000000
  70
    32
  0
VERTEX
  8
0
  5
2AF0
 10
42.6513
 20
83.9662
 30
0.000000
  70
    32
  0
VERTEX
  8
0
  5
2AF1
 10
42.6210
 20
83.9706
 30
0.000000
  70
    32
  0
VERTEX
  8
0
  5
2AF2
 10
42.5907
 20
83.9746
 30
0.000000
  70
    32
  0
VERTEX
  8
0
  5
2AF3
 10
42.5602
 20
83.9784
 30
0.000000
  70
    32
  0
VERTEX
  8
0
  5
2AF4
 10
42.5298
 20
83.9818
 30
0.000000
  70
    32
  0
VERTEX
  8
0
  5
2AF5
 10
42.4993
 20
83.9850
 30
0.000000
  70
    32
  0
VERTEX
  8
0
  5
2AF6
 10
42.4687
 20
83.9878
 30
0.000000
  70
    32
  0
VERTEX
  8
0
  5
2AF7
 10
42.4381
 20
83.9904
 30
0.000000
  70
    32
  0
VERTEX
  8
0
  5
2AF8
 10
42.4074
 20
83.9926
 30
0.000000
  70
    32
  0
VERTEX
  8
0
  5
2AF9
 10
42.3767
 20
83.9946
 30
0.000000
  70
    32
  0
VERTEX
  8
0
  5
2AFA
 10
42.3460
 20
83.9962
 30
0.000000
  70
    32
  0
VERTEX
  8
0
  5
2AFB
 10
42.3153
 20
83.9976
 30
0.000000
  70
    32
  0
VERTEX
  8
0
  5
2AFC
 10
42.2846
 20
83.9986
 30
0.000000
  70
    32
  0
VERTEX
  8
0
  5
2AFD
 10
42.2538
 20
83.9994
 30
0.000000
  70
    32
  0
VERTEX
  8
0
  5
2AFE
 10
42.2230
 20
83.9998
 30
0.000000
  70
    32
  0
VERTEX
  8
0
  5
2AFF
 10
42.1923
 20
84.0000
 30
0.000000
  70
    32
  0
SEQEND
  8
0
  5
2B00
  0
ARC
  5
270A
  8
0
 10
47.208715804266937
 20
90.931069666596841
 30
0.0
 40
1.064631737088876
 50
105.67595264568421
 51
178.60747473664679
  0
LINE
  5
270B
  8
0
 10
46.144398486289447
 20
84.000000000000057
 30
0.0
 11
46.144398486289433
 21
90.956942089561835
 31
0.0
  0
LINE
  5
270C
  8
0
 10
27.999999999999869
 20
84.000000000000057
 30
0.0
 11
46.144398486289461
 21
84.000000000000256
 31
0.0
  0
ARC
  5
270D
  8
0
 10
42.288735854722809
 20
85.262239512249295
 30
0.0
 40
4.0570165041249862
 50
306.47675052765601
 51
341.87295495833268
  0
ENDSEC
  0
EOF
