  0
SECTION
  2
HEADER
  9
$ACADVER
  1
AC1009
  9
$INSBASE
 10
0.0
 20
0.0
 30
0.0
  9
$EXTMIN
 10
0.0
 20
-2.960436562073669
 30
0.0
  9
$EXTMAX
 10
284.0197151699083
 20
151.79783636007181
 30
0.0
  9
$LIMMIN
 10
0.0
 20
0.0
  9
$LIMMAX
 10
375.0
 20
270.0
  9
$ORTHOMODE
 70
     1
  9
$REGENMODE
 70
     1
  9
$FILLMODE
 70
     1
  9
$QTEXTMODE
 70
     0
  9
$MIRRTEXT
 70
     0
  9
$DRAGMODE
 70
     2
  9
$LTSCALE
 40
10.0
  9
$OSMODE
 70
  3071
  9
$ATTMODE
 70
     1
  9
$TEXTSIZE
 40
0.2
  9
$TRACEWID
 40
0.05
  9
$TEXTSTYLE
  7
STANDARD
  9
$CLAYER
  8
0
  9
$CELTYPE
  6
BYLAYER
  9
$CECOLOR
 62
   256
  9
$DIMSCALE
 40
1.0
  9
$DIMASZ
 40
3.0
  9
$DIMEXO
 40
2.0
  9
$DIMDLI
 40
0.38
  9
$DIMRND
 40
0.0
  9
$DIMDLE
 40
0.0
  9
$DIMEXE
 40
2.0
  9
$DIMTP
 40
0.0
  9
$DIMTM
 40
0.0
  9
$DIMTXT
 40
3.2000000000000002
  9
$DIMCEN
 40
0.0
  9
$DIMTSZ
 40
0.0
  9
$DIMTOL
 70
     0
  9
$DIMLIM
 70
     0
  9
$DIMTIH
 70
     0
  9
$DIMTOH
 70
     0
  9
$DIMSE1
 70
     0
  9
$DIMSE2
 70
     0
  9
$DIMTAD
 70
     1
  9
$DIMZIN
 70
     0
  9
$DIMBLK
  1

  9
$DIMASO
 70
     1
  9
$DIMSHO
 70
     0
  9
$DIMPOST
  1

  9
$DIMAPOST
  1

  9
$DIMALT
 70
     0
  9
$DIMALTD
 70
     2
  9
$DIMALTF
 40
25.399999999999999
  9
$DIMLFAC
 40
1.0
  9
$DIMTOFL
 70
     1
  9
$DIMTVP
 40
1.6000000000000001
  9
$DIMTIX
 70
     1
  9
$DIMSOXD
 70
     0
  9
$DIMSAH
 70
     0
  9
$DIMBLK1
  1

  9
$DIMBLK2
  1

  9
$DIMSTYLE
  2
STANDARD
  9
$DIMCLRD
 70
     0
  9
$DIMCLRE
 70
     0
  9
$DIMCLRT
 70
     0
  9
$DIMTFAC
 40
1.0
  9
$DIMGAP
 40
0.09
  9
$LUNITS
 70
     2
  9
$LUPREC
 70
     4
  9
$SKETCHINC
 40
0.1
  9
$FILLETRAD
 40
0.0
  9
$AUNITS
 70
     0
  9
$AUPREC
 70
     4
  9
$MENU
  1
E:\r13\win\SUPPORT\ACAD
  9
$ELEVATION
 40
0.0
  9
$PELEVATION
 40
0.0
  9
$THICKNESS
 40
0.0
  9
$LIMCHECK
 70
     0
  9
$BLIPMODE
 70
     0
  9
$CHAMFERA
 40
0.0
  9
$CHAMFERB
 40
0.0
  9
$SKPOLY
 70
     0
  9
$TDCREATE
 40
2449839.7736111111
  9
$TDUPDATE
 40
2456598.3693938078
  9
$TDINDWG
 40
0.0036186921
  9
$TDUSRTIMER
 40
0.0036186921
  9
$USRTIMER
 70
     1
  9
$ANGBASE
 50
0.0
  9
$ANGDIR
 70
     0
  9
$PDMODE
 70
     0
  9
$PDSIZE
 40
0.0
  9
$PLINEWID
 40
0.0
  9
$COORDS
 70
     1
  9
$SPLFRAME
 70
     0
  9
$SPLINETYPE
 70
     6
  9
$SPLINESEGS
 70
     8
  9
$ATTDIA
 70
     0
  9
$ATTREQ
 70
     1
  9
$HANDLING
 70
     1
  9
$HANDSEED
  5
26A
  9
$SURFTAB1
 70
     6
  9
$SURFTAB2
 70
     6
  9
$SURFTYPE
 70
     6
  9
$SURFU
 70
     6
  9
$SURFV
 70
     6
  9
$UCSNAME
  2

  9
$UCSORG
 10
0.0
 20
0.0
 30
0.0
  9
$UCSXDIR
 10
1.0
 20
0.0
 30
0.0
  9
$UCSYDIR
 10
0.0
 20
1.0
 30
0.0
  9
$PUCSNAME
  2

  9
$PUCSORG
 10
0.0
 20
0.0
 30
0.0
  9
$PUCSXDIR
 10
1.0
 20
0.0
 30
0.0
  9
$PUCSYDIR
 10
0.0
 20
1.0
 30
0.0
  9
$USERI1
 70
     0
  9
$USERI2
 70
     1
  9
$USERI3
 70
     1
  9
$USERI4
 70
     0
  9
$USERI5
 70
     0
  9
$USERR1
 40
0.0
  9
$USERR2
 40
0.0
  9
$USERR3
 40
0.0
  9
$USERR4
 40
0.0
  9
$USERR5
 40
0.0
  9
$WORLDVIEW
 70
     1
  9
$SHADEDGE
 70
     3
  9
$SHADEDIF
 70
    70
  9
$TILEMODE
 70
     1
  9
$MAXACTVP
 70
    16
  9
$PLIMCHECK
 70
     0
  9
$PEXTMIN
 10
1.0000000000000000E+020
 20
1.0000000000000000E+020
 30
1.0000000000000000E+020
  9
$PEXTMAX
 10
-1.0000000000000000E+020
 20
-1.0000000000000000E+020
 30
-1.0000000000000000E+020
  9
$PLIMMIN
 10
0.0
 20
0.0
  9
$PLIMMAX
 10
12.0
 20
9.0
  9
$UNITMODE
 70
     0
  9
$VISRETAIN
 70
     0
  9
$PLINEGEN
 70
     0
  9
$PSLTSCALE
 70
     0
  0
ENDSEC
  0
SECTION
  2
TABLES
  0
TABLE
  2
VPORT
 70
     1
  0
VPORT
  2
*ACTIVE
 70
     0
 10
0.0
 20
0.0
 11
1.0
 21
1.0
 12
195.0581083320873
 22
133.5127261426681
 13
0.0
 23
0.0
 14
10.0
 24
10.0
 15
10.0
 25
10.0
 16
0.0
 26
0.0
 36
1.0
 17
0.0
 27
0.0
 37
0.0
 40
275.42274993631997
 41
1.831871345029239
 42
50.0
 43
0.0
 44
0.0
 50
0.0
 51
0.0
 71
     0
 72
   500
 73
     1
 74
     0
 75
     0
 76
     0
 77
     0
 78
     2
  0
ENDTAB
  0
TABLE
  2
LTYPE
 70
     4
  0
LTYPE
  2
CONTINUOUS
 70
     0
  3
Solid Line
 72
    65
 73
     0
 40
0.0
  0
LTYPE
  2
CENTER
 70
     0
  3
____ _ ____ _ ____ _ ____ _ ____ _ ____ _ ____
 72
    65
 73
     4
 40
2.0
 49
1.25
 49
-0.25
 49
0.25
 49
-0.25
  0
LTYPE
  2
HIDDEN
 70
     0
  3
_ _ _ _ _ _ _ _ _ _ _ _ _ _ _ _ _ _ _ _ _ _ _
 72
    65
 73
     2
 40
0.375
 49
0.25
 49
-0.125
  0
LTYPE
  2
PHANTOM2
 70
     0
  3
___ _ _ ___ _ _ ___ _ _ ___ _ _
 72
    65
 73
     6
 40
1.25
 49
0.625
 49
-0.125
 49
0.125
 49
-0.125
 49
0.125
 49
-0.125
  0
ENDTAB
  0
TABLE
  2
LAYER
 70
     4
  0
LAYER
  2
0
 70
     0
 62
     7
  6
CONTINUOUS
  0
LAYER
  2
1
 70
     0
 62
     1
  6
CENTER
  0
LAYER
  2
2
 70
     0
 62
     2
  6
HIDDEN
  0
LAYER
  2
3
 70
     0
 62
     3
  6
CONTINUOUS
  0
ENDTAB
  0
TABLE
  2
STYLE
 70
     2
  0
STYLE
  2
STANDARD
 70
     0
 40
0.0
 41
1.0
 50
0.0
 71
     0
 42
0.2
  3
TXT
  4
BIGFONT
  0
STYLE
  2
STANDARD1
 70
     0
 40
0.0
 41
1.0
 50
0.0
 71
     0
 42
3.0
  3
txt
  4

  0
ENDTAB
  0
TABLE
  2
VIEW
 70
     1
  0
VIEW
  2
ALL
 70
     0
 40
270.0
 10
220.99159663865549
 20
135.0
 41
0.0
 11
0.0
 21
0.0
 31
1.0
 12
0.0
 22
0.0
 32
0.0
 42
0.0
 43
0.0
 44
0.0
 50
0.0
 71
     0
  0
ENDTAB
  0
TABLE
  2
UCS
 70
     0
  0
ENDTAB
  0
TABLE
  2
APPID
 70
     3
  0
APPID
  2
ACAD
 70
     0
  0
APPID
  2
ACAD_MLEADERVER
 70
     0
  0
APPID
  2
ACAD_NAV_VCDISPLAY
 70
     0
  0
ENDTAB
  0
TABLE
  2
DIMSTYLE
 70
     1
  0
DIMSTYLE
  2
STANDARD
 70
     0
  3

  4

  5

  6

  7

 40
1.0
 41
0.18
 42
0.0625
 43
0.38
 44
0.18
 45
0.0
 46
0.0
 47
0.0
 48
0.0
140
0.18
141
0.09
142
0.0
143
25.399999999999999
144
1.0
145
0.0
146
1.0
147
0.09
 71
     0
 72
     0
 73
     1
 74
     1
 75
     0
 76
     0
 77
     0
 78
     0
170
     0
171
     2
172
     0
173
     0
174
     0
175
     0
176
     0
177
     0
178
     0
  0
ENDTAB
  0
ENDSEC
  0
SECTION
  2
BLOCKS
  0
BLOCK
  8
0
  2
$MODEL_SPACE
 70
     0
 10
0.0
 20
0.0
 30
0.0
  3
$MODEL_SPACE
  1

  0
ENDBLK
  5
D0
  8
0
  0
BLOCK
 67
     1
  8
0
  2
$PAPER_SPACE
 70
     0
 10
0.0
 20
0.0
 30
0.0
  3
$PAPER_SPACE
  1

  0
ENDBLK
  5
CE
 67
     1
  8
0
  0
ENDSEC
  0
SECTION
  2
ENTITIES
  0
LINE
  5
40
  8
1
 10
56.875666999459057
 20
44.684527007553982
 30
0.0
 11
24.875666999458861
 21
44.68452700755401
 31
0.0
  0
ARC
  5
41
  8
0
 10
40.875666999458971
 20
44.684527007553982
 30
0.0
 40
20.0
 50
236.63298703076839
 51
303.36701296923178
  0
ARC
  5
42
  8
0
 10
40.875666999458971
 20
44.684527007553982
 30
0.0
 40
20.0
 50
56.632987030768227
 51
123.36701296923169
  0
LINE
  5
43
  8
0
 10
51.875666999458957
 20
27.981233919063929
 30
0.0
 11
51.875666999458971
 21
61.387820096044052
 31
0.0
  0
LINE
  5
44
  8
0
 10
29.875666999458989
 20
27.9812339190639
 30
0.0
 11
29.875666999458989
 21
61.387820096044081
 31
0.0
  0
LINE
  5
45
  8
1
 10
40.87566699945895
 20
69.684527007553982
 30
0.0
 11
40.87566699945895
 21
19.684527007553982
 31
0.0
  0
LINE
  5
46
  8
2
 10
29.875666999458989
 20
35.68452700755401
 30
0.0
 11
51.875666999458971
 21
35.68452700755401
 31
0.0
  0
LINE
  5
47
  8
2
 10
29.875666999458989
 20
53.684527007554017
 30
0.0
 11
51.875666999458971
 21
53.684527007554017
 31
0.0
  0
LINE
  5
48
  8
1
 10
104.0197151699082
 20
44.684527007553939
 30
0.0
 11
284.0197151699083
 21
44.684527007553889
 31
0.0
  0
CIRCLE
  5
49
  8
0
 10
129.01971516990821
 20
44.684527007553939
 30
0.0
 40
9.0
  0
LINE
  5
4A
  8
0
 10
279.0197151699083
 20
52.184527007553889
 30
0.0
 11
279.01971516990818
 21
37.184527007553903
 31
0.0
  0
LINE
  5
4B
  8
1
 10
129.01971516990821
 20
19.684527007553939
 30
0.0
 11
129.01971516990821
 21
69.684527007553925
 31
0.0
  0
LINE
  5
4C
  8
0
 10
276.5197151699083
 20
54.684527007553889
 30
0.0
 11
279.0197151699083
 21
52.184527007553889
 31
0.0
  0
LINE
  5
4D
  8
0
 10
279.01971516990818
 20
37.184527007553903
 30
0.0
 11
276.51971516990818
 21
34.684527007553903
 31
0.0
  0
LINE
  5
4E
  8
0
 10
276.5197151699083
 20
54.684527007553889
 30
0.0
 11
276.51971516990818
 21
34.684527007553903
 31
0.0
  0
LINE
  5
4F
  8
0
 10
154.01971516990821
 20
34.684527007553903
 30
0.0
 11
154.0197151699083
 21
54.684527007553918
 31
0.0
  0
LINE
  5
50
  8
3
 10
277.8727151699083
 20
53.331527007553881
 30
0.0
 11
154.01971516990821
 21
53.331527007553881
 31
0.0
  0
LINE
  5
51
  8
3
 10
154.01971516990821
 20
53.331527007553881
 30
0.0
 11
151.6762504272676
 21
54.684527007553918
 31
0.0
  0
LINE
  5
52
  8
3
 10
277.8727151699083
 20
36.037527007553912
 30
0.0
 11
154.01971516990821
 21
36.037527007553912
 31
0.0
  0
LINE
  5
53
  8
3
 10
154.01971516990821
 20
36.037527007553912
 30
0.0
 11
151.6762504272676
 21
34.684527007553903
 31
0.0
  0
ARC
  5
54
  8
0
 10
149.5136167018274
 20
60.684527007553932
 30
0.0
 40
6.0
 50
217.9798773183837
 51
270.0
  0
LINE
  5
55
  8
0
 10
149.5136167018274
 20
54.684527007553939
 30
0.0
 11
276.5197151699083
 21
54.684527007553889
 31
0.0
  0
ARC
  5
56
  8
0
 10
149.5136167018274
 20
28.68452700755391
 30
0.0
 40
6.0
 50
89.999999999999986
 51
142.0201226816163
  0
ARC
  5
57
  8
0
 10
129.01971516990821
 20
44.684527007553939
 30
0.0
 40
20.0
 50
37.979870982792583
 51
322.02012901720741
  0
CIRCLE
  5
58
  8
0
 10
129.01971516990821
 20
44.68452700755391
 30
0.0
 40
16.703294437189271
  0
LINE
  5
59
  8
0
 10
276.51971516990818
 20
34.684527007553903
 30
0.0
 11
149.5136167018274
 21
34.684527007553939
 31
0.0
  0
ARC
  5
5A
  8
0
 10
149.0396330487537
 20
119.797836360072
 30
0.0
 40
6.0
 50
90.000000000000028
 51
123.55730976192049
  0
ARC
  5
5B
  8
0
 10
149.0396330487537
 20
151.79783636007201
 30
0.0
 40
6.0
 50
236.44269023807951
 51
270.0
  0
ARC
  5
5C
  8
0
 10
129.01971516990821
 20
135.79783636007201
 30
0.0
 40
20.0
 50
146.63298703076831
 51
213.36701296923169
  0
LINE
  5
5D
  8
0
 10
112.3164220814182
 20
124.797836360072
 30
0.0
 11
145.72300825839829
 21
124.797836360072
 31
0.0
  0
LINE
  5
5E
  8
0
 10
112.3164220814182
 20
146.79783636007201
 30
0.0
 11
145.72300825839829
 21
146.79783636007201
 31
0.0
  0
LINE
  5
5F
  8
2
 10
120.0197151699082
 20
146.79783636007201
 30
0.0
 11
120.0197151699082
 21
124.797836360072
 31
0.0
  0
LINE
  5
60
  8
2
 10
138.01971516990821
 20
146.79783636007201
 30
0.0
 11
138.01971516990821
 21
124.797836360072
 31
0.0
  0
LINE
  5
61
  8
1
 10
104.0197151699082
 20
135.79783636007201
 30
0.0
 11
284.0197151699083
 21
135.79783636007201
 31
0.0
  0
LINE
  5
62
  8
0
 10
279.0197151699083
 20
143.29783636007201
 30
0.0
 11
279.0197151699083
 21
128.29783636007201
 31
0.0
  0
LINE
  5
63
  8
1
 10
129.01971516990821
 20
119.797836360072
 30
0.0
 11
129.01971516990821
 21
151.79783636007181
 31
0.0
  0
LINE
  5
64
  8
0
 10
276.5197151699083
 20
145.79783636007201
 30
0.0
 11
279.0197151699083
 21
143.29783636007201
 31
0.0
  0
LINE
  5
65
  8
0
 10
279.0197151699083
 20
128.29783636007201
 30
0.0
 11
276.5197151699083
 21
125.797836360072
 31
0.0
  0
LINE
  5
66
  8
0
 10
276.5197151699083
 20
145.79783636007201
 30
0.0
 11
276.51971516990818
 21
125.797836360072
 31
0.0
  0
LINE
  5
67
  8
0
 10
154.01971516990821
 20
125.797836360072
 30
0.0
 11
154.0197151699083
 21
145.79783636007201
 31
0.0
  0
LINE
  5
68
  8
3
 10
277.8727151699083
 20
144.444836360072
 30
0.0
 11
154.01971516990821
 21
144.444836360072
 31
0.0
  0
LINE
  5
69
  8
3
 10
154.01971516990821
 20
144.444836360072
 30
0.0
 11
151.6762504272676
 21
145.79783636007201
 31
0.0
  0
LINE
  5
6A
  8
3
 10
277.8727151699083
 20
127.15083636007201
 30
0.0
 11
154.01971516990821
 21
127.15083636007201
 31
0.0
  0
LINE
  5
6B
  8
3
 10
154.01971516990821
 20
127.15083636007201
 30
0.0
 11
151.6762504272676
 21
125.797836360072
 31
0.0
  0
LINE
  5
6C
  8
0
 10
149.0396330487537
 20
145.79783636007201
 30
0.0
 11
276.5197151699083
 21
145.79783636007201
 31
0.0
  0
LINE
  5
6D
  8
0
 10
276.5197151699083
 20
125.797836360072
 30
0.0
 11
149.0396330487537
 21
125.797836360072
 31
0.0
  0
TEXT
  5
1DB
  8
0
 62
     3
 10
0.0
 20
0.0
 30
0.0
 40
10.0
  1
BJ761-20002A
  7
STANDARD1
  0
ENDSEC
  0
EOF
