  0
SECTION
  2
HEADER
  9
$ACADVER
  1
AC1009
  9
$INSBASE
 10
0.0
 20
0.0
 30
0.0
  9
$EXTMIN
 10
0.0
 20
-2.960436562073669
 30
0.0
  9
$EXTMAX
 10
83.110504774897677
 20
112.7359734700444
 30
0.0
  9
$LIMMIN
 10
0.0
 20
0.0
  9
$LIMMAX
 10
187.5
 20
135.0
  9
$ORTHOMODE
 70
     1
  9
$REGENMODE
 70
     1
  9
$FILLMODE
 70
     1
  9
$QTEXTMODE
 70
     0
  9
$MIRRTEXT
 70
     0
  9
$DRAGMODE
 70
     2
  9
$LTSCALE
 40
5.0
  9
$OSMODE
 70
  3071
  9
$ATTMODE
 70
     1
  9
$TEXTSIZE
 40
2.5000000000000488
  9
$TRACEWID
 40
0.05
  9
$TEXTSTYLE
  7
STANDARD
  9
$CLAYER
  8
1
  9
$CELTYPE
  6
BYLAYER
  9
$CECOLOR
 62
   256
  9
$DIMSCALE
 40
0.5
  9
$DIMASZ
 40
3.0
  9
$DIMEXO
 40
2.0
  9
$DIMDLI
 40
10.0
  9
$DIMRND
 40
0.0
  9
$DIMDLE
 40
0.0
  9
$DIMEXE
 40
2.0
  9
$DIMTP
 40
0.0
  9
$DIMTM
 40
0.0
  9
$DIMTXT
 40
3.2000000000000002
  9
$DIMCEN
 40
0.0
  9
$DIMTSZ
 40
0.0
  9
$DIMTOL
 70
     0
  9
$DIMLIM
 70
     0
  9
$DIMTIH
 70
     0
  9
$DIMTOH
 70
     0
  9
$DIMSE1
 70
     0
  9
$DIMSE2
 70
     0
  9
$DIMTAD
 70
     1
  9
$DIMZIN
 70
     0
  9
$DIMBLK
  1

  9
$DIMASO
 70
     1
  9
$DIMSHO
 70
     0
  9
$DIMPOST
  1

  9
$DIMAPOST
  1

  9
$DIMALT
 70
     0
  9
$DIMALTD
 70
     2
  9
$DIMALTF
 40
25.399999999999999
  9
$DIMLFAC
 40
1.0
  9
$DIMTOFL
 70
     1
  9
$DIMTVP
 40
1.6000000000000001
  9
$DIMTIX
 70
     1
  9
$DIMSOXD
 70
     0
  9
$DIMSAH
 70
     0
  9
$DIMBLK1
  1

  9
$DIMBLK2
  1

  9
$DIMSTYLE
  2
STANDARD
  9
$DIMCLRD
 70
     0
  9
$DIMCLRE
 70
     0
  9
$DIMCLRT
 70
     0
  9
$DIMTFAC
 40
1.0
  9
$DIMGAP
 40
0.09
  9
$LUNITS
 70
     2
  9
$LUPREC
 70
     4
  9
$SKETCHINC
 40
0.1
  9
$FILLETRAD
 40
0.0
  9
$AUNITS
 70
     0
  9
$AUPREC
 70
     4
  9
$MENU
  1
E:\r13\win\SUPPORT\ACAD
  9
$ELEVATION
 40
0.0
  9
$PELEVATION
 40
0.0
  9
$THICKNESS
 40
0.0
  9
$LIMCHECK
 70
     0
  9
$BLIPMODE
 70
     0
  9
$CHAMFERA
 40
0.0
  9
$CHAMFERB
 40
0.0
  9
$SKPOLY
 70
     0
  9
$TDCREATE
 40
2449839.7731481479
  9
$TDUPDATE
 40
2456602.6104844562
  9
$TDINDWG
 40
0.1441820949
  9
$TDUSRTIMER
 40
2456598.4090469792
  9
$USRTIMER
 70
     1
  9
$ANGBASE
 50
0.0
  9
$ANGDIR
 70
     0
  9
$PDMODE
 70
    35
  9
$PDSIZE
 40
0.0
  9
$PLINEWID
 40
0.0
  9
$COORDS
 70
     1
  9
$SPLFRAME
 70
     0
  9
$SPLINETYPE
 70
     6
  9
$SPLINESEGS
 70
     8
  9
$ATTDIA
 70
     0
  9
$ATTREQ
 70
     1
  9
$HANDLING
 70
     1
  9
$HANDSEED
  5
FB6
  9
$SURFTAB1
 70
     6
  9
$SURFTAB2
 70
     6
  9
$SURFTYPE
 70
     6
  9
$SURFU
 70
     6
  9
$SURFV
 70
     6
  9
$UCSNAME
  2

  9
$UCSORG
 10
0.0
 20
0.0
 30
0.0
  9
$UCSXDIR
 10
1.0
 20
0.0
 30
0.0
  9
$UCSYDIR
 10
0.0
 20
1.0
 30
0.0
  9
$PUCSNAME
  2

  9
$PUCSORG
 10
0.0
 20
0.0
 30
0.0
  9
$PUCSXDIR
 10
1.0
 20
0.0
 30
0.0
  9
$PUCSYDIR
 10
0.0
 20
1.0
 30
0.0
  9
$USERI1
 70
     0
  9
$USERI2
 70
     1
  9
$USERI3
 70
     1
  9
$USERI4
 70
     0
  9
$USERI5
 70
     0
  9
$USERR1
 40
0.0
  9
$USERR2
 40
0.0
  9
$USERR3
 40
0.0
  9
$USERR4
 40
0.0
  9
$USERR5
 40
0.0
  9
$WORLDVIEW
 70
     1
  9
$SHADEDGE
 70
     3
  9
$SHADEDIF
 70
    70
  9
$TILEMODE
 70
     1
  9
$MAXACTVP
 70
    16
  9
$PLIMCHECK
 70
     0
  9
$PEXTMIN
 10
1.0000000000000000E+020
 20
1.0000000000000000E+020
 30
1.0000000000000000E+020
  9
$PEXTMAX
 10
-1.0000000000000000E+020
 20
-1.0000000000000000E+020
 30
-1.0000000000000000E+020
  9
$PLIMMIN
 10
0.0
 20
0.0
  9
$PLIMMAX
 10
12.0
 20
9.0
  9
$UNITMODE
 70
     0
  9
$VISRETAIN
 70
     0
  9
$PLINEGEN
 70
     0
  9
$PSLTSCALE
 70
     0
  0
ENDSEC
  0
SECTION
  2
TABLES
  0
TABLE
  2
VPORT
 70
     1
  0
VPORT
  2
*ACTIVE
 70
     0
 10
0.0
 20
0.0
 11
1.0
 21
1.0
 12
97.570150770051072
 22
66.014785922033241
 13
0.0
 23
0.0
 14
5.0
 24
5.0
 15
5.0
 25
5.0
 16
0.0
 26
0.0
 36
1.0
 17
0.0
 27
0.0
 37
0.0
 40
139.20783109903601
 41
1.831871345029239
 42
50.0
 43
0.0
 44
0.0
 50
0.0
 51
0.0
 71
     0
 72
   500
 73
     1
 74
     0
 75
     0
 76
     0
 77
     0
 78
     2
  0
ENDTAB
  0
TABLE
  2
LTYPE
 70
     4
  0
LTYPE
  2
CONTINUOUS
 70
     0
  3
Solid Line
 72
    65
 73
     0
 40
0.0
  0
LTYPE
  2
CENTER
 70
     0
  3
____ _ ____ _ ____ _ ____ _ ____ _ ____ _ ____
 72
    65
 73
     4
 40
2.0
 49
1.25
 49
-0.25
 49
0.25
 49
-0.25
  0
LTYPE
  2
HIDDEN
 70
     0
  3
_ _ _ _ _ _ _ _ _ _ _ _ _ _ _ _ _ _ _ _ _ _ _
 72
    65
 73
     2
 40
0.375
 49
0.25
 49
-0.125
  0
LTYPE
  2
PHANTOM2
 70
     0
  3
___ _ _ ___ _ _ ___ _ _ ___ _ _
 72
    65
 73
     6
 40
1.25
 49
0.625
 49
-0.125
 49
0.125
 49
-0.125
 49
0.125
 49
-0.125
  0
ENDTAB
  0
TABLE
  2
LAYER
 70
     5
  0
LAYER
  2
0
 70
     0
 62
     7
  6
CONTINUOUS
  0
LAYER
  2
1
 70
     0
 62
     1
  6
CENTER
  0
LAYER
  2
3
 70
     0
 62
     3
  6
CONTINUOUS
  0
LAYER
  2
2
 70
     0
 62
     2
  6
HIDDEN
  0
LAYER
  2
DEFPOINTS
 70
     0
 62
     7
  6
CONTINUOUS
  0
ENDTAB
  0
TABLE
  2
STYLE
 70
     2
  0
STYLE
  2
STANDARD
 70
     0
 40
0.0
 41
1.0
 50
0.0
 71
     0
 42
2.5000000000000488
  3
TXT
  4
BIGFONT
  0
STYLE
  2
STANDARD1
 70
     0
 40
0.0
 41
1.0
 50
0.0
 71
     0
 42
3.0
  3
txt
  4

  0
ENDTAB
  0
TABLE
  2
VIEW
 70
     1
  0
VIEW
  2
ALL
 70
     0
 40
135.0
 10
106.6284453781512
 20
67.5
 41
0.0
 11
0.0
 21
0.0
 31
1.0
 12
0.0
 22
0.0
 32
0.0
 42
0.0
 43
0.0
 44
0.0
 50
0.0
 71
     0
  0
ENDTAB
  0
TABLE
  2
UCS
 70
     0
  0
ENDTAB
  0
TABLE
  2
APPID
 70
    38
  0
APPID
  2
ACAD
 70
     0
  0
APPID
  2
DCO15
 70
     0
  0
APPID
  2
GENIUS_GENOREF_13
 70
     0
  0
APPID
  2
GENIUS_GENOENT_13
 70
     0
  0
APPID
  2
GENIUS_GENBH_13
 70
     0
  0
APPID
  2
GENIUS_GENOBJ_13
 70
     0
  0
APPID
  2
GENIUS_GENODEF_13
 70
     0
  0
APPID
  2
GENIUS_GENOLIS_13
 70
     0
  0
APPID
  2
GENIUS_GENOBJ-NBEHI-BHF_13
 70
     0
  0
APPID
  2
GENIUS_GENOBJ-NBEHI-BHB_13
 70
     0
  0
APPID
  2
GENIUS_GENOBJ-F-PART_13
 70
     0
  0
APPID
  2
GENIUS_GEFSTDP_13
 70
     0
  0
APPID
  2
GENIUS_GENOBJ-N-RSSYM_13
 70
     0
  0
APPID
  2
GENIUS_GENSYMENT_13
 70
     0
  0
APPID
  2
GENIUS_GENOBJ-N-TIT_13
 70
     0
  0
APPID
  2
GENIUS_GENTITLE_13
 70
     0
  0
APPID
  2
GENIUS_GENZVEED_13
 70
     0
  0
APPID
  2
GENIUS_GENOBJ-N-LEADER_13
 70
     0
  0
APPID
  2
GENIUS_GENOBJ-N-FIL_13
 70
     0
  0
APPID
  2
GENIUS_GENOBJ-N-SEC_13
 70
     0
  0
APPID
  2
GENIUS_GENOBJ-N-CRS_13
 70
     0
  0
APPID
  2
GENIUS_GENOBJ-N-ZOO_13
 70
     0
  0
APPID
  2
GENIUS_GENZOO_13
 70
     0
  0
APPID
  2
GENIUS_GENOBJ-F-TOL_13
 70
     0
  0
APPID
  2
GENIUS_GENFIL_13
 70
     0
  0
APPID
  2
GENIUS_GENOBJ-N-CHA_13
 70
     0
  0
APPID
  2
_CALL_MAC$
 70
     0
  0
APPID
  2
ASM_BASE
 70
     0
  0
APPID
  2
ASM_EXPLO_VER_2_00
 70
     0
  0
APPID
  2
ASM_CADM_VER_12_00
 70
     0
  0
APPID
  2
ASM_BASEFORO
 70
     0
  0
APPID
  2
ASM_BASETRAVI
 70
     0
  0
APPID
  2
ASM_BASETRAVI1
 70
     0
  0
APPID
  2
ASM_GRUPPI
 70
     0
  0
APPID
  2
ASM_CADM_ALBERO
 70
     0
  0
APPID
  2
ASM_GOLE
 70
     0
  0
APPID
  2
ACAD_MLEADERVER
 70
     0
  0
APPID
  2
ACAD_NAV_VCDISPLAY
 70
     0
  0
ENDTAB
  0
TABLE
  2
DIMSTYLE
 70
     1
  0
DIMSTYLE
  2
STANDARD
 70
     0
  3

  4

  5

  6

  7

 40
1.0
 41
0.18
 42
0.0625
 43
0.38
 44
0.18
 45
0.0
 46
0.0
 47
0.0
 48
0.0
140
0.18
141
0.09
142
0.0
143
25.399999999999999
144
1.0
145
0.0
146
1.0
147
0.09
 71
     0
 72
     0
 73
     1
 74
     1
 75
     0
 76
     0
 77
     0
 78
     0
170
     0
171
     2
172
     0
173
     0
174
     0
175
     0
176
     0
177
     0
178
     0
  0
ENDTAB
  0
ENDSEC
  0
SECTION
  2
BLOCKS
  0
BLOCK
  8
0
  2
$MODEL_SPACE
 70
     0
 10
0.0
 20
0.0
 30
0.0
  3
$MODEL_SPACE
  1

  0
ENDBLK
  5
E9
  8
0
  0
BLOCK
 67
     1
  8
0
  2
$PAPER_SPACE
 70
     0
 10
0.0
 20
0.0
 30
0.0
  3
$PAPER_SPACE
  1

  0
ENDBLK
  5
E7
 67
     1
  8
0
  0
ENDSEC
  0
SECTION
  2
ENTITIES
  0
LINE
  5
9C0
  8
3
 10
21.041043748200369
 20
38.727504048499199
 30
0.0
 11
21.041043748200369
 21
49.127504048499198
 31
0.0
  0
LINE
  5
9C1
  8
3
 10
21.129724154907311
 20
38.727504048499199
 30
0.0
 11
21.129724154907311
 21
49.127504048499198
 31
0.0
  0
LINE
  5
9C2
  8
3
 10
21.27713591369411
 20
38.727504048499199
 30
0.0
 11
21.27713591369411
 21
49.127504048499198
 31
0.0
  0
LINE
  5
9C3
  8
3
 10
21.482697257694952
 20
38.727504048499199
 30
0.0
 11
21.482697257695008
 21
49.127504048499198
 31
0.0
  0
LINE
  5
9C4
  8
3
 10
21.74559693019717
 20
38.727504048499199
 30
0.0
 11
21.74559693019717
 21
49.127504048499198
 31
0.0
  0
LINE
  5
9C5
  8
3
 10
22.064797386300651
 20
38.727504048499199
 30
0.0
 11
22.064797386300711
 21
49.127504048499198
 31
0.0
  0
LINE
  5
9C6
  8
3
 10
22.43903888763413
 20
38.727504048499199
 30
0.0
 11
22.43903888763418
 21
49.127504048499198
 31
0.0
  0
LINE
  5
9C7
  8
3
 10
22.86684447396652
 20
38.727504048499199
 30
0.0
 11
22.86684447396652
 21
49.127504048499198
 31
0.0
  0
LINE
  5
9C8
  8
3
 10
23.346525792094209
 20
38.727504048499199
 30
0.0
 11
23.346525792094209
 21
49.127504048499198
 31
0.0
  0
LINE
  5
9C9
  8
3
 10
23.87618975900023
 20
38.727504048499199
 30
0.0
 11
23.87618975900023
 21
49.127504048499198
 31
0.0
  0
LINE
  5
9CA
  8
3
 10
24.453746032987631
 20
49.127504048499198
 30
0.0
 11
24.453746032987631
 21
38.727504048499199
 31
0.0
  0
LINE
  5
9CB
  8
3
 10
25.076915263303309
 20
49.127504048499198
 30
0.0
 11
25.076915263303309
 21
38.727504048499199
 31
0.0
  0
LINE
  5
9CC
  8
3
 10
25.743238085694149
 20
49.127504048499198
 30
0.0
 11
25.743238085694149
 21
38.727504048499199
 31
0.0
  0
LINE
  5
9CD
  8
3
 10
26.4500848283941
 20
49.127504048499198
 30
0.0
 11
26.4500848283941
 21
38.727504048499199
 31
0.0
  0
LINE
  5
9CE
  8
3
 10
27.194665890237388
 20
49.127504048499198
 30
0.0
 11
27.194665890237388
 21
38.727504048499199
 31
0.0
  0
LINE
  5
9CF
  8
3
 10
27.974042749939539
 20
49.127504048499198
 30
0.0
 11
27.974042749939539
 21
38.727504048499199
 31
0.0
  0
LINE
  5
9D0
  8
3
 10
28.78513956309877
 20
49.127504048499198
 30
0.0
 11
28.78513956309877
 21
38.727504048499199
 31
0.0
  0
LINE
  5
9D1
  8
3
 10
29.624755301148411
 20
49.127504048499198
 30
0.0
 11
29.624755301148411
 21
38.727504048499199
 31
0.0
  0
LINE
  5
9D2
  8
3
 10
30.48957638435434
 20
49.127504048499198
 30
0.0
 11
30.48957638435434
 21
38.727504048499199
 31
0.0
  0
LINE
  5
9D3
  8
3
 10
31.37618975900029
 20
49.127504048499198
 30
0.0
 11
31.37618975900029
 21
38.727504048499199
 31
0.0
  0
LINE
  5
9D4
  8
3
 10
32.28109636715164
 20
49.127504048499198
 30
0.0
 11
32.28109636715169
 21
38.727504048499199
 31
0.0
  0
LINE
  5
9D5
  8
3
 10
33.200724955838609
 20
49.127504048499198
 30
0.0
 11
33.200724955838609
 21
38.727504048499199
 31
0.0
  0
LINE
  5
9D6
  8
3
 10
34.131446171159887
 20
49.127504048499198
 30
0.0
 11
34.131446171159887
 21
38.727504048499199
 31
0.0
  0
LINE
  5
9D7
  8
3
 10
35.069586881684813
 20
49.127504048499198
 30
0.0
 11
35.069586881684813
 21
38.727504048499199
 31
0.0
  0
LINE
  5
9D8
  8
3
 10
36.011444674624499
 20
49.127504048499198
 30
0.0
 11
36.011444674624499
 21
38.727504048499199
 31
0.0
  0
LINE
  5
9D9
  8
3
 10
36.953302467564129
 20
49.127504048499198
 30
0.0
 11
36.953302467564129
 21
38.727504048499199
 31
0.0
  0
LINE
  5
9DA
  8
3
 10
37.891443178089048
 20
49.127504048499198
 30
0.0
 11
37.891443178089048
 21
38.727504048499199
 31
0.0
  0
LINE
  5
9DB
  8
3
 10
38.822164393410333
 20
49.127504048499198
 30
0.0
 11
38.822164393410333
 21
38.727504048499199
 31
0.0
  0
LINE
  5
9DC
  8
3
 10
39.741792982097309
 20
49.127504048499198
 30
0.0
 11
39.741792982097252
 21
38.727504048499199
 31
0.0
  0
LINE
  5
9DD
  8
3
 10
40.646699590248659
 20
49.127504048499198
 30
0.0
 11
40.646699590248659
 21
38.727504048499199
 31
0.0
  0
LINE
  5
9DE
  8
3
 10
41.533312964894613
 20
49.127504048499198
 30
0.0
 11
41.533312964894613
 21
38.727504048499199
 31
0.0
  0
LINE
  5
9DF
  8
3
 10
42.398134048100523
 20
49.127504048499198
 30
0.0
 11
42.398134048100523
 21
38.727504048499199
 31
0.0
  0
LINE
  5
9E0
  8
3
 10
43.237749786150168
 20
49.127504048499198
 30
0.0
 11
43.237749786150168
 21
38.727504048499199
 31
0.0
  0
LINE
  5
9E1
  8
3
 10
44.0488465993094
 20
49.127504048499198
 30
0.0
 11
44.0488465993094
 21
38.727504048499199
 31
0.0
  0
LINE
  5
9E2
  8
3
 10
44.828223459011546
 20
49.127504048499198
 30
0.0
 11
44.828223459011546
 21
38.727504048499199
 31
0.0
  0
LINE
  5
9E3
  8
3
 10
45.572804520854852
 20
49.127504048499198
 30
0.0
 11
45.572804520854852
 21
38.727504048499199
 31
0.0
  0
LINE
  5
9E4
  8
3
 10
46.27965126355479
 20
49.127504048499198
 30
0.0
 11
46.27965126355479
 21
38.727504048499199
 31
0.0
  0
LINE
  5
9E5
  8
3
 10
46.945974085945629
 20
49.127504048499198
 30
0.0
 11
46.945974085945629
 21
38.727504048499199
 31
0.0
  0
LINE
  5
9E6
  8
3
 10
47.569143316261311
 20
49.127504048499198
 30
0.0
 11
47.569143316261311
 21
38.727504048499199
 31
0.0
  0
LINE
  5
9E7
  8
3
 10
48.146699590248723
 20
38.727504048499199
 30
0.0
 11
48.146699590248723
 21
49.127504048499198
 31
0.0
  0
LINE
  5
9E8
  8
3
 10
48.67636355715473
 20
38.727504048499199
 30
0.0
 11
48.67636355715473
 21
49.127504048499198
 31
0.0
  0
LINE
  5
9E9
  8
3
 10
49.156044875282412
 20
38.727504048499199
 30
0.0
 11
49.156044875282412
 21
49.127504048499198
 31
0.0
  0
LINE
  5
9EA
  8
3
 10
49.583850461614809
 20
38.727504048499199
 30
0.0
 11
49.583850461614759
 21
49.127504048499198
 31
0.0
  0
LINE
  5
9EB
  8
3
 10
49.958091962948281
 20
38.727504048499199
 30
0.0
 11
49.958091962948231
 21
49.127504048499198
 31
0.0
  0
LINE
  5
9EC
  8
3
 10
50.277292419051768
 20
38.727504048499199
 30
0.0
 11
50.277292419051768
 21
49.127504048499198
 31
0.0
  0
LINE
  5
9ED
  8
3
 10
50.54019209155399
 20
38.727504048499199
 30
0.0
 11
50.540192091553934
 21
49.127504048499198
 31
0.0
  0
LINE
  5
9EE
  8
3
 10
50.745753435554832
 20
38.727504048499199
 30
0.0
 11
50.745753435554832
 21
49.127504048499198
 31
0.0
  0
LINE
  5
9EF
  8
3
 10
50.893165194341627
 20
38.727504048499199
 30
0.0
 11
50.893165194341627
 21
49.127504048499198
 31
0.0
  0
LINE
  5
9F0
  8
3
 10
50.981845601048583
 20
38.727504048499199
 30
0.0
 11
50.981845601048583
 21
49.127504048499198
 31
0.0
  0
LINE
  5
BEA
  8
0
 10
21.011444674624439
 20
38.72750404849922
 30
0.0
 11
21.81144467462445
 21
37.92750404849923
 31
0.0
  0
LINE
  5
BEB
  8
0
 10
50.211444674624431
 20
37.92750404849923
 30
0.0
 11
51.011444674624443
 21
38.72750404849922
 31
0.0
  0
LINE
  5
BEC
  8
0
 10
51.011444674624443
 20
49.127504048499219
 30
0.0
 11
50.211444674624431
 21
49.927504048499202
 31
0.0
  0
LINE
  5
BED
  8
0
 10
21.81144467462445
 20
49.927504048499202
 30
0.0
 11
21.011444674624439
 21
49.127504048499219
 31
0.0
  0
LINE
  5
BEE
  8
0
 10
21.011444674624439
 20
49.127504048499219
 30
0.0
 11
21.011444674624439
 21
38.72750404849922
 31
0.0
  0
LINE
  5
BEF
  8
0
 10
51.011444674624443
 20
38.72750404849922
 30
0.0
 11
51.011444674624443
 21
49.127504048499219
 31
0.0
  0
ARC
  5
BF0
  8
0
 10
25.211444674624431
 20
37.127504048499247
 30
0.0
 40
0.8000000000000113
 50
0.0
 51
90.0
  0
ARC
  5
BF1
  8
0
 10
46.811444674624447
 20
37.127504048499247
 30
0.0
 40
0.8000000000000113
 50
90.0
 51
180.0
  0
LINE
  5
BF2
  8
0
 10
26.011444674624439
 20
33.727504048499213
 30
0.0
 11
26.81144467462445
 21
32.92750404849923
 31
0.0
  0
LINE
  5
BF3
  8
0
 10
45.211444674624431
 20
32.92750404849923
 30
0.0
 11
46.011444674624443
 21
33.727504048499213
 31
0.0
  0
LINE
  5
BF4
  8
0
 10
26.011444674624439
 20
37.127504048499247
 30
0.0
 11
26.011444674624439
 21
33.727504048499213
 31
0.0
  0
LINE
  5
BF5
  8
0
 10
46.011444674624443
 20
33.727504048499213
 30
0.0
 11
46.011444674624443
 21
37.127504048499247
 31
0.0
  0
LINE
  5
BF6
  8
0
 10
21.011444674624439
 20
38.72750404849922
 30
0.0
 11
51.011444674624443
 21
38.72750404849922
 31
0.0
  0
LINE
  5
BF7
  8
0
 10
21.81144467462445
 20
37.92750404849923
 30
0.0
 11
50.211444674624431
 21
37.92750404849923
 31
0.0
  0
LINE
  5
BF9
  8
0
 10
21.011444674624439
 20
49.127504048499219
 30
0.0
 11
51.011444674624443
 21
49.127504048499219
 31
0.0
  0
LINE
  5
BFA
  8
0
 10
50.211444674624431
 20
49.927504048499202
 30
0.0
 11
21.81144467462445
 21
49.927504048499202
 31
0.0
  0
LINE
  5
BFB
  8
0
 10
45.211444674624552
 20
32.92750404849923
 30
0.0
 11
26.81144467462445
 21
32.92750404849923
 31
0.0
  0
LINE
  5
BFD
  8
0
 10
46.011444674624443
 20
33.727504048499213
 30
0.0
 11
26.011444674624439
 21
33.727504048499213
 31
0.0
  0
LINE
  5
BFE
  8
0
 10
26.011444674624439
 20
37.127504048499247
 30
0.0
 11
46.011444674624443
 21
37.127504048499247
 31
0.0
  0
LINE
  5
C04
  8
2
 10
29.48924419927852
 20
49.92750404849923
 30
0.0
 11
32.687944674624418
 21
37.989791356313653
 31
0.0
  0
LINE
  5
C05
  8
2
 10
42.533645149970312
 20
32.92750404849923
 30
0.0
 11
39.33494467462441
 21
44.865216740684787
 31
0.0
  0
LINE
  5
C06
  8
2
 10
32.687944674624418
 20
37.989791356313653
 30
0.0
 11
32.687944674624418
 21
32.92750404849923
 31
0.0
  0
LINE
  5
C07
  8
2
 10
39.33494467462441
 20
44.865216740684787
 30
0.0
 11
39.33494467462441
 21
49.92750404849923
 31
0.0
  0
POLYLINE
  5
C0C
  8
0
 10
35.077011429600716
 20
98.625296613033953
 30
0.0
 66
     1
 70
     8
  0
VERTEX
  8
0
  5
EB2
 10
35.0770
 20
98.6253
 30
0.000000
  70
    32
  0
VERTEX
  8
0
  5
EB3
 10
34.9574
 20
98.6620
 30
0.000000
  70
    32
  0
VERTEX
  8
0
  5
EB4
 10
34.8366
 20
98.6952
 30
0.000000
  70
    32
  0
VERTEX
  8
0
  5
EB5
 10
34.7150
 20
98.7250
 30
0.000000
  70
    32
  0
VERTEX
  8
0
  5
EB6
 10
34.5924
 20
98.7512
 30
0.000000
  70
    32
  0
VERTEX
  8
0
  5
EB7
 10
34.4691
 20
98.7740
 30
0.000000
  70
    32
  0
VERTEX
  8
0
  5
EB8
 10
34.3452
 20
98.7932
 30
0.000000
  70
    32
  0
VERTEX
  8
0
  5
EB9
 10
34.2207
 20
98.8089
 30
0.000000
  70
    32
  0
VERTEX
  8
0
  5
EBA
 10
34.0958
 20
98.8210
 30
0.000000
  70
    32
  0
VERTEX
  8
0
  5
EBB
 10
33.9706
 20
98.8296
 30
0.000000
  70
    32
  0
VERTEX
  8
0
  5
EBC
 10
33.8452
 20
98.8346
 30
0.000000
  70
    32
  0
VERTEX
  8
0
  5
EBD
 10
33.7196
 20
98.8360
 30
0.000000
  70
    32
  0
VERTEX
  8
0
  5
EBE
 10
33.5941
 20
98.8338
 30
0.000000
  70
    32
  0
VERTEX
  8
0
  5
EBF
 10
33.4688
 20
98.8280
 30
0.000000
  70
    32
  0
VERTEX
  8
0
  5
EC0
 10
33.3436
 20
98.8186
 30
0.000000
  70
    32
  0
VERTEX
  8
0
  5
EC1
 10
33.2188
 20
98.8057
 30
0.000000
  70
    32
  0
VERTEX
  8
0
  5
EC2
 10
33.0944
 20
98.7892
 30
0.000000
  70
    32
  0
VERTEX
  8
0
  5
EC3
 10
32.9706
 20
98.7691
 30
0.000000
  70
    32
  0
VERTEX
  8
0
  5
EC4
 10
32.8475
 20
98.7456
 30
0.000000
  70
    32
  0
VERTEX
  8
0
  5
EC5
 10
32.7251
 20
98.7185
 30
0.000000
  70
    32
  0
VERTEX
  8
0
  5
EC6
 10
32.6037
 20
98.6880
 30
0.000000
  70
    32
  0
VERTEX
  8
0
  5
EC7
 10
32.4832
 20
98.6539
 30
0.000000
  70
    32
  0
VERTEX
  8
0
  5
EC8
 10
32.3638
 20
98.6165
 30
0.000000
  70
    32
  0
VERTEX
  8
0
  5
EC9
 10
32.2456
 20
98.5757
 30
0.000000
  70
    32
  0
VERTEX
  8
0
  5
ECA
 10
32.1287
 20
98.5315
 30
0.000000
  70
    32
  0
VERTEX
  8
0
  5
ECB
 10
32.0132
 20
98.4840
 30
0.000000
  70
    32
  0
VERTEX
  8
0
  5
ECC
 10
31.8992
 20
98.4332
 30
0.000000
  70
    32
  0
VERTEX
  8
0
  5
ECD
 10
31.7868
 20
98.3792
 30
0.000000
  70
    32
  0
VERTEX
  8
0
  5
ECE
 10
31.6761
 20
98.3220
 30
0.000000
  70
    32
  0
VERTEX
  8
0
  5
ECF
 10
31.5673
 20
98.2616
 30
0.000000
  70
    32
  0
VERTEX
  8
0
  5
ED0
 10
31.4603
 20
98.1982
 30
0.000000
  70
    32
  0
VERTEX
  8
0
  5
ED1
 10
31.3553
 20
98.1317
 30
0.000000
  70
    32
  0
VERTEX
  8
0
  5
ED2
 10
31.2524
 20
98.0623
 30
0.000000
  70
    32
  0
VERTEX
  8
0
  5
ED3
 10
31.1516
 20
97.9900
 30
0.000000
  70
    32
  0
VERTEX
  8
0
  5
ED4
 10
31.0531
 20
97.9148
 30
0.000000
  70
    32
  0
VERTEX
  8
0
  5
ED5
 10
30.9570
 20
97.8369
 30
0.000000
  70
    32
  0
VERTEX
  8
0
  5
ED6
 10
30.8633
 20
97.7562
 30
0.000000
  70
    32
  0
VERTEX
  8
0
  5
ED7
 10
30.7721
 20
97.6729
 30
0.000000
  70
    32
  0
VERTEX
  8
0
  5
ED8
 10
30.6835
 20
97.5870
 30
0.000000
  70
    32
  0
VERTEX
  8
0
  5
ED9
 10
30.5975
 20
97.4986
 30
0.000000
  70
    32
  0
VERTEX
  8
0
  5
EDA
 10
30.5143
 20
97.4078
 30
0.000000
  70
    32
  0
VERTEX
  8
0
  5
EDB
 10
30.4339
 20
97.3147
 30
0.000000
  70
    32
  0
VERTEX
  8
0
  5
EDC
 10
30.3564
 20
97.2193
 30
0.000000
  70
    32
  0
VERTEX
  8
0
  5
EDD
 10
30.2819
 20
97.1218
 30
0.000000
  70
    32
  0
VERTEX
  8
0
  5
EDE
 10
30.2104
 20
97.0221
 30
0.000000
  70
    32
  0
VERTEX
  8
0
  5
EDF
 10
30.1419
 20
96.9205
 30
0.000000
  70
    32
  0
VERTEX
  8
0
  5
EE0
 10
30.0766
 20
96.8169
 30
0.000000
  70
    32
  0
VERTEX
  8
0
  5
EE1
 10
30.0145
 20
96.7116
 30
0.000000
  70
    32
  0
VERTEX
  8
0
  5
EE2
 10
29.9556
 20
96.6045
 30
0.000000
  70
    32
  0
VERTEX
  8
0
  5
EE3
 10
29.9001
 20
96.4957
 30
0.000000
  70
    32
  0
VERTEX
  8
0
  5
EE4
 10
29.8479
 20
96.3855
 30
0.000000
  70
    32
  0
VERTEX
  8
0
  5
EE5
 10
29.7991
 20
96.2737
 30
0.000000
  70
    32
  0
VERTEX
  8
0
  5
EE6
 10
29.7538
 20
96.1607
 30
0.000000
  70
    32
  0
VERTEX
  8
0
  5
EE7
 10
29.7119
 20
96.0464
 30
0.000000
  70
    32
  0
VERTEX
  8
0
  5
EE8
 10
29.6735
 20
95.9309
 30
0.000000
  70
    32
  0
VERTEX
  8
0
  5
EE9
 10
29.6387
 20
95.8144
 30
0.000000
  70
    32
  0
VERTEX
  8
0
  5
EEA
 10
29.6075
 20
95.6970
 30
0.000000
  70
    32
  0
VERTEX
  8
0
  5
EEB
 10
29.5799
 20
95.5787
 30
0.000000
  70
    32
  0
VERTEX
  8
0
  5
EEC
 10
29.5559
 20
95.4597
 30
0.000000
  70
    32
  0
VERTEX
  8
0
  5
EED
 10
29.5356
 20
95.3400
 30
0.000000
  70
    32
  0
VERTEX
  8
0
  5
EEE
 10
29.5189
 20
95.2199
 30
0.000000
  70
    32
  0
VERTEX
  8
0
  5
EEF
 10
29.5059
 20
95.0993
 30
0.000000
  70
    32
  0
VERTEX
  8
0
  5
EF0
 10
29.4967
 20
94.9783
 30
0.000000
  70
    32
  0
VERTEX
  8
0
  5
EF1
 10
29.4911
 20
94.8572
 30
0.000000
  70
    32
  0
VERTEX
  8
0
  5
EF2
 10
29.4892
 20
94.7360
 30
0.000000
  70
    32
  0
VERTEX
  8
0
  5
EF3
 10
29.4911
 20
94.6147
 30
0.000000
  70
    32
  0
VERTEX
  8
0
  5
EF4
 10
29.4967
 20
94.4936
 30
0.000000
  70
    32
  0
VERTEX
  8
0
  5
EF5
 10
29.5059
 20
94.3727
 30
0.000000
  70
    32
  0
VERTEX
  8
0
  5
EF6
 10
29.5189
 20
94.2521
 30
0.000000
  70
    32
  0
VERTEX
  8
0
  5
EF7
 10
29.5356
 20
94.1319
 30
0.000000
  70
    32
  0
VERTEX
  8
0
  5
EF8
 10
29.5559
 20
94.0123
 30
0.000000
  70
    32
  0
VERTEX
  8
0
  5
EF9
 10
29.5799
 20
93.8932
 30
0.000000
  70
    32
  0
VERTEX
  8
0
  5
EFA
 10
29.6075
 20
93.7750
 30
0.000000
  70
    32
  0
VERTEX
  8
0
  5
EFB
 10
29.6387
 20
93.6575
 30
0.000000
  70
    32
  0
VERTEX
  8
0
  5
EFC
 10
29.6735
 20
93.5410
 30
0.000000
  70
    32
  0
VERTEX
  8
0
  5
EFD
 10
29.7119
 20
93.4256
 30
0.000000
  70
    32
  0
VERTEX
  8
0
  5
EFE
 10
29.7538
 20
93.3113
 30
0.000000
  70
    32
  0
VERTEX
  8
0
  5
EFF
 10
29.7991
 20
93.1982
 30
0.000000
  70
    32
  0
VERTEX
  8
0
  5
F00
 10
29.8479
 20
93.0865
 30
0.000000
  70
    32
  0
VERTEX
  8
0
  5
F01
 10
29.9001
 20
92.9762
 30
0.000000
  70
    32
  0
VERTEX
  8
0
  5
F02
 10
29.9556
 20
92.8675
 30
0.000000
  70
    32
  0
VERTEX
  8
0
  5
F03
 10
30.0145
 20
92.7604
 30
0.000000
  70
    32
  0
VERTEX
  8
0
  5
F04
 10
30.0766
 20
92.6550
 30
0.000000
  70
    32
  0
VERTEX
  8
0
  5
F05
 10
30.1419
 20
92.5515
 30
0.000000
  70
    32
  0
VERTEX
  8
0
  5
F06
 10
30.2104
 20
92.4498
 30
0.000000
  70
    32
  0
VERTEX
  8
0
  5
F07
 10
30.2819
 20
92.3502
 30
0.000000
  70
    32
  0
VERTEX
  8
0
  5
F08
 10
30.3564
 20
92.2526
 30
0.000000
  70
    32
  0
VERTEX
  8
0
  5
F09
 10
30.4339
 20
92.1572
 30
0.000000
  70
    32
  0
VERTEX
  8
0
  5
F0A
 10
30.5143
 20
92.0641
 30
0.000000
  70
    32
  0
VERTEX
  8
0
  5
F0B
 10
30.5975
 20
91.9733
 30
0.000000
  70
    32
  0
VERTEX
  8
0
  5
F0C
 10
30.6835
 20
91.8850
 30
0.000000
  70
    32
  0
VERTEX
  8
0
  5
F0D
 10
30.7721
 20
91.7991
 30
0.000000
  70
    32
  0
VERTEX
  8
0
  5
F0E
 10
30.8633
 20
91.7158
 30
0.000000
  70
    32
  0
VERTEX
  8
0
  5
F0F
 10
30.9570
 20
91.6351
 30
0.000000
  70
    32
  0
VERTEX
  8
0
  5
F10
 10
31.0531
 20
91.5571
 30
0.000000
  70
    32
  0
VERTEX
  8
0
  5
F11
 10
31.1516
 20
91.4820
 30
0.000000
  70
    32
  0
VERTEX
  8
0
  5
F12
 10
31.2524
 20
91.4096
 30
0.000000
  70
    32
  0
VERTEX
  8
0
  5
F13
 10
31.3553
 20
91.3402
 30
0.000000
  70
    32
  0
VERTEX
  8
0
  5
F14
 10
31.4603
 20
91.2737
 30
0.000000
  70
    32
  0
VERTEX
  8
0
  5
F15
 10
31.5673
 20
91.2103
 30
0.000000
  70
    32
  0
VERTEX
  8
0
  5
F16
 10
31.6761
 20
91.1500
 30
0.000000
  70
    32
  0
VERTEX
  8
0
  5
F17
 10
31.7868
 20
91.0928
 30
0.000000
  70
    32
  0
VERTEX
  8
0
  5
F18
 10
31.8992
 20
91.0388
 30
0.000000
  70
    32
  0
VERTEX
  8
0
  5
F19
 10
32.0132
 20
90.9880
 30
0.000000
  70
    32
  0
VERTEX
  8
0
  5
F1A
 10
32.1287
 20
90.9405
 30
0.000000
  70
    32
  0
VERTEX
  8
0
  5
F1B
 10
32.2456
 20
90.8963
 30
0.000000
  70
    32
  0
VERTEX
  8
0
  5
F1C
 10
32.3638
 20
90.8554
 30
0.000000
  70
    32
  0
VERTEX
  8
0
  5
F1D
 10
32.4832
 20
90.8180
 30
0.000000
  70
    32
  0
VERTEX
  8
0
  5
F1E
 10
32.6037
 20
90.7840
 30
0.000000
  70
    32
  0
VERTEX
  8
0
  5
F1F
 10
32.7251
 20
90.7534
 30
0.000000
  70
    32
  0
VERTEX
  8
0
  5
F20
 10
32.8475
 20
90.7264
 30
0.000000
  70
    32
  0
VERTEX
  8
0
  5
F21
 10
32.9706
 20
90.7028
 30
0.000000
  70
    32
  0
VERTEX
  8
0
  5
F22
 10
33.0944
 20
90.6828
 30
0.000000
  70
    32
  0
VERTEX
  8
0
  5
F23
 10
33.2188
 20
90.6663
 30
0.000000
  70
    32
  0
VERTEX
  8
0
  5
F24
 10
33.3436
 20
90.6533
 30
0.000000
  70
    32
  0
VERTEX
  8
0
  5
F25
 10
33.4688
 20
90.6440
 30
0.000000
  70
    32
  0
VERTEX
  8
0
  5
F26
 10
33.5941
 20
90.6382
 30
0.000000
  70
    32
  0
VERTEX
  8
0
  5
F27
 10
33.7196
 20
90.6360
 30
0.000000
  70
    32
  0
VERTEX
  8
0
  5
F28
 10
33.8452
 20
90.6374
 30
0.000000
  70
    32
  0
VERTEX
  8
0
  5
F29
 10
33.9706
 20
90.6424
 30
0.000000
  70
    32
  0
VERTEX
  8
0
  5
F2A
 10
34.0958
 20
90.6509
 30
0.000000
  70
    32
  0
VERTEX
  8
0
  5
F2B
 10
34.2207
 20
90.6630
 30
0.000000
  70
    32
  0
VERTEX
  8
0
  5
F2C
 10
34.3452
 20
90.6787
 30
0.000000
  70
    32
  0
VERTEX
  8
0
  5
F2D
 10
34.4691
 20
90.6979
 30
0.000000
  70
    32
  0
VERTEX
  8
0
  5
F2E
 10
34.5924
 20
90.7207
 30
0.000000
  70
    32
  0
VERTEX
  8
0
  5
F2F
 10
34.7150
 20
90.7470
 30
0.000000
  70
    32
  0
VERTEX
  8
0
  5
F30
 10
34.8366
 20
90.7768
 30
0.000000
  70
    32
  0
VERTEX
  8
0
  5
F31
 10
34.9574
 20
90.8100
 30
0.000000
  70
    32
  0
VERTEX
  8
0
  5
F32
 10
35.0770
 20
90.8467
 30
0.000000
  70
    32
  0
SEQEND
  8
0
  5
F33
  0
CIRCLE
  5
C0D
  8
0
 10
36.011444674624443
 20
94.735973470044371
 30
0.0
 40
14.199999999999999
  0
CIRCLE
  5
C0F
  8
0
 10
36.011444674624443
 20
94.735973470044371
 30
0.0
 40
15.0
  0
POLYLINE
  5
C10
  8
2
 10
36.945877919648296
 20
90.846650327054803
 30
0.0
 66
     1
 70
     8
  0
VERTEX
  8
2
  5
F34
 10
36.9459
 20
90.8467
 30
0.000000
  70
    32
  0
VERTEX
  8
2
  5
F35
 10
37.0655
 20
90.8100
 30
0.000000
  70
    32
  0
VERTEX
  8
2
  5
F36
 10
37.1863
 20
90.7768
 30
0.000000
  70
    32
  0
VERTEX
  8
2
  5
F37
 10
37.3079
 20
90.7470
 30
0.000000
  70
    32
  0
VERTEX
  8
2
  5
F38
 10
37.4305
 20
90.7207
 30
0.000000
  70
    32
  0
VERTEX
  8
2
  5
F39
 10
37.5538
 20
90.6979
 30
0.000000
  70
    32
  0
VERTEX
  8
2
  5
F3A
 10
37.6777
 20
90.6787
 30
0.000000
  70
    32
  0
VERTEX
  8
2
  5
F3B
 10
37.8022
 20
90.6630
 30
0.000000
  70
    32
  0
VERTEX
  8
2
  5
F3C
 10
37.9271
 20
90.6509
 30
0.000000
  70
    32
  0
VERTEX
  8
2
  5
F3D
 10
38.0523
 20
90.6424
 30
0.000000
  70
    32
  0
VERTEX
  8
2
  5
F3E
 10
38.1777
 20
90.6374
 30
0.000000
  70
    32
  0
VERTEX
  8
2
  5
F3F
 10
38.3032
 20
90.6360
 30
0.000000
  70
    32
  0
VERTEX
  8
2
  5
F40
 10
38.4288
 20
90.6382
 30
0.000000
  70
    32
  0
VERTEX
  8
2
  5
F41
 10
38.5541
 20
90.6440
 30
0.000000
  70
    32
  0
VERTEX
  8
2
  5
F42
 10
38.6793
 20
90.6533
 30
0.000000
  70
    32
  0
VERTEX
  8
2
  5
F43
 10
38.8041
 20
90.6663
 30
0.000000
  70
    32
  0
VERTEX
  8
2
  5
F44
 10
38.9285
 20
90.6828
 30
0.000000
  70
    32
  0
VERTEX
  8
2
  5
F45
 10
39.0523
 20
90.7028
 30
0.000000
  70
    32
  0
VERTEX
  8
2
  5
F46
 10
39.1754
 20
90.7264
 30
0.000000
  70
    32
  0
VERTEX
  8
2
  5
F47
 10
39.2978
 20
90.7534
 30
0.000000
  70
    32
  0
VERTEX
  8
2
  5
F48
 10
39.4192
 20
90.7840
 30
0.000000
  70
    32
  0
VERTEX
  8
2
  5
F49
 10
39.5397
 20
90.8180
 30
0.000000
  70
    32
  0
VERTEX
  8
2
  5
F4A
 10
39.6591
 20
90.8554
 30
0.000000
  70
    32
  0
VERTEX
  8
2
  5
F4B
 10
39.7773
 20
90.8963
 30
0.000000
  70
    32
  0
VERTEX
  8
2
  5
F4C
 10
39.8942
 20
90.9405
 30
0.000000
  70
    32
  0
VERTEX
  8
2
  5
F4D
 10
40.0097
 20
90.9880
 30
0.000000
  70
    32
  0
VERTEX
  8
2
  5
F4E
 10
40.1237
 20
91.0388
 30
0.000000
  70
    32
  0
VERTEX
  8
2
  5
F4F
 10
40.2361
 20
91.0928
 30
0.000000
  70
    32
  0
VERTEX
  8
2
  5
F50
 10
40.3467
 20
91.1500
 30
0.000000
  70
    32
  0
VERTEX
  8
2
  5
F51
 10
40.4556
 20
91.2103
 30
0.000000
  70
    32
  0
VERTEX
  8
2
  5
F52
 10
40.5626
 20
91.2737
 30
0.000000
  70
    32
  0
VERTEX
  8
2
  5
F53
 10
40.6676
 20
91.3402
 30
0.000000
  70
    32
  0
VERTEX
  8
2
  5
F54
 10
40.7705
 20
91.4096
 30
0.000000
  70
    32
  0
VERTEX
  8
2
  5
F55
 10
40.8713
 20
91.4820
 30
0.000000
  70
    32
  0
VERTEX
  8
2
  5
F56
 10
40.9698
 20
91.5571
 30
0.000000
  70
    32
  0
VERTEX
  8
2
  5
F57
 10
41.0659
 20
91.6351
 30
0.000000
  70
    32
  0
VERTEX
  8
2
  5
F58
 10
41.1596
 20
91.7158
 30
0.000000
  70
    32
  0
VERTEX
  8
2
  5
F59
 10
41.2508
 20
91.7991
 30
0.000000
  70
    32
  0
VERTEX
  8
2
  5
F5A
 10
41.3394
 20
91.8850
 30
0.000000
  70
    32
  0
VERTEX
  8
2
  5
F5B
 10
41.4254
 20
91.9733
 30
0.000000
  70
    32
  0
VERTEX
  8
2
  5
F5C
 10
41.5086
 20
92.0641
 30
0.000000
  70
    32
  0
VERTEX
  8
2
  5
F5D
 10
41.5890
 20
92.1572
 30
0.000000
  70
    32
  0
VERTEX
  8
2
  5
F5E
 10
41.6665
 20
92.2526
 30
0.000000
  70
    32
  0
VERTEX
  8
2
  5
F5F
 10
41.7410
 20
92.3502
 30
0.000000
  70
    32
  0
VERTEX
  8
2
  5
F60
 10
41.8125
 20
92.4498
 30
0.000000
  70
    32
  0
VERTEX
  8
2
  5
F61
 10
41.8810
 20
92.5515
 30
0.000000
  70
    32
  0
VERTEX
  8
2
  5
F62
 10
41.9463
 20
92.6550
 30
0.000000
  70
    32
  0
VERTEX
  8
2
  5
F63
 10
42.0084
 20
92.7604
 30
0.000000
  70
    32
  0
VERTEX
  8
2
  5
F64
 10
42.0672
 20
92.8675
 30
0.000000
  70
    32
  0
VERTEX
  8
2
  5
F65
 10
42.1228
 20
92.9762
 30
0.000000
  70
    32
  0
VERTEX
  8
2
  5
F66
 10
42.1750
 20
93.0865
 30
0.000000
  70
    32
  0
VERTEX
  8
2
  5
F67
 10
42.2238
 20
93.1982
 30
0.000000
  70
    32
  0
VERTEX
  8
2
  5
F68
 10
42.2691
 20
93.3113
 30
0.000000
  70
    32
  0
VERTEX
  8
2
  5
F69
 10
42.3110
 20
93.4256
 30
0.000000
  70
    32
  0
VERTEX
  8
2
  5
F6A
 10
42.3494
 20
93.5410
 30
0.000000
  70
    32
  0
VERTEX
  8
2
  5
F6B
 10
42.3842
 20
93.6575
 30
0.000000
  70
    32
  0
VERTEX
  8
2
  5
F6C
 10
42.4154
 20
93.7750
 30
0.000000
  70
    32
  0
VERTEX
  8
2
  5
F6D
 10
42.4430
 20
93.8932
 30
0.000000
  70
    32
  0
VERTEX
  8
2
  5
F6E
 10
42.4670
 20
94.0123
 30
0.000000
  70
    32
  0
VERTEX
  8
2
  5
F6F
 10
42.4873
 20
94.1319
 30
0.000000
  70
    32
  0
VERTEX
  8
2
  5
F70
 10
42.5040
 20
94.2521
 30
0.000000
  70
    32
  0
VERTEX
  8
2
  5
F71
 10
42.5169
 20
94.3727
 30
0.000000
  70
    32
  0
VERTEX
  8
2
  5
F72
 10
42.5262
 20
94.4936
 30
0.000000
  70
    32
  0
VERTEX
  8
2
  5
F73
 10
42.5318
 20
94.6147
 30
0.000000
  70
    32
  0
VERTEX
  8
2
  5
F74
 10
42.5336
 20
94.7360
 30
0.000000
  70
    32
  0
VERTEX
  8
2
  5
F75
 10
42.5318
 20
94.8572
 30
0.000000
  70
    32
  0
VERTEX
  8
2
  5
F76
 10
42.5262
 20
94.9783
 30
0.000000
  70
    32
  0
VERTEX
  8
2
  5
F77
 10
42.5169
 20
95.0993
 30
0.000000
  70
    32
  0
VERTEX
  8
2
  5
F78
 10
42.5040
 20
95.2199
 30
0.000000
  70
    32
  0
VERTEX
  8
2
  5
F79
 10
42.4873
 20
95.3400
 30
0.000000
  70
    32
  0
VERTEX
  8
2
  5
F7A
 10
42.4670
 20
95.4597
 30
0.000000
  70
    32
  0
VERTEX
  8
2
  5
F7B
 10
42.4430
 20
95.5787
 30
0.000000
  70
    32
  0
VERTEX
  8
2
  5
F7C
 10
42.4154
 20
95.6970
 30
0.000000
  70
    32
  0
VERTEX
  8
2
  5
F7D
 10
42.3842
 20
95.8144
 30
0.000000
  70
    32
  0
VERTEX
  8
2
  5
F7E
 10
42.3494
 20
95.9309
 30
0.000000
  70
    32
  0
VERTEX
  8
2
  5
F7F
 10
42.3110
 20
96.0464
 30
0.000000
  70
    32
  0
VERTEX
  8
2
  5
F80
 10
42.2691
 20
96.1607
 30
0.000000
  70
    32
  0
VERTEX
  8
2
  5
F81
 10
42.2238
 20
96.2737
 30
0.000000
  70
    32
  0
VERTEX
  8
2
  5
F82
 10
42.1750
 20
96.3855
 30
0.000000
  70
    32
  0
VERTEX
  8
2
  5
F83
 10
42.1228
 20
96.4957
 30
0.000000
  70
    32
  0
VERTEX
  8
2
  5
F84
 10
42.0672
 20
96.6045
 30
0.000000
  70
    32
  0
VERTEX
  8
2
  5
F85
 10
42.0084
 20
96.7116
 30
0.000000
  70
    32
  0
VERTEX
  8
2
  5
F86
 10
41.9463
 20
96.8169
 30
0.000000
  70
    32
  0
VERTEX
  8
2
  5
F87
 10
41.8810
 20
96.9205
 30
0.000000
  70
    32
  0
VERTEX
  8
2
  5
F88
 10
41.8125
 20
97.0221
 30
0.000000
  70
    32
  0
VERTEX
  8
2
  5
F89
 10
41.7410
 20
97.1218
 30
0.000000
  70
    32
  0
VERTEX
  8
2
  5
F8A
 10
41.6665
 20
97.2193
 30
0.000000
  70
    32
  0
VERTEX
  8
2
  5
F8B
 10
41.5890
 20
97.3147
 30
0.000000
  70
    32
  0
VERTEX
  8
2
  5
F8C
 10
41.5086
 20
97.4078
 30
0.000000
  70
    32
  0
VERTEX
  8
2
  5
F8D
 10
41.4254
 20
97.4986
 30
0.000000
  70
    32
  0
VERTEX
  8
2
  5
F8E
 10
41.3394
 20
97.5870
 30
0.000000
  70
    32
  0
VERTEX
  8
2
  5
F8F
 10
41.2508
 20
97.6729
 30
0.000000
  70
    32
  0
VERTEX
  8
2
  5
F90
 10
41.1596
 20
97.7562
 30
0.000000
  70
    32
  0
VERTEX
  8
2
  5
F91
 10
41.0659
 20
97.8369
 30
0.000000
  70
    32
  0
VERTEX
  8
2
  5
F92
 10
40.9698
 20
97.9148
 30
0.000000
  70
    32
  0
VERTEX
  8
2
  5
F93
 10
40.8713
 20
97.9900
 30
0.000000
  70
    32
  0
VERTEX
  8
2
  5
F94
 10
40.7705
 20
98.0623
 30
0.000000
  70
    32
  0
VERTEX
  8
2
  5
F95
 10
40.6676
 20
98.1317
 30
0.000000
  70
    32
  0
VERTEX
  8
2
  5
F96
 10
40.5626
 20
98.1982
 30
0.000000
  70
    32
  0
VERTEX
  8
2
  5
F97
 10
40.4556
 20
98.2616
 30
0.000000
  70
    32
  0
VERTEX
  8
2
  5
F98
 10
40.3467
 20
98.3220
 30
0.000000
  70
    32
  0
VERTEX
  8
2
  5
F99
 10
40.2361
 20
98.3792
 30
0.000000
  70
    32
  0
VERTEX
  8
2
  5
F9A
 10
40.1237
 20
98.4332
 30
0.000000
  70
    32
  0
VERTEX
  8
2
  5
F9B
 10
40.0097
 20
98.4840
 30
0.000000
  70
    32
  0
VERTEX
  8
2
  5
F9C
 10
39.8942
 20
98.5315
 30
0.000000
  70
    32
  0
VERTEX
  8
2
  5
F9D
 10
39.7773
 20
98.5757
 30
0.000000
  70
    32
  0
VERTEX
  8
2
  5
F9E
 10
39.6591
 20
98.6165
 30
0.000000
  70
    32
  0
VERTEX
  8
2
  5
F9F
 10
39.5397
 20
98.6539
 30
0.000000
  70
    32
  0
VERTEX
  8
2
  5
FA0
 10
39.4192
 20
98.6880
 30
0.000000
  70
    32
  0
VERTEX
  8
2
  5
FA1
 10
39.2978
 20
98.7185
 30
0.000000
  70
    32
  0
VERTEX
  8
2
  5
FA2
 10
39.1754
 20
98.7456
 30
0.000000
  70
    32
  0
VERTEX
  8
2
  5
FA3
 10
39.0523
 20
98.7691
 30
0.000000
  70
    32
  0
VERTEX
  8
2
  5
FA4
 10
38.9285
 20
98.7892
 30
0.000000
  70
    32
  0
VERTEX
  8
2
  5
FA5
 10
38.8041
 20
98.8057
 30
0.000000
  70
    32
  0
VERTEX
  8
2
  5
FA6
 10
38.6793
 20
98.8186
 30
0.000000
  70
    32
  0
VERTEX
  8
2
  5
FA7
 10
38.5541
 20
98.8280
 30
0.000000
  70
    32
  0
VERTEX
  8
2
  5
FA8
 10
38.4288
 20
98.8338
 30
0.000000
  70
    32
  0
VERTEX
  8
2
  5
FA9
 10
38.3032
 20
98.8360
 30
0.000000
  70
    32
  0
VERTEX
  8
2
  5
FAA
 10
38.1777
 20
98.8346
 30
0.000000
  70
    32
  0
VERTEX
  8
2
  5
FAB
 10
38.0523
 20
98.8296
 30
0.000000
  70
    32
  0
VERTEX
  8
2
  5
FAC
 10
37.9271
 20
98.8210
 30
0.000000
  70
    32
  0
VERTEX
  8
2
  5
FAD
 10
37.8022
 20
98.8089
 30
0.000000
  70
    32
  0
VERTEX
  8
2
  5
FAE
 10
37.6777
 20
98.7932
 30
0.000000
  70
    32
  0
VERTEX
  8
2
  5
FAF
 10
37.5538
 20
98.7740
 30
0.000000
  70
    32
  0
VERTEX
  8
2
  5
FB0
 10
37.4305
 20
98.7512
 30
0.000000
  70
    32
  0
VERTEX
  8
2
  5
FB1
 10
37.3079
 20
98.7250
 30
0.000000
  70
    32
  0
VERTEX
  8
2
  5
FB2
 10
37.1863
 20
98.6952
 30
0.000000
  70
    32
  0
VERTEX
  8
2
  5
FB3
 10
37.0655
 20
98.6620
 30
0.000000
  70
    32
  0
VERTEX
  8
2
  5
FB4
 10
36.9459
 20
98.6253
 30
0.000000
  70
    32
  0
SEQEND
  8
2
  5
FB5
  0
LINE
  5
C16
  8
2
 10
33.733876538959983
 20
90.635973470044377
 30
0.0
 11
38.28901281028903
 21
90.635973470044419
 31
0.0
  0
LINE
  5
C17
  8
2
 10
38.289012810288909
 20
98.835973470044436
 30
0.0
 11
33.733876538959862
 21
98.835973470044394
 31
0.0
  0
CIRCLE
  5
C66
  8
3
 10
36.011444674624443
 20
94.735973470044371
 30
0.0
 40
4.0
  0
CIRCLE
  5
C67
  8
0
 10
36.011444674624443
 20
94.735973470044371
 30
0.0
 40
3.3235000000000001
  0
LINE
  5
C68
  8
1
 10
54.011444674624443
 20
94.735973470044371
 30
0.0
 11
18.011444674624439
 21
94.735973470044371
 31
0.0
  0
LINE
  5
C69
  8
1
 10
36.011444674624443
 20
76.735973470044371
 30
0.0
 11
36.011444674624443
 21
112.7359734700444
 31
0.0
  0
LINE
  5
C6C
  8
2
 10
32.011444674624443
 20
32.92750404849923
 30
0.0
 11
32.011444674624443
 21
40.514523727633893
 31
0.0
  0
LINE
  5
C6F
  8
2
 10
40.011444674624443
 20
42.340484369364333
 30
0.0
 11
40.011444674624443
 21
49.927504048499202
 31
0.0
  0
LINE
  5
C73
  8
1
 10
32.930028961666551
 20
52.92750404849923
 30
0.0
 11
39.092860387582363
 21
29.92750404849923
 31
0.0
  0
LINE
  5
C74
  8
1
 10
36.011444674624499
 20
52.92750404849923
 30
0.0
 11
36.011444674624499
 21
29.92750404849923
 31
0.0
  0
TEXT
  5
E12
  8
0
 62
     3
 10
0.0
 20
0.0
 30
0.0
 40
10.0
  1
BJ757-08001
  7
STANDARD1
  0
ENDSEC
  0
EOF
