  0
SECTION
  2
HEADER
  9
$ACADVER
  1
AC1009
  9
$INSBASE
 10
82.638099999999994
 20
103.82319099999999
 30
0.0
  9
$EXTMIN
 10
0.0
 20
-2.960436562073669
 30
0.0
  9
$EXTMAX
 10
281.43299999999999
 20
97.750000000000028
 30
0.0
  9
$LIMMIN
 10
0.0
 20
0.0
  9
$LIMMAX
 10
375.0
 20
270.0
  9
$ORTHOMODE
 70
     1
  9
$REGENMODE
 70
     1
  9
$FILLMODE
 70
     1
  9
$QTEXTMODE
 70
     0
  9
$MIRRTEXT
 70
     0
  9
$DRAGMODE
 70
     2
  9
$LTSCALE
 40
10.0
  9
$OSMODE
 70
    37
  9
$ATTMODE
 70
     1
  9
$TEXTSIZE
 40
0.06
  9
$TRACEWID
 40
0.05
  9
$TEXTSTYLE
  7
STANDARD
  9
$CLAYER
  8
0
  9
$CELTYPE
  6
BYLAYER
  9
$CECOLOR
 62
   256
  9
$DIMSCALE
 40
1.0
  9
$DIMASZ
 40
3.0
  9
$DIMEXO
 40
2.0
  9
$DIMDLI
 40
10.0
  9
$DIMRND
 40
0.0
  9
$DIMDLE
 40
0.0
  9
$DIMEXE
 40
2.0
  9
$DIMTP
 40
0.0
  9
$DIMTM
 40
0.0
  9
$DIMTXT
 40
3.0
  9
$DIMCEN
 40
0.0
  9
$DIMTSZ
 40
0.0
  9
$DIMTOL
 70
     0
  9
$DIMLIM
 70
     0
  9
$DIMTIH
 70
     0
  9
$DIMTOH
 70
     0
  9
$DIMSE1
 70
     0
  9
$DIMSE2
 70
     0
  9
$DIMTAD
 70
     1
  9
$DIMZIN
 70
     0
  9
$DIMBLK
  1

  9
$DIMASO
 70
     0
  9
$DIMSHO
 70
     0
  9
$DIMPOST
  1

  9
$DIMAPOST
  1

  9
$DIMALT
 70
     0
  9
$DIMALTD
 70
     2
  9
$DIMALTF
 40
25.399999999999999
  9
$DIMLFAC
 40
1.0
  9
$DIMTOFL
 70
     1
  9
$DIMTVP
 40
1.6000000000000001
  9
$DIMTIX
 70
     1
  9
$DIMSOXD
 70
     0
  9
$DIMSAH
 70
     0
  9
$DIMBLK1
  1

  9
$DIMBLK2
  1

  9
$DIMSTYLE
  2
STANDARD
  9
$DIMCLRD
 70
     0
  9
$DIMCLRE
 70
     0
  9
$DIMCLRT
 70
     0
  9
$DIMTFAC
 40
1.0
  9
$DIMGAP
 40
0.09
  9
$LUNITS
 70
     2
  9
$LUPREC
 70
     4
  9
$SKETCHINC
 40
0.1
  9
$FILLETRAD
 40
0.6
  9
$AUNITS
 70
     0
  9
$AUPREC
 70
     4
  9
$MENU
  1
E:\r13\win\SUPPORT\ACAD
  9
$ELEVATION
 40
0.0
  9
$PELEVATION
 40
0.0
  9
$THICKNESS
 40
0.0
  9
$LIMCHECK
 70
     0
  9
$BLIPMODE
 70
     0
  9
$CHAMFERA
 40
0.0
  9
$CHAMFERB
 40
0.0
  9
$SKPOLY
 70
     0
  9
$TDCREATE
 40
2449840.5887615741
  9
$TDUPDATE
 40
2456969.668197535
  9
$TDINDWG
 40
0.0016808218
  9
$TDUSRTIMER
 40
0.0016808218
  9
$USRTIMER
 70
     1
  9
$ANGBASE
 50
0.0
  9
$ANGDIR
 70
     0
  9
$PDMODE
 70
     1
  9
$PDSIZE
 40
0.0
  9
$PLINEWID
 40
0.0
  9
$COORDS
 70
     1
  9
$SPLFRAME
 70
     0
  9
$SPLINETYPE
 70
     6
  9
$SPLINESEGS
 70
     8
  9
$ATTDIA
 70
     0
  9
$ATTREQ
 70
     1
  9
$HANDLING
 70
     1
  9
$HANDSEED
  5
2C5
  9
$SURFTAB1
 70
     6
  9
$SURFTAB2
 70
     6
  9
$SURFTYPE
 70
     6
  9
$SURFU
 70
     6
  9
$SURFV
 70
     6
  9
$UCSNAME
  2

  9
$UCSORG
 10
0.0
 20
0.0
 30
0.0
  9
$UCSXDIR
 10
1.0
 20
0.0
 30
0.0
  9
$UCSYDIR
 10
0.0
 20
1.0
 30
0.0
  9
$PUCSNAME
  2

  9
$PUCSORG
 10
0.0
 20
0.0
 30
0.0
  9
$PUCSXDIR
 10
1.0
 20
0.0
 30
0.0
  9
$PUCSYDIR
 10
0.0
 20
1.0
 30
0.0
  9
$USERI1
 70
     3
  9
$USERI2
 70
     1
  9
$USERI3
 70
     0
  9
$USERI4
 70
     0
  9
$USERI5
 70
     0
  9
$USERR1
 40
1.0
  9
$USERR2
 40
3.0
  9
$USERR3
 40
3.0
  9
$USERR4
 40
3.0
  9
$USERR5
 40
10.0
  9
$WORLDVIEW
 70
     1
  9
$SHADEDGE
 70
     3
  9
$SHADEDIF
 70
    70
  9
$TILEMODE
 70
     1
  9
$MAXACTVP
 70
    16
  9
$PLIMCHECK
 70
     0
  9
$PEXTMIN
 10
1.0000000000000000E+020
 20
1.0000000000000000E+020
 30
1.0000000000000000E+020
  9
$PEXTMAX
 10
-1.0000000000000000E+020
 20
-1.0000000000000000E+020
 30
-1.0000000000000000E+020
  9
$PLIMMIN
 10
0.0
 20
0.0
  9
$PLIMMAX
 10
12.0
 20
9.0
  9
$UNITMODE
 70
     0
  9
$VISRETAIN
 70
     0
  9
$PLINEGEN
 70
     0
  9
$PSLTSCALE
 70
     0
  0
ENDSEC
  0
SECTION
  2
TABLES
  0
TABLE
  2
VPORT
 70
     1
  0
VPORT
  2
*ACTIVE
 70
     0
 10
0.0
 20
0.0
 11
1.0
 21
1.0
 12
276.22208277639811
 22
133.514809599426
 13
0.0
 23
0.0
 14
5.0
 24
5.0
 15
10.0
 25
10.0
 16
0.0
 26
0.0
 36
1.0
 17
0.0
 27
0.0
 37
0.0
 40
275.36485782571918
 41
2.6019575856443709
 42
50.0
 43
0.0
 44
0.0
 50
0.0
 51
0.0
 71
     0
 72
   100
 73
     1
 74
     0
 75
     0
 76
     0
 77
     0
 78
     2
  0
ENDTAB
  0
TABLE
  2
LTYPE
 70
     3
  0
LTYPE
  2
CONTINUOUS
 70
     0
  3
Solid Line
 72
    65
 73
     0
 40
0.0
  0
LTYPE
  2
CENTER
 70
     0
  3
____ _ ____ _ ____ _ ____ _ ____ _ ____ _ ____
 72
    65
 73
     4
 40
2.0
 49
1.25
 49
-0.25
 49
0.25
 49
-0.25
  0
LTYPE
  2
PHANTOM2
 70
     0
  3
___ _ _ ___ _ _ ___ _ _ ___ _ _
 72
    65
 73
     6
 40
1.25
 49
0.625
 49
-0.125
 49
0.125
 49
-0.125
 49
0.125
 49
-0.125
  0
ENDTAB
  0
TABLE
  2
LAYER
 70
     3
  0
LAYER
  2
0
 70
     0
 62
     7
  6
CONTINUOUS
  0
LAYER
  2
1
 70
     0
 62
     1
  6
CENTER
  0
LAYER
  2
3
 70
     0
 62
     3
  6
CONTINUOUS
  0
ENDTAB
  0
TABLE
  2
STYLE
 70
     2
  0
STYLE
  2
STANDARD
 70
     0
 40
0.0
 41
1.0
 50
0.0
 71
     0
 42
0.06
  3
TXT
  4
BIGFONT
  0
STYLE
  2
STANDARD1
 70
     0
 40
0.0
 41
1.0
 50
0.0
 71
     0
 42
3.0
  3
txt
  4

  0
ENDTAB
  0
TABLE
  2
VIEW
 70
     0
  0
ENDTAB
  0
TABLE
  2
UCS
 70
     0
  0
ENDTAB
  0
TABLE
  2
APPID
 70
     4
  0
APPID
  2
ACAD
 70
     0
  0
APPID
  2
ACAD_MLEADERVER
 70
     0
  0
APPID
  2
ACAD_NAV_VCDISPLAY
 70
     0
  0
APPID
  2
ACAD_EXEMPT_FROM_CAD_STANDARDS
 70
     0
  0
ENDTAB
  0
TABLE
  2
DIMSTYLE
 70
     1
  0
DIMSTYLE
  2
STANDARD
 70
     0
  3

  4

  5

  6

  7

 40
1.0
 41
0.18
 42
0.0625
 43
0.38
 44
0.18
 45
0.0
 46
0.0
 47
0.0
 48
0.0
140
0.18
141
0.09
142
0.0
143
25.399999999999999
144
1.0
145
0.0
146
1.0
147
0.09
 71
     0
 72
     0
 73
     1
 74
     1
 75
     0
 76
     0
 77
     0
 78
     0
170
     0
171
     2
172
     0
173
     0
174
     0
175
     0
176
     0
177
     0
178
     0
  0
ENDTAB
  0
ENDSEC
  0
SECTION
  2
BLOCKS
  0
BLOCK
  8
0
  2
$MODEL_SPACE
 70
     0
 10
0.0
 20
0.0
 30
0.0
  3
$MODEL_SPACE
  1

  0
ENDBLK
  5
11B
  8
0
  0
BLOCK
 67
     1
  8
0
  2
$PAPER_SPACE
 70
     0
 10
0.0
 20
0.0
 30
0.0
  3
$PAPER_SPACE
  1

  0
ENDBLK
  5
119
 67
     1
  8
0
  0
BLOCK
  8
0
  2
*X0
 70
     1
 10
0.0
 20
0.0
 30
0.0
  3
*X0
  1

  0
LINE
  5
3A
  8
0
 62
     0
 10
57.762
 20
69.075707999999992
 30
0.0
 11
69.462000000000003
 21
80.775707999999995
 31
0.0
  0
LINE
  5
3B
  8
0
 62
     0
 10
57.762
 20
70.489921999999993
 30
0.0
 11
69.462000000000003
 21
82.189921999999996
 31
0.0
  0
LINE
  5
3C
  8
0
 62
     0
 10
57.762
 20
71.904135999999994
 30
0.0
 11
69.462000000000003
 21
83.604135999999997
 31
0.0
  0
LINE
  5
3D
  8
0
 62
     0
 10
57.762
 20
73.318348999999998
 30
0.0
 11
69.462000000000003
 21
85.018349000000001
 31
0.0
  0
LINE
  5
3E
  8
0
 62
     0
 10
57.762
 20
74.732562999999999
 30
0.0
 11
69.462000000000003
 21
86.432563000000002
 31
0.0
  0
LINE
  5
3F
  8
0
 62
     0
 10
57.762
 20
76.146776000000003
 30
0.0
 11
69.462000000000003
 21
87.846776000000006
 31
0.0
  0
LINE
  5
40
  8
0
 62
     0
 10
57.762
 20
77.560990000000004
 30
0.0
 11
69.462000000000003
 21
89.260990000000007
 31
0.0
  0
LINE
  5
41
  8
0
 62
     0
 10
57.762
 20
78.975202999999993
 30
0.0
 11
69.462000000000003
 21
90.675202999999996
 31
0.0
  0
LINE
  5
42
  8
0
 62
     0
 10
57.762
 20
80.389416999999995
 30
0.0
 11
68.247582999999992
 21
90.875
 31
0.0
  0
LINE
  5
43
  8
0
 62
     0
 10
57.762
 20
81.803630999999996
 30
0.0
 11
66.83336899999999
 21
90.875
 31
0.0
  0
LINE
  5
44
  8
0
 62
     0
 10
57.762
 20
83.217843999999999
 30
0.0
 11
65.419156000000001
 21
90.875
 31
0.0
  0
LINE
  5
45
  8
0
 62
     0
 10
57.762
 20
84.632058000000001
 30
0.0
 11
64.004942
 21
90.875
 31
0.0
  0
LINE
  5
46
  8
0
 62
     0
 10
57.762
 20
86.046271000000004
 30
0.0
 11
62.590729000000003
 21
90.875
 31
0.0
  0
LINE
  5
47
  8
0
 62
     0
 10
57.762
 20
87.460484999999977
 30
0.0
 11
61.176515000000002
 21
90.875
 31
0.0
  0
LINE
  5
48
  8
0
 62
     0
 10
57.762
 20
88.874697999999995
 30
0.0
 11
59.762301999999998
 21
90.875
 31
0.0
  0
LINE
  5
49
  8
0
 62
     0
 10
57.762
 20
90.288911999999996
 30
0.0
 11
58.348087999999997
 21
90.875
 31
0.0
  0
LINE
  5
4A
  8
0
 62
     0
 10
57.762
 20
67.661495000000002
 30
0.0
 11
69.462000000000003
 21
79.361494999999991
 31
0.0
  0
LINE
  5
4B
  8
0
 62
     0
 10
57.762
 20
66.247281000000001
 30
0.0
 11
69.462000000000003
 21
77.947281000000004
 31
0.0
  0
LINE
  5
4C
  8
0
 62
     0
 10
57.762
 20
64.833068000000011
 30
0.0
 11
69.462000000000003
 21
76.533068
 31
0.0
  0
LINE
  5
4D
  8
0
 62
     0
 10
57.762
 20
63.418854000000003
 30
0.0
 11
69.462000000000003
 21
75.118853999999999
 31
0.0
  0
LINE
  5
4E
  8
0
 62
     0
 10
57.762
 20
62.004641000000007
 30
0.0
 11
69.462000000000003
 21
73.704641000000009
 31
0.0
  0
LINE
  5
4F
  8
0
 62
     0
 10
57.762
 20
60.590426999999998
 30
0.0
 11
69.462000000000003
 21
72.290426999999994
 31
0.0
  0
LINE
  5
50
  8
0
 62
     0
 10
57.762
 20
59.176214000000002
 30
0.0
 11
69.462000000000003
 21
70.876214000000004
 31
0.0
  0
LINE
  5
51
  8
0
 62
     0
 10
59.125
 20
59.125
 30
0.0
 11
69.462000000000003
 21
69.462000000000003
 31
0.0
  0
LINE
  5
52
  8
0
 62
     0
 10
60.539214000000001
 20
59.125
 30
0.0
 11
69.462000000000003
 21
68.047786000000002
 31
0.0
  0
LINE
  5
53
  8
0
 62
     0
 10
61.953427000000012
 20
59.125
 30
0.0
 11
69.462000000000003
 21
66.633572999999998
 31
0.0
  0
LINE
  5
54
  8
0
 62
     0
 10
63.367640999999999
 20
59.125
 30
0.0
 11
69.462000000000003
 21
65.219358999999983
 31
0.0
  0
LINE
  5
55
  8
0
 62
     0
 10
64.781853999999996
 20
59.125
 30
0.0
 11
69.462000000000003
 21
63.805145999999993
 31
0.0
  0
LINE
  5
56
  8
0
 62
     0
 10
66.196068000000011
 20
59.125
 30
0.0
 11
69.462000000000003
 21
62.390931999999992
 31
0.0
  0
LINE
  5
57
  8
0
 62
     0
 10
67.610281000000001
 20
59.125
 30
0.0
 11
69.462000000000003
 21
60.976718999999989
 31
0.0
  0
LINE
  5
58
  8
0
 62
     0
 10
69.024495000000002
 20
59.125
 30
0.0
 11
69.462000000000003
 21
59.562505000000002
 31
0.0
  0
LINE
  5
59
  8
0
 62
     0
 10
69.462000000000003
 20
69.130929000000009
 30
0.0
 11
57.762
 21
80.830928999999998
 31
0.0
  0
LINE
  5
5A
  8
0
 62
     0
 10
69.462000000000003
 20
67.716716000000005
 30
0.0
 11
57.762
 21
79.416716000000008
 31
0.0
  0
LINE
  5
5B
  8
0
 62
     0
 10
69.462000000000003
 20
66.302502000000004
 30
0.0
 11
57.762
 21
78.002502000000007
 31
0.0
  0
LINE
  5
5C
  8
0
 62
     0
 10
69.462000000000003
 20
64.888288000000003
 30
0.0
 11
57.762
 21
76.588288000000006
 31
0.0
  0
LINE
  5
5D
  8
0
 62
     0
 10
69.462000000000003
 20
63.474074999999999
 30
0.0
 11
57.762
 21
75.174075000000002
 31
0.0
  0
LINE
  5
5E
  8
0
 62
     0
 10
69.462000000000003
 20
62.059860999999998
 30
0.0
 11
57.762
 21
73.759861000000001
 31
0.0
  0
LINE
  5
5F
  8
0
 62
     0
 10
69.462000000000003
 20
60.645648000000001
 30
0.0
 11
57.762
 21
72.345647999999997
 31
0.0
  0
LINE
  5
60
  8
0
 62
     0
 10
69.462000000000003
 20
59.231434
 30
0.0
 11
57.762
 21
70.931433999999996
 31
0.0
  0
LINE
  5
61
  8
0
 62
     0
 10
68.154220999999993
 20
59.125
 30
0.0
 11
57.762
 21
69.517220999999992
 31
0.0
  0
LINE
  5
62
  8
0
 62
     0
 10
66.740006999999991
 20
59.125
 30
0.0
 11
57.762
 21
68.103006999999991
 31
0.0
  0
LINE
  5
63
  8
0
 62
     0
 10
65.325793000000004
 20
59.125
 30
0.0
 11
57.762
 21
66.688793000000004
 31
0.0
  0
LINE
  5
64
  8
0
 62
     0
 10
63.911580000000001
 20
59.125
 30
0.0
 11
57.762
 21
65.27458
 31
0.0
  0
LINE
  5
65
  8
0
 62
     0
 10
62.497366000000007
 20
59.125
 30
0.0
 11
57.762
 21
63.860365999999999
 31
0.0
  0
LINE
  5
66
  8
0
 62
     0
 10
61.08315300000001
 20
59.125
 30
0.0
 11
57.762
 21
62.446153000000002
 31
0.0
  0
LINE
  5
67
  8
0
 62
     0
 10
59.668939000000002
 20
59.125
 30
0.0
 11
57.762
 21
61.031939000000001
 31
0.0
  0
LINE
  5
68
  8
0
 62
     0
 10
58.254725999999998
 20
59.125
 30
0.0
 11
57.762
 21
59.61772599999999
 31
0.0
  0
LINE
  5
69
  8
0
 62
     0
 10
69.462000000000003
 20
70.54514300000001
 30
0.0
 11
57.762
 21
82.245142999999999
 31
0.0
  0
LINE
  5
6A
  8
0
 62
     0
 10
69.462000000000003
 20
71.959356
 30
0.0
 11
57.762
 21
83.659356000000002
 31
0.0
  0
LINE
  5
6B
  8
0
 62
     0
 10
69.462000000000003
 20
73.373570000000001
 30
0.0
 11
57.762
 21
85.073569999999975
 31
0.0
  0
LINE
  5
6C
  8
0
 62
     0
 10
69.462000000000003
 20
74.78778299999999
 30
0.0
 11
57.762
 21
86.487782999999993
 31
0.0
  0
LINE
  5
6D
  8
0
 62
     0
 10
69.462000000000003
 20
76.201996999999992
 30
0.0
 11
57.762
 21
87.901996999999994
 31
0.0
  0
LINE
  5
6E
  8
0
 62
     0
 10
69.462000000000003
 20
77.616209999999995
 30
0.0
 11
57.762
 21
89.316209999999984
 31
0.0
  0
LINE
  5
6F
  8
0
 62
     0
 10
69.462000000000003
 20
79.030423999999996
 30
0.0
 11
57.762
 21
90.730423999999999
 31
0.0
  0
LINE
  5
70
  8
0
 62
     0
 10
69.462000000000003
 20
80.444637999999998
 30
0.0
 11
59.031638000000001
 21
90.875
 31
0.0
  0
LINE
  5
71
  8
0
 62
     0
 10
69.462000000000003
 20
81.858851000000001
 30
0.0
 11
60.44585099999999
 21
90.875
 31
0.0
  0
LINE
  5
72
  8
0
 62
     0
 10
69.462000000000003
 20
83.273065000000003
 30
0.0
 11
61.860065000000013
 21
90.875
 31
0.0
  0
LINE
  5
73
  8
0
 62
     0
 10
69.462000000000003
 20
84.687278000000006
 30
0.0
 11
63.274278000000002
 21
90.875
 31
0.0
  0
LINE
  5
74
  8
0
 62
     0
 10
69.462000000000003
 20
86.101491999999993
 30
0.0
 11
64.688492000000011
 21
90.875
 31
0.0
  0
LINE
  5
75
  8
0
 62
     0
 10
69.462000000000003
 20
87.515705000000011
 30
0.0
 11
66.102705
 21
90.875
 31
0.0
  0
LINE
  5
76
  8
0
 62
     0
 10
69.462000000000003
 20
88.929918999999998
 30
0.0
 11
67.516919000000001
 21
90.875
 31
0.0
  0
LINE
  5
77
  8
0
 62
     0
 10
69.462000000000003
 20
90.344132999999999
 30
0.0
 11
68.931133000000003
 21
90.875
 31
0.0
  0
ENDBLK
  5
78
  8
0
  0
ENDSEC
  0
SECTION
  2
ENTITIES
  0
LINE
  5
8E
  8
1
 10
228.68299999999999
 20
78.875000000000014
 30
0.0
 11
83.875000000000014
 21
78.875
 31
0.0
  0
LINE
  5
8F
  8
0
 10
99.575000000000017
 20
86.875000000000028
 30
0.0
 11
208.643
 21
86.875000000000028
 31
0.0
  0
LINE
  5
90
  8
0
 10
211.893
 20
83.625000000000014
 30
0.0
 11
208.643
 21
86.875000000000028
 31
0.0
  0
LINE
  5
91
  8
0
 10
99.575000000000031
 20
94.250000000000014
 30
0.0
 11
99.575000000000031
 21
63.500000000000028
 31
0.0
  0
LINE
  5
92
  8
0
 10
211.893
 20
74.125000000000028
 30
0.0
 11
208.643
 21
70.875000000000028
 31
0.0
  0
LINE
  5
93
  8
0
 10
99.575000000000017
 20
70.875000000000028
 30
0.0
 11
208.643
 21
70.875000000000028
 31
0.0
  0
LINE
  5
94
  8
0
 10
208.643
 20
70.875000000000028
 30
0.0
 11
208.643
 21
86.875000000000028
 31
0.0
  0
LINE
  5
95
  8
3
 10
209.72550000000001
 20
85.792500000000004
 30
0.0
 11
99.575000000000017
 21
85.792500000000004
 31
0.0
  0
LINE
  5
96
  8
3
 10
209.72550000000001
 20
71.957500000000024
 30
0.0
 11
99.575000000000017
 21
71.957500000000024
 31
0.0
  0
LINE
  5
97
  8
0
 10
212.60300000000001
 20
83.625000000000014
 30
0.0
 11
211.893
 21
83.625000000000014
 31
0.0
  0
LINE
  5
98
  8
0
 10
212.60300000000001
 20
74.125000000000028
 30
0.0
 11
211.893
 21
74.125000000000028
 31
0.0
  0
LINE
  5
99
  8
0
 10
211.893
 20
74.125000000000028
 30
0.0
 11
211.893
 21
83.625000000000014
 31
0.0
  0
LINE
  5
9A
  8
0
 10
86.875000000000014
 20
94.250000000000014
 30
0.0
 11
86.875000000000014
 21
63.500000000000028
 31
0.0
  0
LINE
  5
9B
  8
0
 10
87.375000000000014
 20
63.000000000000028
 30
0.0
 11
99.075000000000045
 21
63.000000000000028
 31
0.0
  0
LINE
  5
9C
  8
0
 10
87.375000000000014
 20
94.750000000000028
 30
0.0
 11
99.075000000000045
 21
94.750000000000028
 31
0.0
  0
LINE
  5
9D
  8
0
 10
87.375000000000014
 20
94.750000000000028
 30
0.0
 11
86.875000000000014
 21
94.250000000000014
 31
0.0
  0
LINE
  5
9E
  8
0
 10
99.075000000000045
 20
94.750000000000028
 30
0.0
 11
99.575000000000031
 21
94.250000000000014
 31
0.0
  0
LINE
  5
9F
  8
0
 10
99.575000000000031
 20
63.500000000000028
 30
0.0
 11
99.075000000000045
 21
63.000000000000028
 31
0.0
  0
LINE
  5
A0
  8
0
 10
87.375000000000014
 20
63.000000000000028
 30
0.0
 11
86.875000000000014
 21
63.500000000000028
 31
0.0
  0
LINE
  5
A1
  8
0
 10
87.375000000000014
 20
94.750000000000028
 30
0.0
 11
87.375000000000014
 21
63.000000000000028
 31
0.0
  0
LINE
  5
A2
  8
0
 10
99.075000000000045
 20
63.000000000000028
 30
0.0
 11
99.075000000000045
 21
94.750000000000028
 31
0.0
  0
CIRCLE
  5
A8
  8
0
 10
262.55799999999999
 20
78.875000000000014
 30
0.0
 40
15.375
  0
CIRCLE
  5
A9
  8
0
 10
262.55799999999999
 20
78.875000000000014
 30
0.0
 40
15.875
  0
LINE
  5
AA
  8
1
 10
262.55799999999999
 20
97.750000000000028
 30
0.0
 11
262.55799999999999
 21
60.000000000000028
 31
0.0
  0
LINE
  5
AB
  8
1
 10
281.43299999999999
 20
78.875000000000014
 30
0.0
 11
243.68299999999999
 21
78.875000000000014
 31
0.0
  0
LINE
  5
AC
  8
1
 10
68.875
 20
78.875
 30
0.0
 11
31.125
 21
78.875
 31
0.0
  0
LINE
  5
AD
  8
1
 10
50.0
 20
97.75
 30
0.0
 11
50.0
 21
60.0
 31
0.0
  0
CIRCLE
  5
AE
  8
0
 10
50.0
 20
78.875
 30
0.0
 40
15.875
  0
CIRCLE
  5
AF
  8
0
 10
50.0
 20
78.875
 30
0.0
 40
15.375
  0
INSERT
  5
B0
  8
3
  2
*X0
 10
29.61300000000001
 20
3.875000000000028
 30
0.0
  0
LINE
  5
B1
  8
0
 10
225.68299999999999
 20
67.075000000000017
 30
0.0
 11
220.143
 21
67.075000000000017
 31
0.0
  0
LINE
  5
B2
  8
0
 10
225.68299999999999
 20
90.67500000000004
 30
0.0
 11
220.143
 21
90.67500000000004
 31
0.0
  0
LINE
  5
B3
  8
0
 10
220.143
 20
72.525000000000034
 30
0.0
 11
212.60300000000001
 21
72.525000000000034
 31
0.0
  0
LINE
  5
B4
  8
0
 10
220.143
 20
85.225000000000023
 30
0.0
 11
212.60300000000001
 21
85.225000000000023
 31
0.0
  0
LINE
  5
B5
  8
0
 10
220.143
 20
90.67500000000004
 30
0.0
 11
220.143
 21
67.075000000000017
 31
0.0
  0
LINE
  5
B6
  8
0
 10
225.68299999999999
 20
90.67500000000004
 30
0.0
 11
225.68299999999999
 21
67.075000000000017
 31
0.0
  0
LINE
  5
B7
  8
0
 10
212.60300000000001
 20
85.225000000000023
 30
0.0
 11
212.60300000000001
 21
72.525000000000034
 31
0.0
  0
CIRCLE
  5
B8
  8
0
 10
262.55799999999999
 20
78.875000000000014
 30
0.0
 40
11.800000000000001
  0
TEXT
  5
1D2
  8
0
 62
     3
 10
0.0
 20
0.0
 30
0.0
 40
10.0
  1
BJ737-16125B
  7
STANDARD1
  0
ENDSEC
  0
EOF
