  0
SECTION
  2
HEADER
  9
$ACADVER
  1
AC1009
  9
$INSBASE
 10
82.638099999999994
 20
103.82319099999999
 30
0.0
  9
$EXTMIN
 10
0.0
 20
-2.960436562073669
 30
0.0
  9
$EXTMAX
 10
256.95100000000002
 20
97.75
 30
0.0
  9
$LIMMIN
 10
0.0
 20
0.0
  9
$LIMMAX
 10
375.0
 20
270.0
  9
$ORTHOMODE
 70
     1
  9
$REGENMODE
 70
     1
  9
$FILLMODE
 70
     1
  9
$QTEXTMODE
 70
     0
  9
$MIRRTEXT
 70
     0
  9
$DRAGMODE
 70
     2
  9
$LTSCALE
 40
10.0
  9
$OSMODE
 70
    37
  9
$ATTMODE
 70
     1
  9
$TEXTSIZE
 40
0.06
  9
$TRACEWID
 40
0.05
  9
$TEXTSTYLE
  7
STANDARD
  9
$CLAYER
  8
0
  9
$CELTYPE
  6
BYLAYER
  9
$CECOLOR
 62
   256
  9
$DIMSCALE
 40
1.0
  9
$DIMASZ
 40
3.0
  9
$DIMEXO
 40
2.0
  9
$DIMDLI
 40
10.0
  9
$DIMRND
 40
0.0
  9
$DIMDLE
 40
0.0
  9
$DIMEXE
 40
2.0
  9
$DIMTP
 40
0.0
  9
$DIMTM
 40
0.0
  9
$DIMTXT
 40
3.0
  9
$DIMCEN
 40
0.0
  9
$DIMTSZ
 40
0.0
  9
$DIMTOL
 70
     0
  9
$DIMLIM
 70
     0
  9
$DIMTIH
 70
     0
  9
$DIMTOH
 70
     0
  9
$DIMSE1
 70
     0
  9
$DIMSE2
 70
     0
  9
$DIMTAD
 70
     1
  9
$DIMZIN
 70
     0
  9
$DIMBLK
  1

  9
$DIMASO
 70
     0
  9
$DIMSHO
 70
     0
  9
$DIMPOST
  1

  9
$DIMAPOST
  1

  9
$DIMALT
 70
     0
  9
$DIMALTD
 70
     2
  9
$DIMALTF
 40
25.399999999999999
  9
$DIMLFAC
 40
1.0
  9
$DIMTOFL
 70
     1
  9
$DIMTVP
 40
1.6000000000000001
  9
$DIMTIX
 70
     1
  9
$DIMSOXD
 70
     0
  9
$DIMSAH
 70
     0
  9
$DIMBLK1
  1

  9
$DIMBLK2
  1

  9
$DIMSTYLE
  2
STANDARD
  9
$DIMCLRD
 70
     0
  9
$DIMCLRE
 70
     0
  9
$DIMCLRT
 70
     0
  9
$DIMTFAC
 40
1.0
  9
$DIMGAP
 40
0.09
  9
$LUNITS
 70
     2
  9
$LUPREC
 70
     4
  9
$SKETCHINC
 40
0.1
  9
$FILLETRAD
 40
0.6
  9
$AUNITS
 70
     0
  9
$AUPREC
 70
     4
  9
$MENU
  1
E:\r13\win\SUPPORT\ACAD
  9
$ELEVATION
 40
0.0
  9
$PELEVATION
 40
0.0
  9
$THICKNESS
 40
0.0
  9
$LIMCHECK
 70
     0
  9
$BLIPMODE
 70
     0
  9
$CHAMFERA
 40
0.0
  9
$CHAMFERB
 40
0.0
  9
$SKPOLY
 70
     0
  9
$TDCREATE
 40
2449840.588680556
  9
$TDUPDATE
 40
2456969.6680539809
  9
$TDINDWG
 40
0.0019815741
  9
$TDUSRTIMER
 40
0.0019815741
  9
$USRTIMER
 70
     1
  9
$ANGBASE
 50
0.0
  9
$ANGDIR
 70
     0
  9
$PDMODE
 70
     1
  9
$PDSIZE
 40
0.0
  9
$PLINEWID
 40
0.0
  9
$COORDS
 70
     1
  9
$SPLFRAME
 70
     0
  9
$SPLINETYPE
 70
     6
  9
$SPLINESEGS
 70
     8
  9
$ATTDIA
 70
     0
  9
$ATTREQ
 70
     1
  9
$HANDLING
 70
     1
  9
$HANDSEED
  5
2B8
  9
$SURFTAB1
 70
     6
  9
$SURFTAB2
 70
     6
  9
$SURFTYPE
 70
     6
  9
$SURFU
 70
     6
  9
$SURFV
 70
     6
  9
$UCSNAME
  2

  9
$UCSORG
 10
0.0
 20
0.0
 30
0.0
  9
$UCSXDIR
 10
1.0
 20
0.0
 30
0.0
  9
$UCSYDIR
 10
0.0
 20
1.0
 30
0.0
  9
$PUCSNAME
  2

  9
$PUCSORG
 10
0.0
 20
0.0
 30
0.0
  9
$PUCSXDIR
 10
1.0
 20
0.0
 30
0.0
  9
$PUCSYDIR
 10
0.0
 20
1.0
 30
0.0
  9
$USERI1
 70
     3
  9
$USERI2
 70
     1
  9
$USERI3
 70
     0
  9
$USERI4
 70
     0
  9
$USERI5
 70
     0
  9
$USERR1
 40
1.0
  9
$USERR2
 40
3.0
  9
$USERR3
 40
3.0
  9
$USERR4
 40
3.0
  9
$USERR5
 40
10.0
  9
$WORLDVIEW
 70
     1
  9
$SHADEDGE
 70
     3
  9
$SHADEDIF
 70
    70
  9
$TILEMODE
 70
     1
  9
$MAXACTVP
 70
    16
  9
$PLIMCHECK
 70
     0
  9
$PEXTMIN
 10
1.0000000000000000E+020
 20
1.0000000000000000E+020
 30
1.0000000000000000E+020
  9
$PEXTMAX
 10
-1.0000000000000000E+020
 20
-1.0000000000000000E+020
 30
-1.0000000000000000E+020
  9
$PLIMMIN
 10
0.0
 20
0.0
  9
$PLIMMAX
 10
12.0
 20
9.0
  9
$UNITMODE
 70
     0
  9
$VISRETAIN
 70
     0
  9
$PLINEGEN
 70
     0
  9
$PSLTSCALE
 70
     0
  0
ENDSEC
  0
SECTION
  2
TABLES
  0
TABLE
  2
VPORT
 70
     1
  0
VPORT
  2
*ACTIVE
 70
     0
 10
0.0
 20
0.0
 11
1.0
 21
1.0
 12
276.22208277639811
 22
133.514809599426
 13
0.0
 23
0.0
 14
5.0
 24
5.0
 15
10.0
 25
10.0
 16
0.0
 26
0.0
 36
1.0
 17
0.0
 27
0.0
 37
0.0
 40
275.36485782571918
 41
2.6019575856443709
 42
50.0
 43
0.0
 44
0.0
 50
0.0
 51
0.0
 71
     0
 72
   100
 73
     1
 74
     0
 75
     0
 76
     0
 77
     0
 78
     2
  0
ENDTAB
  0
TABLE
  2
LTYPE
 70
     3
  0
LTYPE
  2
CONTINUOUS
 70
     0
  3
Solid Line
 72
    65
 73
     0
 40
0.0
  0
LTYPE
  2
CENTER
 70
     0
  3
____ _ ____ _ ____ _ ____ _ ____ _ ____ _ ____
 72
    65
 73
     4
 40
2.0
 49
1.25
 49
-0.25
 49
0.25
 49
-0.25
  0
LTYPE
  2
PHANTOM2
 70
     0
  3
___ _ _ ___ _ _ ___ _ _ ___ _ _
 72
    65
 73
     6
 40
1.25
 49
0.625
 49
-0.125
 49
0.125
 49
-0.125
 49
0.125
 49
-0.125
  0
ENDTAB
  0
TABLE
  2
LAYER
 70
     3
  0
LAYER
  2
0
 70
     0
 62
     7
  6
CONTINUOUS
  0
LAYER
  2
1
 70
     0
 62
     1
  6
CENTER
  0
LAYER
  2
3
 70
     0
 62
     3
  6
CONTINUOUS
  0
ENDTAB
  0
TABLE
  2
STYLE
 70
     2
  0
STYLE
  2
STANDARD
 70
     0
 40
0.0
 41
1.0
 50
0.0
 71
     0
 42
0.06
  3
TXT
  4
BIGFONT
  0
STYLE
  2
STANDARD1
 70
     0
 40
0.0
 41
1.0
 50
0.0
 71
     0
 42
3.0
  3
txt
  4

  0
ENDTAB
  0
TABLE
  2
VIEW
 70
     0
  0
ENDTAB
  0
TABLE
  2
UCS
 70
     0
  0
ENDTAB
  0
TABLE
  2
APPID
 70
     4
  0
APPID
  2
ACAD
 70
     0
  0
APPID
  2
ACAD_MLEADERVER
 70
     0
  0
APPID
  2
ACAD_NAV_VCDISPLAY
 70
     0
  0
APPID
  2
ACAD_EXEMPT_FROM_CAD_STANDARDS
 70
     0
  0
ENDTAB
  0
TABLE
  2
DIMSTYLE
 70
     1
  0
DIMSTYLE
  2
STANDARD
 70
     0
  3

  4

  5

  6

  7

 40
1.0
 41
0.18
 42
0.0625
 43
0.38
 44
0.18
 45
0.0
 46
0.0
 47
0.0
 48
0.0
140
0.18
141
0.09
142
0.0
143
25.399999999999999
144
1.0
145
0.0
146
1.0
147
0.09
 71
     0
 72
     0
 73
     1
 74
     1
 75
     0
 76
     0
 77
     0
 78
     0
170
     0
171
     2
172
     0
173
     0
174
     0
175
     0
176
     0
177
     0
178
     0
  0
ENDTAB
  0
ENDSEC
  0
SECTION
  2
BLOCKS
  0
BLOCK
  8
0
  2
$MODEL_SPACE
 70
     0
 10
0.0
 20
0.0
 30
0.0
  3
$MODEL_SPACE
  1

  0
ENDBLK
  5
10E
  8
0
  0
BLOCK
 67
     1
  8
0
  2
$PAPER_SPACE
 70
     0
 10
0.0
 20
0.0
 30
0.0
  3
$PAPER_SPACE
  1

  0
ENDBLK
  5
10C
 67
     1
  8
0
  0
BLOCK
  8
0
  2
*X0
 70
     1
 10
0.0
 20
0.0
 30
0.0
  3
*X0
  1

  0
LINE
  5
39
  8
0
 62
     0
 10
71.016751999999997
 20
46.975121999999999
 30
0.0
 11
82.716752
 21
58.675122000000002
 31
0.0
  0
LINE
  5
3A
  8
0
 62
     0
 10
71.016751999999997
 20
48.389334999999988
 30
0.0
 11
82.716752
 21
60.089334999999998
 31
0.0
  0
LINE
  5
3B
  8
0
 62
     0
 10
71.016751999999997
 20
49.803548999999997
 30
0.0
 11
82.716752
 21
61.503548999999992
 31
0.0
  0
LINE
  5
3C
  8
0
 62
     0
 10
71.016751999999997
 20
51.217762
 30
0.0
 11
82.716752
 21
62.917762000000003
 31
0.0
  0
LINE
  5
3D
  8
0
 62
     0
 10
71.016751999999997
 20
52.631976000000002
 30
0.0
 11
82.716752
 21
64.331975999999983
 31
0.0
  0
LINE
  5
3E
  8
0
 62
     0
 10
71.016751999999997
 20
54.046188999999998
 30
0.0
 11
82.716752
 21
65.746189000000001
 31
0.0
  0
LINE
  5
3F
  8
0
 62
     0
 10
71.016751999999997
 20
55.460402999999999
 30
0.0
 11
82.716752
 21
67.160403000000002
 31
0.0
  0
LINE
  5
40
  8
0
 62
     0
 10
71.016751999999997
 20
56.874617000000001
 30
0.0
 11
82.275193000000002
 21
68.133056999999994
 31
0.0
  0
LINE
  5
41
  8
0
 62
     0
 10
71.016751999999997
 20
58.288830000000011
 30
0.0
 11
80.860979
 21
68.133056999999994
 31
0.0
  0
LINE
  5
42
  8
0
 62
     0
 10
71.016751999999997
 20
59.703043999999991
 30
0.0
 11
79.446765999999997
 21
68.133056999999994
 31
0.0
  0
LINE
  5
43
  8
0
 62
     0
 10
71.016751999999997
 20
61.117257000000002
 30
0.0
 11
78.032551999999995
 21
68.133056999999994
 31
0.0
  0
LINE
  5
44
  8
0
 62
     0
 10
71.016751999999997
 20
62.531470999999989
 30
0.0
 11
76.618339000000006
 21
68.133056999999994
 31
0.0
  0
LINE
  5
45
  8
0
 62
     0
 10
71.016751999999997
 20
63.945684
 30
0.0
 11
75.204125000000005
 21
68.133056999999994
 31
0.0
  0
LINE
  5
46
  8
0
 62
     0
 10
71.016751999999997
 20
65.359898000000001
 30
0.0
 11
73.789911000000004
 21
68.133056999999994
 31
0.0
  0
LINE
  5
47
  8
0
 62
     0
 10
71.016751999999997
 20
66.774111000000005
 30
0.0
 11
72.375698
 21
68.133056999999994
 31
0.0
  0
LINE
  5
48
  8
0
 62
     0
 10
71.016751999999997
 20
45.560907999999998
 30
0.0
 11
82.716752
 21
57.260907999999993
 31
0.0
  0
LINE
  5
49
  8
0
 62
     0
 10
71.016751999999997
 20
44.146693999999997
 30
0.0
 11
82.716752
 21
55.846693999999992
 31
0.0
  0
LINE
  5
4A
  8
0
 62
     0
 10
71.016751999999997
 20
42.732480999999993
 30
0.0
 11
82.716752
 21
54.432481000000003
 31
0.0
  0
LINE
  5
4B
  8
0
 62
     0
 10
71.016751999999997
 20
41.318266999999999
 30
0.0
 11
82.716752
 21
53.018267000000002
 31
0.0
  0
LINE
  5
4C
  8
0
 62
     0
 10
71.016751999999997
 20
39.904054000000002
 30
0.0
 11
82.716752
 21
51.604053999999998
 31
0.0
  0
LINE
  5
4D
  8
0
 62
     0
 10
71.016751999999997
 20
38.489840000000001
 30
0.0
 11
82.716752
 21
50.189839999999997
 31
0.0
  0
LINE
  5
4E
  8
0
 62
     0
 10
71.016751999999997
 20
37.075626999999997
 30
0.0
 11
82.716752
 21
48.775627
 31
0.0
  0
LINE
  5
4F
  8
0
 62
     0
 10
71.738395999999995
 20
36.383057000000001
 30
0.0
 11
82.716752
 21
47.361412999999992
 31
0.0
  0
LINE
  5
50
  8
0
 62
     0
 10
73.152609999999996
 20
36.383057000000001
 30
0.0
 11
82.716752
 21
45.947200000000002
 31
0.0
  0
LINE
  5
51
  8
0
 62
     0
 10
74.566822999999999
 20
36.383057000000001
 30
0.0
 11
82.716752
 21
44.532986000000001
 31
0.0
  0
LINE
  5
52
  8
0
 62
     0
 10
75.981037000000001
 20
36.383057000000001
 30
0.0
 11
82.716752
 21
43.118772
 31
0.0
  0
LINE
  5
53
  8
0
 62
     0
 10
77.395250000000004
 20
36.383057000000001
 30
0.0
 11
82.716752
 21
41.704559000000003
 31
0.0
  0
LINE
  5
54
  8
0
 62
     0
 10
78.809464000000006
 20
36.383057000000001
 30
0.0
 11
82.716752
 21
40.290345000000002
 31
0.0
  0
LINE
  5
55
  8
0
 62
     0
 10
80.223678000000007
 20
36.383057000000001
 30
0.0
 11
82.716752
 21
38.876131999999998
 31
0.0
  0
LINE
  5
56
  8
0
 62
     0
 10
81.637890999999996
 20
36.383057000000001
 30
0.0
 11
82.716752
 21
37.461917999999997
 31
0.0
  0
LINE
  5
57
  8
0
 62
     0
 10
82.716752
 20
45.976681999999997
 30
0.0
 11
71.016751999999997
 21
57.676681999999992
 31
0.0
  0
LINE
  5
58
  8
0
 62
     0
 10
82.716752
 20
44.562468000000003
 30
0.0
 11
71.016751999999997
 21
56.262467999999998
 31
0.0
  0
LINE
  5
59
  8
0
 62
     0
 10
82.716752
 20
43.148254999999999
 30
0.0
 11
71.016751999999997
 21
54.848255000000002
 31
0.0
  0
LINE
  5
5A
  8
0
 62
     0
 10
82.716752
 20
41.734040999999991
 30
0.0
 11
71.016751999999997
 21
53.434041000000001
 31
0.0
  0
LINE
  5
5B
  8
0
 62
     0
 10
82.716752
 20
40.319828000000001
 30
0.0
 11
71.016751999999997
 21
52.019827999999997
 31
0.0
  0
LINE
  5
5C
  8
0
 62
     0
 10
82.716752
 20
38.905614
 30
0.0
 11
71.016751999999997
 21
50.605614000000003
 31
0.0
  0
LINE
  5
5D
  8
0
 62
     0
 10
82.716752
 20
37.491401000000003
 30
0.0
 11
71.016751999999997
 21
49.191400999999992
 31
0.0
  0
LINE
  5
5E
  8
0
 62
     0
 10
82.410882000000001
 20
36.383057000000001
 30
0.0
 11
71.016751999999997
 21
47.777186999999998
 31
0.0
  0
LINE
  5
5F
  8
0
 62
     0
 10
80.996668999999997
 20
36.383057000000001
 30
0.0
 11
71.016751999999997
 21
46.362974000000001
 31
0.0
  0
LINE
  5
60
  8
0
 62
     0
 10
79.58245500000001
 20
36.383057000000001
 30
0.0
 11
71.016751999999997
 21
44.94876
 31
0.0
  0
LINE
  5
61
  8
0
 62
     0
 10
78.168241000000009
 20
36.383057000000001
 30
0.0
 11
71.016751999999997
 21
43.534545999999999
 31
0.0
  0
LINE
  5
62
  8
0
 62
     0
 10
76.754028000000005
 20
36.383057000000001
 30
0.0
 11
71.016751999999997
 21
42.120333000000002
 31
0.0
  0
LINE
  5
63
  8
0
 62
     0
 10
75.339814000000004
 20
36.383057000000001
 30
0.0
 11
71.016751999999997
 21
40.706119000000001
 31
0.0
  0
LINE
  5
64
  8
0
 62
     0
 10
73.925601
 20
36.383057000000001
 30
0.0
 11
71.016751999999997
 21
39.291905999999997
 31
0.0
  0
LINE
  5
65
  8
0
 62
     0
 10
72.511386999999999
 20
36.383057000000001
 30
0.0
 11
71.016751999999997
 21
37.877692000000003
 31
0.0
  0
LINE
  5
66
  8
0
 62
     0
 10
71.097173999999995
 20
36.383057000000001
 30
0.0
 11
71.016751999999997
 21
36.463479
 31
0.0
  0
LINE
  5
67
  8
0
 62
     0
 10
82.716752
 20
47.390895999999998
 30
0.0
 11
71.016751999999997
 21
59.090895999999987
 31
0.0
  0
LINE
  5
68
  8
0
 62
     0
 10
82.716752
 20
48.805109000000002
 30
0.0
 11
71.016751999999997
 21
60.50510899999999
 31
0.0
  0
LINE
  5
69
  8
0
 62
     0
 10
82.716752
 20
50.219322999999989
 30
0.0
 11
71.016751999999997
 21
61.919322999999999
 31
0.0
  0
LINE
  5
6A
  8
0
 62
     0
 10
82.716752
 20
51.633535999999999
 30
0.0
 11
71.016751999999997
 21
63.333535999999988
 31
0.0
  0
LINE
  5
6B
  8
0
 62
     0
 10
82.716752
 20
53.047750000000001
 30
0.0
 11
71.016751999999997
 21
64.747749999999996
 31
0.0
  0
LINE
  5
6C
  8
0
 62
     0
 10
82.716752
 20
54.461962999999997
 30
0.0
 11
71.016751999999997
 21
66.161963
 31
0.0
  0
LINE
  5
6D
  8
0
 62
     0
 10
82.716752
 20
55.876176999999998
 30
0.0
 11
71.016751999999997
 21
67.576177000000001
 31
0.0
  0
LINE
  5
6E
  8
0
 62
     0
 10
82.716752
 20
57.290391000000007
 30
0.0
 11
71.874086000000005
 21
68.133056999999994
 31
0.0
  0
LINE
  5
6F
  8
0
 62
     0
 10
82.716752
 20
58.704604000000003
 30
0.0
 11
73.288298999999995
 21
68.133056999999994
 31
0.0
  0
LINE
  5
70
  8
0
 62
     0
 10
82.716752
 20
60.118818000000012
 30
0.0
 11
74.702512999999996
 21
68.133056999999994
 31
0.0
  0
LINE
  5
71
  8
0
 62
     0
 10
82.716752
 20
61.533031000000008
 30
0.0
 11
76.116726
 21
68.133056999999994
 31
0.0
  0
LINE
  5
72
  8
0
 62
     0
 10
82.716752
 20
62.947245000000002
 30
0.0
 11
77.530940000000001
 21
68.133056999999994
 31
0.0
  0
LINE
  5
73
  8
0
 62
     0
 10
82.716752
 20
64.361457999999999
 30
0.0
 11
78.945153000000005
 21
68.133056999999994
 31
0.0
  0
LINE
  5
74
  8
0
 62
     0
 10
82.716752
 20
65.775672
 30
0.0
 11
80.359367000000006
 21
68.133056999999994
 31
0.0
  0
LINE
  5
75
  8
0
 62
     0
 10
82.716752
 20
67.189885000000004
 30
0.0
 11
81.77358000000001
 21
68.133056999999994
 31
0.0
  0
ENDBLK
  5
76
  8
0
  0
ENDSEC
  0
SECTION
  2
ENTITIES
  0
LINE
  5
83
  8
0
 10
99.575000000000045
 20
84.875000000000014
 30
0.0
 11
187.751
 21
84.875000000000014
 31
0.0
  0
LINE
  5
84
  8
0
 10
99.575000000000045
 20
63.500000000000028
 30
0.0
 11
99.575000000000045
 21
94.250000000000014
 31
0.0
  0
LINE
  5
85
  8
0
 10
99.575000000000045
 20
72.875000000000028
 30
0.0
 11
187.751
 21
72.875000000000028
 31
0.0
  0
LINE
  5
86
  8
1
 10
204.20099999999999
 20
78.875
 30
0.0
 11
83.875000000000014
 21
78.875
 31
0.0
  0
LINE
  5
87
  8
0
 10
187.751
 20
72.875000000000028
 30
0.0
 11
187.751
 21
84.875000000000014
 31
0.0
  0
LINE
  5
88
  8
0
 10
187.751
 20
72.875000000000028
 30
0.0
 11
190.001
 21
75.125000000000014
 31
0.0
  0
LINE
  5
89
  8
0
 10
190.001
 20
82.625000000000014
 30
0.0
 11
187.751
 21
84.875000000000014
 31
0.0
  0
LINE
  5
8A
  8
3
 10
188.69800000000001
 20
83.928000000000026
 30
0.0
 11
99.575000000000045
 21
83.928000000000026
 31
0.0
  0
LINE
  5
8B
  8
3
 10
188.69800000000001
 20
73.822000000000031
 30
0.0
 11
99.575000000000045
 21
73.822000000000031
 31
0.0
  0
LINE
  5
8C
  8
0
 10
190.53100000000001
 20
82.625000000000014
 30
0.0
 11
190.001
 21
82.625000000000014
 31
0.0
  0
LINE
  5
8D
  8
0
 10
190.53100000000001
 20
75.125000000000014
 30
0.0
 11
190.001
 21
75.125000000000014
 31
0.0
  0
LINE
  5
8E
  8
0
 10
190.001
 20
75.125000000000014
 30
0.0
 11
190.001
 21
82.625000000000014
 31
0.0
  0
LINE
  5
8F
  8
0
 10
86.875000000000028
 20
63.500000000000028
 30
0.0
 11
86.875000000000028
 21
94.250000000000014
 31
0.0
  0
LINE
  5
90
  8
0
 10
87.375000000000014
 20
63.000000000000028
 30
0.0
 11
99.075000000000045
 21
63.000000000000028
 31
0.0
  0
LINE
  5
91
  8
0
 10
87.375000000000014
 20
94.750000000000028
 30
0.0
 11
99.075000000000045
 21
94.750000000000028
 31
0.0
  0
LINE
  5
97
  8
0
 10
87.375000000000014
 20
94.750000000000028
 30
0.0
 11
86.875000000000028
 21
94.250000000000014
 31
0.0
  0
LINE
  5
98
  8
0
 10
99.075000000000045
 20
94.750000000000028
 30
0.0
 11
99.575000000000045
 21
94.250000000000014
 31
0.0
  0
LINE
  5
99
  8
0
 10
99.075000000000045
 20
63.000000000000028
 30
0.0
 11
99.575000000000045
 21
63.500000000000028
 31
0.0
  0
LINE
  5
9A
  8
0
 10
87.375000000000014
 20
63.000000000000028
 30
0.0
 11
86.875000000000028
 21
63.500000000000028
 31
0.0
  0
LINE
  5
9B
  8
0
 10
87.375000000000014
 20
63.000000000000028
 30
0.0
 11
87.375000000000014
 21
94.750000000000028
 31
0.0
  0
LINE
  5
9C
  8
0
 10
99.075000000000045
 20
63.000000000000028
 30
0.0
 11
99.075000000000045
 21
94.750000000000028
 31
0.0
  0
INSERT
  5
9D
  8
3
  2
*X0
 10
16.358248000000032
 20
26.616943000000042
 30
0.0
  0
CIRCLE
  5
9E
  8
0
 10
238.07599999999991
 20
78.875
 30
0.0
 40
15.875
  0
CIRCLE
  5
9F
  8
0
 10
238.07599999999991
 20
78.875
 30
0.0
 40
15.375
  0
LINE
  5
A0
  8
1
 10
238.07599999999991
 20
97.75
 30
0.0
 11
238.07599999999991
 21
60.0
 31
0.0
  0
LINE
  5
A1
  8
1
 10
256.95100000000002
 20
78.875
 30
0.0
 11
219.20099999999999
 21
78.875
 31
0.0
  0
LINE
  5
A2
  8
1
 10
68.875
 20
78.875
 30
0.0
 11
31.125
 21
78.875
 31
0.0
  0
LINE
  5
A3
  8
1
 10
50.0
 20
97.75
 30
0.0
 11
50.0
 21
60.0
 31
0.0
  0
CIRCLE
  5
A4
  8
0
 10
50.0
 20
78.875
 30
0.0
 40
15.375
  0
CIRCLE
  5
A5
  8
0
 10
50.0
 20
78.875
 30
0.0
 40
15.875
  0
LINE
  5
A6
  8
0
 10
196.45099999999999
 20
83.830000000000041
 30
0.0
 11
190.53100000000001
 21
83.830000000000041
 31
0.0
  0
LINE
  5
A7
  8
0
 10
196.45099999999999
 20
73.920000000000016
 30
0.0
 11
190.53100000000001
 21
73.920000000000016
 31
0.0
  0
LINE
  5
A8
  8
0
 10
201.20099999999999
 20
69.325000000000017
 30
0.0
 11
196.45099999999999
 21
69.325000000000017
 31
0.0
  0
LINE
  5
A9
  8
0
 10
201.20099999999999
 20
88.42500000000004
 30
0.0
 11
196.45099999999999
 21
88.42500000000004
 31
0.0
  0
LINE
  5
AA
  8
0
 10
196.45099999999999
 20
88.42500000000004
 30
0.0
 11
196.45099999999999
 21
69.325000000000017
 31
0.0
  0
LINE
  5
AB
  8
0
 10
201.20099999999999
 20
88.42500000000004
 30
0.0
 11
201.20099999999999
 21
69.325000000000017
 31
0.0
  0
LINE
  5
AC
  8
0
 10
190.53100000000001
 20
83.830000000000041
 30
0.0
 11
190.53100000000001
 21
73.920000000000016
 31
0.0
  0
CIRCLE
  5
AD
  8
0
 10
238.07599999999991
 20
78.875
 30
0.0
 40
9.5500000000000007
  0
TEXT
  5
1C5
  8
0
 62
     3
 10
0.0
 20
0.0
 30
0.0
 40
10.0
  1
BJ737-12100B
  7
STANDARD1
  0
ENDSEC
  0
EOF
