  0
SECTION
  2
HEADER
  9
$ACADVER
  1
AC1009
  9
$INSBASE
 10
82.638099999999994
 20
103.82319099999999
 30
0.0
  9
$EXTMIN
 10
0.0
 20
-2.960436562073669
 30
0.0
  9
$EXTMAX
 10
154.69999999999999
 20
84.700000000000003
 30
0.0
  9
$LIMMIN
 10
0.0
 20
0.0
  9
$LIMMAX
 10
187.5
 20
135.0
  9
$ORTHOMODE
 70
     1
  9
$REGENMODE
 70
     1
  9
$FILLMODE
 70
     1
  9
$QTEXTMODE
 70
     0
  9
$MIRRTEXT
 70
     0
  9
$DRAGMODE
 70
     2
  9
$LTSCALE
 40
5.0
  9
$OSMODE
 70
  3071
  9
$ATTMODE
 70
     1
  9
$TEXTSIZE
 40
0.06
  9
$TRACEWID
 40
0.05
  9
$TEXTSTYLE
  7
STANDARD
  9
$CLAYER
  8
0
  9
$CELTYPE
  6
BYLAYER
  9
$CECOLOR
 62
   256
  9
$DIMSCALE
 40
0.5
  9
$DIMASZ
 40
3.0
  9
$DIMEXO
 40
2.0
  9
$DIMDLI
 40
10.0
  9
$DIMRND
 40
0.0
  9
$DIMDLE
 40
0.0
  9
$DIMEXE
 40
2.0
  9
$DIMTP
 40
0.0
  9
$DIMTM
 40
0.0
  9
$DIMTXT
 40
3.0
  9
$DIMCEN
 40
0.0
  9
$DIMTSZ
 40
0.0
  9
$DIMTOL
 70
     0
  9
$DIMLIM
 70
     0
  9
$DIMTIH
 70
     0
  9
$DIMTOH
 70
     0
  9
$DIMSE1
 70
     0
  9
$DIMSE2
 70
     0
  9
$DIMTAD
 70
     1
  9
$DIMZIN
 70
     0
  9
$DIMBLK
  1

  9
$DIMASO
 70
     0
  9
$DIMSHO
 70
     0
  9
$DIMPOST
  1

  9
$DIMAPOST
  1

  9
$DIMALT
 70
     0
  9
$DIMALTD
 70
     2
  9
$DIMALTF
 40
25.399999999999999
  9
$DIMLFAC
 40
1.0
  9
$DIMTOFL
 70
     1
  9
$DIMTVP
 40
1.6000000000000001
  9
$DIMTIX
 70
     1
  9
$DIMSOXD
 70
     0
  9
$DIMSAH
 70
     0
  9
$DIMBLK1
  1

  9
$DIMBLK2
  1

  9
$DIMSTYLE
  2
STANDARD
  9
$DIMCLRD
 70
     0
  9
$DIMCLRE
 70
     0
  9
$DIMCLRT
 70
     0
  9
$DIMTFAC
 40
1.0
  9
$DIMGAP
 40
0.09
  9
$LUNITS
 70
     2
  9
$LUPREC
 70
     4
  9
$SKETCHINC
 40
0.1
  9
$FILLETRAD
 40
0.4
  9
$AUNITS
 70
     0
  9
$AUPREC
 70
     4
  9
$MENU
  1
E:\r13\win\SUPPORT\ACAD
  9
$ELEVATION
 40
0.0
  9
$PELEVATION
 40
0.0
  9
$THICKNESS
 40
0.0
  9
$LIMCHECK
 70
     0
  9
$BLIPMODE
 70
     0
  9
$CHAMFERA
 40
0.0
  9
$CHAMFERB
 40
0.0
  9
$SKPOLY
 70
     0
  9
$TDCREATE
 40
2449840.588460648
  9
$TDUPDATE
 40
2456597.6998979398
  9
$TDINDWG
 40
0.0010440972
  9
$TDUSRTIMER
 40
0.0010440972
  9
$USRTIMER
 70
     1
  9
$ANGBASE
 50
0.0
  9
$ANGDIR
 70
     0
  9
$PDMODE
 70
     1
  9
$PDSIZE
 40
0.0
  9
$PLINEWID
 40
0.0
  9
$COORDS
 70
     1
  9
$SPLFRAME
 70
     0
  9
$SPLINETYPE
 70
     6
  9
$SPLINESEGS
 70
     8
  9
$ATTDIA
 70
     0
  9
$ATTREQ
 70
     1
  9
$HANDLING
 70
     1
  9
$HANDSEED
  5
245
  9
$SURFTAB1
 70
     6
  9
$SURFTAB2
 70
     6
  9
$SURFTYPE
 70
     6
  9
$SURFU
 70
     6
  9
$SURFV
 70
     6
  9
$UCSNAME
  2

  9
$UCSORG
 10
0.0
 20
0.0
 30
0.0
  9
$UCSXDIR
 10
1.0
 20
0.0
 30
0.0
  9
$UCSYDIR
 10
0.0
 20
1.0
 30
0.0
  9
$PUCSNAME
  2

  9
$PUCSORG
 10
0.0
 20
0.0
 30
0.0
  9
$PUCSXDIR
 10
1.0
 20
0.0
 30
0.0
  9
$PUCSYDIR
 10
0.0
 20
1.0
 30
0.0
  9
$USERI1
 70
     3
  9
$USERI2
 70
     1
  9
$USERI3
 70
     0
  9
$USERI4
 70
     0
  9
$USERI5
 70
     0
  9
$USERR1
 40
0.5
  9
$USERR2
 40
3.0
  9
$USERR3
 40
3.0
  9
$USERR4
 40
3.0
  9
$USERR5
 40
10.0
  9
$WORLDVIEW
 70
     1
  9
$SHADEDGE
 70
     3
  9
$SHADEDIF
 70
    70
  9
$TILEMODE
 70
     1
  9
$MAXACTVP
 70
    16
  9
$PLIMCHECK
 70
     0
  9
$PEXTMIN
 10
1.0000000000000000E+020
 20
1.0000000000000000E+020
 30
1.0000000000000000E+020
  9
$PEXTMAX
 10
-1.0000000000000000E+020
 20
-1.0000000000000000E+020
 30
-1.0000000000000000E+020
  9
$PLIMMIN
 10
0.0
 20
0.0
  9
$PLIMMAX
 10
12.0
 20
9.0
  9
$UNITMODE
 70
     0
  9
$VISRETAIN
 70
     0
  9
$PLINEGEN
 70
     0
  9
$PSLTSCALE
 70
     0
  0
ENDSEC
  0
SECTION
  2
TABLES
  0
TABLE
  2
VPORT
 70
     1
  0
VPORT
  2
*ACTIVE
 70
     0
 10
0.0
 20
0.0
 11
1.0
 21
1.0
 12
97.570150770051072
 22
66.014785922033241
 13
0.0
 23
0.0
 14
5.0
 24
5.0
 15
10.0
 25
10.0
 16
0.0
 26
0.0
 36
1.0
 17
0.0
 27
0.0
 37
0.0
 40
139.20783109903601
 41
1.831871345029239
 42
50.0
 43
0.0
 44
0.0
 50
0.0
 51
0.0
 71
     0
 72
   100
 73
     1
 74
     0
 75
     0
 76
     0
 77
     0
 78
     2
  0
ENDTAB
  0
TABLE
  2
LTYPE
 70
     3
  0
LTYPE
  2
CONTINUOUS
 70
     0
  3
Solid Line
 72
    65
 73
     0
 40
0.0
  0
LTYPE
  2
CENTER
 70
     0
  3
____ _ ____ _ ____ _ ____ _ ____ _ ____ _ ____
 72
    65
 73
     4
 40
2.0
 49
1.25
 49
-0.25
 49
0.25
 49
-0.25
  0
LTYPE
  2
PHANTOM2
 70
     0
  3
___ _ _ ___ _ _ ___ _ _ ___ _ _
 72
    65
 73
     6
 40
1.25
 49
0.625
 49
-0.125
 49
0.125
 49
-0.125
 49
0.125
 49
-0.125
  0
ENDTAB
  0
TABLE
  2
LAYER
 70
     3
  0
LAYER
  2
0
 70
     0
 62
     7
  6
CONTINUOUS
  0
LAYER
  2
1
 70
     0
 62
     1
  6
CENTER
  0
LAYER
  2
3
 70
     0
 62
     3
  6
CONTINUOUS
  0
ENDTAB
  0
TABLE
  2
STYLE
 70
     2
  0
STYLE
  2
STANDARD
 70
     0
 40
0.0
 41
1.0
 50
0.0
 71
     0
 42
0.06
  3
TXT
  4
BIGFONT
  0
STYLE
  2
STANDARD1
 70
     0
 40
0.0
 41
1.0
 50
0.0
 71
     0
 42
3.0
  3
txt
  4

  0
ENDTAB
  0
TABLE
  2
VIEW
 70
     0
  0
ENDTAB
  0
TABLE
  2
UCS
 70
     0
  0
ENDTAB
  0
TABLE
  2
APPID
 70
     3
  0
APPID
  2
ACAD
 70
     0
  0
APPID
  2
ACAD_MLEADERVER
 70
     0
  0
APPID
  2
ACAD_NAV_VCDISPLAY
 70
     0
  0
ENDTAB
  0
TABLE
  2
DIMSTYLE
 70
     1
  0
DIMSTYLE
  2
STANDARD
 70
     0
  3

  4

  5

  6

  7

 40
1.0
 41
0.18
 42
0.0625
 43
0.38
 44
0.18
 45
0.0
 46
0.0
 47
0.0
 48
0.0
140
0.18
141
0.09
142
0.0
143
25.399999999999999
144
1.0
145
0.0
146
1.0
147
0.09
 71
     0
 72
     0
 73
     1
 74
     1
 75
     0
 76
     0
 77
     0
 78
     0
170
     0
171
     2
172
     0
173
     0
174
     0
175
     0
176
     0
177
     0
178
     0
  0
ENDTAB
  0
ENDSEC
  0
SECTION
  2
BLOCKS
  0
BLOCK
  8
0
  2
$MODEL_SPACE
 70
     0
 10
0.0
 20
0.0
 30
0.0
  3
$MODEL_SPACE
  1

  0
ENDBLK
  5
FF
  8
0
  0
BLOCK
 67
     1
  8
0
  2
$PAPER_SPACE
 70
     0
 10
0.0
 20
0.0
 30
0.0
  3
$PAPER_SPACE
  1

  0
ENDBLK
  5
FD
 67
     1
  8
0
  0
BLOCK
  8
0
  2
STDGX5
 70
     0
 10
0.0
 20
0.0
 30
0.0
  3
STDGX5
  1

  0
ENDBLK
  5
2C
  8
0
  0
BLOCK
  8
0
  2
*X1
 70
     1
 10
0.0
 20
0.0
 30
0.0
  3
*X1
  1

  0
LINE
  5
39
  8
0
 62
     0
 10
71.377842000000001
 20
72.792056000000002
 30
0.0
 11
78.307841999999994
 21
79.722056000000009
 31
0.0
  0
LINE
  5
3A
  8
0
 62
     0
 10
71.377842000000001
 20
74.206269999999989
 30
0.0
 11
78.307841999999994
 21
81.136269999999996
 31
0.0
  0
LINE
  5
3B
  8
0
 62
     0
 10
71.377842000000001
 20
75.620482999999993
 30
0.0
 11
78.307841999999994
 21
82.550483
 31
0.0
  0
LINE
  5
3C
  8
0
 62
     0
 10
71.377842000000001
 20
77.034696999999994
 30
0.0
 11
78.307841999999994
 21
83.964697000000001
 31
0.0
  0
LINE
  5
3D
  8
0
 62
     0
 10
71.377842000000001
 20
78.448909999999998
 30
0.0
 11
78.307841999999994
 21
85.378910000000005
 31
0.0
  0
LINE
  5
3E
  8
0
 62
     0
 10
71.377842000000001
 20
79.863123999999999
 30
0.0
 11
78.307841999999994
 21
86.793124000000006
 31
0.0
  0
LINE
  5
3F
  8
0
 62
     0
 10
71.377842000000001
 20
81.277337000000003
 30
0.0
 11
78.307841999999994
 21
88.207336999999995
 31
0.0
  0
LINE
  5
40
  8
0
 62
     0
 10
71.377842000000001
 20
82.691551000000004
 30
0.0
 11
78.307841999999994
 21
89.621550999999997
 31
0.0
  0
LINE
  5
41
  8
0
 62
     0
 10
71.377842000000001
 20
84.105765000000005
 30
0.0
 11
77.512643000000011
 21
90.240565000000004
 31
0.0
  0
LINE
  5
42
  8
0
 62
     0
 10
71.377842000000001
 20
85.519977999999995
 30
0.0
 11
76.098430000000008
 21
90.240565000000004
 31
0.0
  0
LINE
  5
43
  8
0
 62
     0
 10
71.377842000000001
 20
86.93419200000001
 30
0.0
 11
74.684216000000006
 21
90.240565000000004
 31
0.0
  0
LINE
  5
44
  8
0
 62
     0
 10
71.377842000000001
 20
88.348405
 30
0.0
 11
73.270003000000003
 21
90.240565000000004
 31
0.0
  0
LINE
  5
45
  8
0
 62
     0
 10
71.377842000000001
 20
89.762619000000001
 30
0.0
 11
71.855789000000001
 21
90.240565000000004
 31
0.0
  0
LINE
  5
46
  8
0
 62
     0
 10
71.377842000000001
 20
71.377842000000001
 30
0.0
 11
78.307841999999994
 21
78.307841999999994
 31
0.0
  0
LINE
  5
47
  8
0
 62
     0
 10
71.377842000000001
 20
69.963628999999997
 30
0.0
 11
78.307841999999994
 21
76.893629000000004
 31
0.0
  0
LINE
  5
48
  8
0
 62
     0
 10
71.377842000000001
 20
68.549414999999996
 30
0.0
 11
78.307841999999994
 21
75.479415000000003
 31
0.0
  0
LINE
  5
49
  8
0
 62
     0
 10
71.377842000000001
 20
67.135202000000007
 30
0.0
 11
78.307841999999994
 21
74.065201999999999
 31
0.0
  0
LINE
  5
4A
  8
0
 62
     0
 10
71.377842000000001
 20
65.720988000000006
 30
0.0
 11
78.307841999999994
 21
72.650987999999998
 31
0.0
  0
LINE
  5
4B
  8
0
 62
     0
 10
71.911632999999995
 20
64.840564999999998
 30
0.0
 11
78.307841999999994
 21
71.236774999999994
 31
0.0
  0
LINE
  5
4C
  8
0
 62
     0
 10
73.325846999999996
 20
64.840564999999998
 30
0.0
 11
78.307841999999994
 21
69.822560999999993
 31
0.0
  0
LINE
  5
4D
  8
0
 62
     0
 10
74.74006
 20
64.840564999999998
 30
0.0
 11
78.307841999999994
 21
68.408348000000004
 31
0.0
  0
LINE
  5
4E
  8
0
 62
     0
 10
76.154274000000001
 20
64.840564999999998
 30
0.0
 11
78.307841999999994
 21
66.994134000000003
 31
0.0
  0
LINE
  5
4F
  8
0
 62
     0
 10
77.568487000000005
 20
64.840564999999998
 30
0.0
 11
78.307841999999994
 21
65.579920000000001
 31
0.0
  0
LINE
  5
50
  8
0
 62
     0
 10
78.307841999999994
 20
73.013008999999997
 30
0.0
 11
71.377842000000001
 21
79.943009000000004
 31
0.0
  0
LINE
  5
51
  8
0
 62
     0
 10
78.307841999999994
 20
71.598794999999996
 30
0.0
 11
71.377842000000001
 21
78.528795000000002
 31
0.0
  0
LINE
  5
52
  8
0
 62
     0
 10
78.307841999999994
 20
70.184581999999992
 30
0.0
 11
71.377842000000001
 21
77.114581999999999
 31
0.0
  0
LINE
  5
53
  8
0
 62
     0
 10
78.307841999999994
 20
68.770368000000005
 30
0.0
 11
71.377842000000001
 21
75.700368000000012
 31
0.0
  0
LINE
  5
54
  8
0
 62
     0
 10
78.307841999999994
 20
67.356154000000004
 30
0.0
 11
71.377842000000001
 21
74.28615400000001
 31
0.0
  0
LINE
  5
55
  8
0
 62
     0
 10
78.307841999999994
 20
65.941941
 30
0.0
 11
71.377842000000001
 21
72.871941000000007
 31
0.0
  0
LINE
  5
56
  8
0
 62
     0
 10
77.995004000000009
 20
64.840564999999998
 30
0.0
 11
71.377842000000001
 21
71.457727000000006
 31
0.0
  0
LINE
  5
57
  8
0
 62
     0
 10
76.580791000000005
 20
64.840564999999998
 30
0.0
 11
71.377842000000001
 21
70.043514000000002
 31
0.0
  0
LINE
  5
58
  8
0
 62
     0
 10
75.166577000000004
 20
64.840564999999998
 30
0.0
 11
71.377842000000001
 21
68.629300000000001
 31
0.0
  0
LINE
  5
59
  8
0
 62
     0
 10
73.752364
 20
64.840564999999998
 30
0.0
 11
71.377842000000001
 21
67.215086999999997
 31
0.0
  0
LINE
  5
5A
  8
0
 62
     0
 10
72.338149999999985
 20
64.840564999999998
 30
0.0
 11
71.377842000000001
 21
65.800872999999996
 31
0.0
  0
LINE
  5
5B
  8
0
 62
     0
 10
78.307841999999994
 20
74.427222
 30
0.0
 11
71.377842000000001
 21
81.357221999999993
 31
0.0
  0
LINE
  5
5C
  8
0
 62
     0
 10
78.307841999999994
 20
75.841436000000002
 30
0.0
 11
71.377842000000001
 21
82.771435999999994
 31
0.0
  0
LINE
  5
5D
  8
0
 62
     0
 10
78.307841999999994
 20
77.255649000000005
 30
0.0
 11
71.377842000000001
 21
84.185648999999984
 31
0.0
  0
LINE
  5
5E
  8
0
 62
     0
 10
78.307841999999994
 20
78.669863000000007
 30
0.0
 11
71.377842000000001
 21
85.599862999999999
 31
0.0
  0
LINE
  5
5F
  8
0
 62
     0
 10
78.307841999999994
 20
80.084077000000008
 30
0.0
 11
71.377842000000001
 21
87.014077
 31
0.0
  0
LINE
  5
60
  8
0
 62
     0
 10
78.307841999999994
 20
81.498289999999997
 30
0.0
 11
71.377842000000001
 21
88.428290000000004
 31
0.0
  0
LINE
  5
61
  8
0
 62
     0
 10
78.307841999999994
 20
82.912503999999998
 30
0.0
 11
71.377842000000001
 21
89.842504000000005
 31
0.0
  0
LINE
  5
62
  8
0
 62
     0
 10
78.307841999999994
 20
84.326717000000002
 30
0.0
 11
72.393993999999992
 21
90.240565000000004
 31
0.0
  0
LINE
  5
63
  8
0
 62
     0
 10
78.307841999999994
 20
85.740931000000003
 30
0.0
 11
73.808207999999993
 21
90.240565000000004
 31
0.0
  0
LINE
  5
64
  8
0
 62
     0
 10
78.307841999999994
 20
87.155143999999993
 30
0.0
 11
75.222420999999997
 21
90.240565000000004
 31
0.0
  0
LINE
  5
65
  8
0
 62
     0
 10
78.307841999999994
 20
88.569357999999994
 30
0.0
 11
76.636634999999998
 21
90.240565000000004
 31
0.0
  0
LINE
  5
66
  8
0
 62
     0
 10
78.307841999999994
 20
89.983570999999984
 30
0.0
 11
78.050848000000002
 21
90.240565000000004
 31
0.0
  0
ENDBLK
  5
67
  8
0
  0
ENDSEC
  0
SECTION
  2
ENTITIES
  0
INSERT
  5
68
  8
0
  2
STDGX5
 10
0.0
 20
0.0
 30
0.0
  0
LINE
  5
72
  8
0
 10
77.177999999999997
 20
82.200000000000003
 30
0.0
 11
77.177999999999997
 21
57.799999999999997
 31
0.0
  0
LINE
  5
73
  8
0
 10
85.10799999999999
 20
82.200000000000003
 30
0.0
 11
85.10799999999999
 21
57.799999999999997
 31
0.0
  0
LINE
  5
74
  8
0
 10
77.677999999999997
 20
82.700000000000017
 30
0.0
 11
84.607999999999976
 21
82.700000000000017
 31
0.0
  0
LINE
  5
75
  8
0
 10
77.677999999999997
 20
57.299999999999997
 30
0.0
 11
84.607999999999976
 21
57.299999999999997
 31
0.0
  0
LINE
  5
76
  8
1
 10
75.195536000000004
 20
70.0
 30
0.0
 11
114.585847
 21
70.0
 31
0.0
  0
LINE
  5
77
  8
0
 10
104.15000000000001
 20
71.75
 30
0.0
 11
104.15000000000001
 21
68.25
 31
0.0
  0
LINE
  5
78
  8
0
 10
104.92
 20
71.75
 30
0.0
 11
104.15000000000001
 21
71.75
 31
0.0
  0
LINE
  5
79
  8
0
 10
104.92
 20
68.25
 30
0.0
 11
104.15000000000001
 21
68.25
 31
0.0
  0
LINE
  5
7A
  8
3
 10
103.4415
 20
67.541499999999999
 30
0.0
 11
88.277999999999992
 21
67.541499999999999
 31
0.0
  0
LINE
  5
7B
  8
3
 10
103.4415
 20
72.458500000000001
 30
0.0
 11
88.277999999999992
 21
72.458500000000001
 31
0.0
  0
LINE
  5
7C
  8
0
 10
102.90000000000001
 20
67.0
 30
0.0
 11
102.90000000000001
 21
73.0
 31
0.0
  0
LINE
  5
7D
  8
0
 10
104.15000000000001
 20
68.25
 30
0.0
 11
102.90000000000001
 21
67.0
 31
0.0
  0
LINE
  5
7E
  8
0
 10
102.90000000000001
 20
73.0
 30
0.0
 11
104.15000000000001
 21
71.75
 31
0.0
  0
LINE
  5
7F
  8
0
 10
85.507999999999996
 20
73.0
 30
0.0
 11
102.90000000000001
 21
73.0
 31
0.0
  0
LINE
  5
80
  8
0
 10
102.90000000000001
 20
67.0
 30
0.0
 11
85.507999999999996
 21
67.0
 31
0.0
  0
LINE
  5
81
  8
0
 10
88.277999999999992
 20
73.0
 30
0.0
 11
88.277999999999992
 21
67.0
 31
0.0
  0
LINE
  5
82
  8
3
 10
88.277999999999992
 20
67.541499999999999
 30
0.0
 11
87.340093999999993
 21
67.0
 31
0.0
  0
LINE
  5
83
  8
3
 10
88.277999999999992
 20
72.458500000000001
 30
0.0
 11
87.340093999999993
 21
73.0
 31
0.0
  0
LINE
  5
84
  8
0
 10
77.677999999999997
 20
82.700000000000017
 30
0.0
 11
77.177999999999997
 21
82.200000000000003
 31
0.0
  0
LINE
  5
85
  8
0
 10
84.607999999999976
 20
82.700000000000017
 30
0.0
 11
85.10799999999999
 21
82.200000000000003
 31
0.0
  0
LINE
  5
86
  8
0
 10
85.10799999999999
 20
57.799999999999997
 30
0.0
 11
84.607999999999976
 21
57.299999999999997
 31
0.0
  0
LINE
  5
87
  8
0
 10
77.677999999999997
 20
57.299999999999997
 30
0.0
 11
77.177999999999997
 21
57.799999999999997
 31
0.0
  0
LINE
  5
88
  8
0
 10
77.677999999999997
 20
57.299999999999997
 30
0.0
 11
77.677999999999997
 21
82.700000000000017
 31
0.0
  0
LINE
  5
89
  8
0
 10
84.607999999999976
 20
82.700000000000017
 30
0.0
 11
84.607999999999976
 21
57.299999999999997
 31
0.0
  0
INSERT
  5
8A
  8
3
  2
*X1
 10
6.3001579999999997
 20
-7.5405649999999991
 30
0.0
  0
CIRCLE
  5
8B
  8
0
 10
140.0
 20
70.0
 30
0.0
 40
12.699999999999999
  0
ARC
  5
8C
  8
0
 10
85.507999999999996
 20
73.400000000000006
 30
0.0
 40
0.4
 50
180.0
 51
270.0
  0
ARC
  5
8D
  8
0
 10
85.507999999999996
 20
66.599999999999994
 30
0.0
 40
0.4
 50
90.0
 51
180.0
  0
CIRCLE
  5
8E
  8
0
 10
45.0
 20
70.0
 30
0.0
 40
12.699999999999999
  0
LINE
  5
8F
  8
1
 10
140.0
 20
84.700000000000003
 30
0.0
 11
140.0
 21
55.299999999999997
 31
0.0
  0
LINE
  5
90
  8
1
 10
154.69999999999999
 20
70.0
 30
0.0
 11
125.3
 21
70.0
 31
0.0
  0
LINE
  5
91
  8
1
 10
45.0
 20
84.700000000000003
 30
0.0
 11
45.0
 21
55.299999999999997
 31
0.0
  0
LINE
  5
92
  8
1
 10
59.700000000000003
 20
70.0
 30
0.0
 11
30.300000000000001
 21
70.0
 31
0.0
  0
CIRCLE
  5
93
  8
0
 10
45.0
 20
70.0
 30
0.0
 40
12.199999999999999
  0
CIRCLE
  5
94
  8
0
 10
140.0
 20
70.0
 30
0.0
 40
12.199999999999999
  0
INSERT
  5
95
  8
0
  2
STDGX5
 10
0.0
 20
0.0
 30
0.0
  0
INSERT
  5
96
  8
0
  2
STDGX5
 10
0.0
 20
0.0
 30
0.0
  0
CIRCLE
  5
97
  8
0
 10
140.0
 20
70.0
 30
0.0
 40
4.75
  0
LINE
  5
98
  8
0
 10
109.36499999999999
 20
67.650000000000006
 30
0.0
 11
104.92
 21
67.650000000000006
 31
0.0
  0
LINE
  5
99
  8
0
 10
109.36499999999999
 20
72.349999999999994
 30
0.0
 11
104.92
 21
72.349999999999994
 31
0.0
  0
LINE
  5
9A
  8
0
 10
112.54000000000001
 20
65.25
 30
0.0
 11
109.36499999999999
 21
65.25
 31
0.0
  0
LINE
  5
9B
  8
0
 10
112.54000000000001
 20
74.75
 30
0.0
 11
109.36499999999999
 21
74.75
 31
0.0
  0
LINE
  5
9C
  8
0
 10
109.36499999999999
 20
65.25
 30
0.0
 11
109.36499999999999
 21
74.75
 31
0.0
  0
LINE
  5
9D
  8
0
 10
112.54000000000001
 20
65.25
 30
0.0
 11
112.54000000000001
 21
74.75
 31
0.0
  0
LINE
  5
9E
  8
0
 10
104.92
 20
67.650000000000006
 30
0.0
 11
104.92
 21
72.349999999999994
 31
0.0
  0
TEXT
  5
1B6
  8
0
 62
     3
 10
0.0
 20
0.0
 30
0.0
 40
10.0
  1
BJ737-06025B
  7
STANDARD1
  0
ENDSEC
  0
EOF
