  0
SECTION
  2
HEADER
  9
$ACADVER
  1
AC1009
  9
$INSBASE
 10
0.0
 20
0.0
 30
0.0
  9
$EXTMIN
 10
0.0
 20
-2.960436562073669
 30
0.0
  9
$EXTMAX
 10
83.110504774897677
 20
192.0
 30
0.0
  9
$LIMMIN
 10
0.0
 20
0.0
  9
$LIMMAX
 10
187.5
 20
135.0
  9
$ORTHOMODE
 70
     1
  9
$REGENMODE
 70
     1
  9
$FILLMODE
 70
     1
  9
$QTEXTMODE
 70
     0
  9
$MIRRTEXT
 70
     0
  9
$DRAGMODE
 70
     2
  9
$LTSCALE
 40
5.0
  9
$OSMODE
 70
    37
  9
$ATTMODE
 70
     1
  9
$TEXTSIZE
 40
0.2
  9
$TRACEWID
 40
0.05
  9
$TEXTSTYLE
  7
STANDARD
  9
$CLAYER
  8
0
  9
$CELTYPE
  6
BYLAYER
  9
$CECOLOR
 62
   256
  9
$DIMSCALE
 40
1.0
  9
$DIMASZ
 40
3.0
  9
$DIMEXO
 40
2.0
  9
$DIMDLI
 40
0.38
  9
$DIMRND
 40
0.0
  9
$DIMDLE
 40
0.0
  9
$DIMEXE
 40
2.0
  9
$DIMTP
 40
0.0
  9
$DIMTM
 40
0.0
  9
$DIMTXT
 40
3.2000000000000002
  9
$DIMCEN
 40
0.0
  9
$DIMTSZ
 40
0.0
  9
$DIMTOL
 70
     0
  9
$DIMLIM
 70
     0
  9
$DIMTIH
 70
     0
  9
$DIMTOH
 70
     0
  9
$DIMSE1
 70
     0
  9
$DIMSE2
 70
     0
  9
$DIMTAD
 70
     1
  9
$DIMZIN
 70
     8
  9
$DIMBLK
  1

  9
$DIMASO
 70
     0
  9
$DIMSHO
 70
     0
  9
$DIMPOST
  1

  9
$DIMAPOST
  1

  9
$DIMALT
 70
     0
  9
$DIMALTD
 70
     2
  9
$DIMALTF
 40
25.399999999999999
  9
$DIMLFAC
 40
1.0
  9
$DIMTOFL
 70
     1
  9
$DIMTVP
 40
1.6000000000000001
  9
$DIMTIX
 70
     1
  9
$DIMSOXD
 70
     0
  9
$DIMSAH
 70
     0
  9
$DIMBLK1
  1

  9
$DIMBLK2
  1

  9
$DIMSTYLE
  2
STANDARD
  9
$DIMCLRD
 70
     0
  9
$DIMCLRE
 70
     0
  9
$DIMCLRT
 70
     0
  9
$DIMTFAC
 40
1.0
  9
$DIMGAP
 40
1.0
  9
$LUNITS
 70
     2
  9
$LUPREC
 70
     1
  9
$SKETCHINC
 40
0.1
  9
$FILLETRAD
 40
0.5
  9
$AUNITS
 70
     0
  9
$AUPREC
 70
     1
  9
$MENU
  1
E:\r13\win\SUPPORT\ACAD
  9
$ELEVATION
 40
0.0
  9
$PELEVATION
 40
0.0
  9
$THICKNESS
 40
0.0
  9
$LIMCHECK
 70
     0
  9
$BLIPMODE
 70
     0
  9
$CHAMFERA
 40
0.0
  9
$CHAMFERB
 40
0.0
  9
$SKPOLY
 70
     0
  9
$TDCREATE
 40
2449839.7695370368
  9
$TDUPDATE
 40
2458893.5732158222
  9
$TDINDWG
 40
0.018339456
  9
$TDUSRTIMER
 40
0.018339456
  9
$USRTIMER
 70
     1
  9
$ANGBASE
 50
0.0
  9
$ANGDIR
 70
     0
  9
$PDMODE
 70
     0
  9
$PDSIZE
 40
0.0
  9
$PLINEWID
 40
0.0
  9
$COORDS
 70
     1
  9
$SPLFRAME
 70
     0
  9
$SPLINETYPE
 70
     6
  9
$SPLINESEGS
 70
     8
  9
$ATTDIA
 70
     0
  9
$ATTREQ
 70
     1
  9
$HANDLING
 70
     1
  9
$HANDSEED
  5
439
  9
$SURFTAB1
 70
     6
  9
$SURFTAB2
 70
     6
  9
$SURFTYPE
 70
     6
  9
$SURFU
 70
     6
  9
$SURFV
 70
     6
  9
$UCSNAME
  2

  9
$UCSORG
 10
0.0
 20
0.0
 30
0.0
  9
$UCSXDIR
 10
1.0
 20
0.0
 30
0.0
  9
$UCSYDIR
 10
0.0
 20
1.0
 30
0.0
  9
$PUCSNAME
  2

  9
$PUCSORG
 10
0.0
 20
0.0
 30
0.0
  9
$PUCSXDIR
 10
1.0
 20
0.0
 30
0.0
  9
$PUCSYDIR
 10
0.0
 20
1.0
 30
0.0
  9
$USERI1
 70
     0
  9
$USERI2
 70
     1
  9
$USERI3
 70
     0
  9
$USERI4
 70
     0
  9
$USERI5
 70
     0
  9
$USERR1
 40
0.0
  9
$USERR2
 40
0.0
  9
$USERR3
 40
0.0
  9
$USERR4
 40
0.0
  9
$USERR5
 40
0.0
  9
$WORLDVIEW
 70
     1
  9
$SHADEDGE
 70
     3
  9
$SHADEDIF
 70
    70
  9
$TILEMODE
 70
     1
  9
$MAXACTVP
 70
    16
  9
$PLIMCHECK
 70
     0
  9
$PEXTMIN
 10
1.0000000000000000E+020
 20
1.0000000000000000E+020
 30
1.0000000000000000E+020
  9
$PEXTMAX
 10
-1.0000000000000000E+020
 20
-1.0000000000000000E+020
 30
-1.0000000000000000E+020
  9
$PLIMMIN
 10
0.0
 20
0.0
  9
$PLIMMAX
 10
12.0
 20
9.0
  9
$UNITMODE
 70
     0
  9
$VISRETAIN
 70
     0
  9
$PLINEGEN
 70
     0
  9
$PSLTSCALE
 70
     0
  0
ENDSEC
  0
SECTION
  2
TABLES
  0
TABLE
  2
VPORT
 70
     1
  0
VPORT
  2
*ACTIVE
 70
     0
 10
0.0
 20
0.0
 11
1.0
 21
1.0
 12
301.9555214723926
 22
125.0
 13
0.0
 23
0.0
 14
5.0
 24
5.0
 15
5.0
 25
5.0
 16
0.0
 26
0.0
 36
1.0
 17
0.0
 27
0.0
 37
0.0
 40
250.0
 41
2.415644171779141
 42
50.0
 43
0.0
 44
0.0
 50
0.0
 51
0.0
 71
     0
 72
   500
 73
     1
 74
     0
 75
     0
 76
     0
 77
     0
 78
     2
  0
ENDTAB
  0
TABLE
  2
LTYPE
 70
     3
  0
LTYPE
  2
CONTINUOUS
 70
     0
  3
Solid Line
 72
    65
 73
     0
 40
0.0
  0
LTYPE
  2
CENTER
 70
     0
  3
____ _ ____ _ ____ _ ____ _ ____ _ ____ _ ____
 72
    65
 73
     4
 40
2.0
 49
1.25
 49
-0.25
 49
0.25
 49
-0.25
  0
LTYPE
  2
PHANTOM2
 70
     0
  3
___ _ _ ___ _ _ ___ _ _ ___ _ _
 72
    65
 73
     6
 40
1.25
 49
0.625
 49
-0.125
 49
0.125
 49
-0.125
 49
0.125
 49
-0.125
  0
ENDTAB
  0
TABLE
  2
LAYER
 70
     3
  0
LAYER
  2
0
 70
     0
 62
     7
  6
CONTINUOUS
  0
LAYER
  2
1
 70
     0
 62
     1
  6
CENTER
  0
LAYER
  2
3
 70
     0
 62
     3
  6
CONTINUOUS
  0
ENDTAB
  0
TABLE
  2
STYLE
 70
     2
  0
STYLE
  2
STANDARD
 70
     0
 40
0.0
 41
1.0
 50
0.0
 71
     0
 42
0.2
  3
TXT
  4
BIGFONT
  0
STYLE
  2
STANDARD1
 70
     0
 40
0.0
 41
1.0
 50
0.0
 71
     0
 42
3.0
  3
txt
  4

  0
ENDTAB
  0
TABLE
  2
VIEW
 70
     1
  0
VIEW
  2
ALL
 70
     0
 40
179.5384664489153
 10
135.0
 20
89.769233224457665
 41
0.0
 11
0.0
 21
0.0
 31
1.0
 12
0.0
 22
0.0
 32
0.0
 42
0.0
 43
0.0
 44
0.0
 50
0.0
 71
     0
  0
ENDTAB
  0
TABLE
  2
UCS
 70
     0
  0
ENDTAB
  0
TABLE
  2
APPID
 70
     6
  0
APPID
  2
ACAD
 70
     0
  0
APPID
  2
ACAD_MLEADERVER
 70
     0
  0
APPID
  2
ACAD_EXEMPT_FROM_CAD_STANDARDS
 70
     0
  0
APPID
  2
ACAD_NAV_VCDISPLAY
 70
     0
  0
APPID
  2
ACAD_DSTYLE_DIMJAG
 70
     0
  0
APPID
  2
ACAD_DSTYLE_DIMTALN
 70
     0
  0
ENDTAB
  0
TABLE
  2
DIMSTYLE
 70
     1
  0
DIMSTYLE
  2
STANDARD
 70
     0
  3

  4

  5

  6

  7

 40
1.0
 41
0.18
 42
0.0625
 43
0.38
 44
0.18
 45
0.0
 46
0.0
 47
0.0
 48
0.0
140
0.18
141
0.09
142
0.0
143
25.399999999999999
144
1.0
145
0.0
146
1.0
147
0.09
 71
     0
 72
     0
 73
     1
 74
     1
 75
     0
 76
     0
 77
     0
 78
     0
170
     0
171
     2
172
     0
173
     0
174
     0
175
     0
176
     0
177
     0
178
     0
  0
ENDTAB
  0
ENDSEC
  0
SECTION
  2
BLOCKS
  0
BLOCK
  8
0
  2
$MODEL_SPACE
 70
     0
 10
0.0
 20
0.0
 30
0.0
  3
$MODEL_SPACE
  1

  0
ENDBLK
  5
156
  8
0
  0
BLOCK
 67
     1
  8
0
  2
$PAPER_SPACE
 70
     0
 10
0.0
 20
0.0
 30
0.0
  3
$PAPER_SPACE
  1

  0
ENDBLK
  5
154
 67
     1
  8
0
  0
ENDSEC
  0
SECTION
  2
ENTITIES
  0
CIRCLE
  5
54
  8
0
 10
49.999999999999922
 20
172.0
 30
0.0
 40
8.0
  0
CIRCLE
  5
55
  8
0
 10
49.999999999999922
 20
172.0
 30
0.0
 40
14.0
  0
LINE
  5
56
  8
0
 10
35.456394345195498
 20
178.66959778079169
 30
0.0
 11
43.33040221920799
 21
186.5436056548042
 31
0.0
  0
LINE
  5
57
  8
0
 10
56.669597780791882
 20
186.5436056548042
 30
0.0
 11
64.543605654804367
 21
178.66959778079169
 31
0.0
  0
LINE
  5
58
  8
0
 10
64.543605654804352
 20
165.33040221920831
 30
0.0
 11
56.669597780791882
 21
157.4563943451958
 31
0.0
  0
LINE
  5
59
  8
0
 10
43.330402219207983
 20
157.4563943451958
 30
0.0
 11
35.456394345195498
 21
165.33040221920831
 31
0.0
  0
ARC
  5
5A
  8
0
 10
49.999999999999922
 20
172.0
 30
0.0
 40
16.0
 50
110.3641348063193
 51
114.6358651936803
  0
ARC
  5
5B
  8
0
 10
49.999999999999922
 20
172.0
 30
0.0
 40
16.0
 50
65.364134806319655
 51
69.635865193680701
  0
LINE
  5
5C
  8
0
 10
55.567764362830239
 20
187.0
 30
0.0
 11
44.43223563716964
 21
187.0
 31
0.0
  0
ARC
  5
5D
  8
0
 10
49.999999999999922
 20
172.0
 30
0.0
 40
16.0
 50
20.364134806319282
 51
24.63586519368036
  0
ARC
  5
5E
  8
0
 10
49.999999999999922
 20
172.0
 30
0.0
 40
16.0
 50
335.36413480631961
 51
339.63586519368067
  0
LINE
  5
5F
  8
0
 10
64.999999999999702
 20
166.43223563716941
 30
0.0
 11
64.999999999999702
 21
177.5677643628305
 31
0.0
  0
ARC
  5
60
  8
0
 10
49.999999999999922
 20
172.0
 30
0.0
 40
16.0
 50
290.36413480631933
 51
294.63586519368027
  0
ARC
  5
61
  8
0
 10
49.999999999999922
 20
172.0
 30
0.0
 40
16.0
 50
245.3641348063197
 51
249.6358651936807
  0
LINE
  5
62
  8
0
 10
44.432235637169619
 20
157.0
 30
0.0
 11
55.567764362830232
 21
157.0
 31
0.0
  0
LINE
  5
63
  8
0
 10
35.000000000000163
 20
177.5677643628305
 30
0.0
 11
35.000000000000163
 21
166.43223563716941
 31
0.0
  0
ARC
  5
64
  8
0
 10
49.999999999999922
 20
172.0
 30
0.0
 40
16.0
 50
155.36413480631961
 51
159.6358651936807
  0
ARC
  5
65
  8
0
 10
49.999999999999922
 20
172.0
 30
0.0
 40
16.0
 50
200.36413480631921
 51
204.63586519368039
  0
LINE
  5
67
  8
0
 10
43.330402219208288
 20
117.3002293565316
 30
0.0
 11
44.432235637169477
 21
117.3002293566451
 31
0.0
  0
LINE
  5
68
  8
0
 10
57.499999999999922
 20
122.0
 30
0.0
 11
57.999999999999929
 21
121.5
 31
0.0
  0
LINE
  5
69
  8
0
 10
42.499999999999922
 20
122.0
 30
0.0
 11
41.999999999999929
 21
121.5
 31
0.0
  0
LINE
  5
6A
  8
0
 10
57.499999999999943
 20
122.0
 30
0.0
 11
42.499999999999922
 21
122.0
 31
0.0
  0
LINE
  5
6B
  8
0
 10
57.999999999999929
 20
118.5
 30
0.0
 11
57.999999999999929
 21
121.5
 31
0.0
  0
LINE
  5
6C
  8
3
 10
56.917500000000032
 20
105.0
 30
0.0
 11
56.917500000000018
 21
79.999999999929841
 31
0.0
  0
LINE
  5
6D
  8
0
 10
58.0
 20
52.0
 30
0.0
 11
58.0
 21
69.999999999999986
 31
0.0
  0
LINE
  5
71
  8
0
 10
44.432235637169477
 20
108.6997706434081
 30
0.0
 11
43.330402219208288
 21
108.6997706434081
 31
0.0
  0
LINE
  5
72
  8
0
 10
35.456394345196273
 20
108.6997706434081
 30
0.0
 11
35.000000000000021
 21
108.6997706434081
 31
0.0
  0
LINE
  5
73
  8
0
 10
35.456394345196273
 20
117.3002293565914
 30
0.0
 11
35.456394345196273
 21
108.6997706434081
 31
0.0
  0
LINE
  5
74
  8
0
 10
35.000000000000021
 20
117.3002293565914
 30
0.0
 11
35.456394345196273
 21
117.3002293565914
 31
0.0
  0
ARC
  5
75
  8
0
 10
39.393398282201829
 20
106.57505733914689
 30
0.0
 40
11.424942660852651
 50
69.842787032442104
 51
110.1572129675553
  0
ARC
  5
76
  8
0
 10
39.393398282201836
 20
119.42494266085259
 30
0.0
 40
11.424942660852651
 50
249.8427870324447
 51
290.15721296755788
  0
LINE
  5
77
  8
0
 10
43.330402219208288
 20
117.3002293565914
 30
0.0
 11
43.330402219208288
 21
108.6997706434081
 31
0.0
  0
LINE
  5
78
  8
0
 10
44.432235637169477
 20
117.3002293565914
 30
0.0
 11
44.432235637169477
 21
108.6997706434081
 31
0.0
  0
LINE
  5
79
  8
0
 10
64.543605654803756
 20
108.6997706434081
 30
0.0
 11
65.000000000000014
 21
108.6997706434081
 31
0.0
  0
LINE
  5
7A
  8
0
 10
64.543605654803756
 20
117.3002293565914
 30
0.0
 11
64.543605654803756
 21
108.6997706434081
 31
0.0
  0
LINE
  5
7B
  8
0
 10
65.000000000000014
 20
117.3002293565914
 30
0.0
 11
64.543605654803756
 21
117.3002293565914
 31
0.0
  0
ARC
  5
7C
  8
0
 10
60.606601717797737
 20
119.42494266085259
 30
0.0
 40
11.424942660852651
 50
249.84278703244209
 51
290.15721296755532
  0
ARC
  5
7D
  8
0
 10
60.606601717797737
 20
106.57505733914689
 30
0.0
 40
11.424942660852651
 50
69.84278703244469
 51
110.1572129675579
  0
LINE
  5
7E
  8
0
 10
56.669597780791733
 20
117.3002293565914
 30
0.0
 11
56.669597780791733
 21
108.6997706434081
 31
0.0
  0
LINE
  5
7F
  8
0
 10
55.567764362830083
 20
117.3002293565914
 30
0.0
 11
56.669597780791733
 21
117.3002293565914
 31
0.0
  0
LINE
  5
80
  8
0
 10
55.567764362830083
 20
108.6997706434081
 30
0.0
 11
56.669597780791733
 21
108.6997706434081
 31
0.0
  0
LINE
  5
81
  8
0
 10
55.567764362830083
 20
117.3002293565914
 30
0.0
 11
55.567764362830083
 21
108.6997706434081
 31
0.0
  0
ARC
  5
82
  8
0
 10
50.000000000000007
 20
130.5
 30
0.0
 40
22.5
 50
255.67296625067291
 51
284.32703374932709
  0
ARC
  5
83
  8
0
 10
50.000000000000007
 20
95.500000000000014
 30
0.0
 40
22.5
 50
75.672966250672872
 51
104.3270337493271
  0
LINE
  5
85
  8
3
 10
43.082500000000003
 20
105.0
 30
0.0
 11
43.082499999999982
 21
79.999999999929841
 31
0.0
  0
LINE
  5
86
  8
0
 10
42.000000000000007
 20
105.0
 30
0.0
 11
58.000000000000007
 21
105.0
 31
0.0
  0
LINE
  5
87
  8
0
 10
42.0
 20
52.0
 30
0.0
 11
58.0
 21
52.0
 31
0.0
  0
LINE
  5
88
  8
0
 10
44.0
 20
50.0
 30
0.0
 11
42.0
 21
52.0
 31
0.0
  0
LINE
  5
89
  8
0
 10
58.0
 20
52.0
 30
0.0
 11
56.0
 21
50.0
 31
0.0
  0
LINE
  5
8A
  8
0
 10
42.0
 20
52.0
 30
0.0
 11
42.000000000000007
 21
69.999999999999986
 31
0.0
  0
LINE
  5
8B
  8
0
 10
56.0
 20
50.0
 30
0.0
 11
44.0
 21
50.0
 31
0.0
  0
LINE
  5
8D
  8
0
 10
64.000000000000014
 20
108.0
 30
0.0
 11
65.000000000000014
 21
108.57735026918949
 31
0.0
  0
LINE
  5
8E
  8
0
 10
35.000000000000021
 20
108.57735026918949
 30
0.0
 11
35.000000000000021
 21
117.42264973080999
 31
0.0
  0
LINE
  5
8F
  8
0
 10
36.000000000000007
 20
108.0
 30
0.0
 11
35.000000000000021
 21
108.57735026918949
 31
0.0
  0
LINE
  5
90
  8
0
 10
64.000000000000114
 20
117.9999999999999
 30
0.0
 11
36.000000000000007
 21
118.0
 31
0.0
  0
LINE
  5
91
  8
0
 10
65.000000000000014
 20
117.42264973080999
 30
0.0
 11
65.000000000000014
 21
108.57735026918949
 31
0.0
  0
LINE
  5
92
  8
0
 10
36.000000000000007
 20
118.0
 30
0.0
 11
35.000000000000021
 21
117.42264973080999
 31
0.0
  0
LINE
  5
93
  8
0
 10
64.000000000000014
 20
118.0
 30
0.0
 11
65.000000000000014
 21
117.42264973080999
 31
0.0
  0
LINE
  5
94
  8
0
 10
41.999999999999908
 20
118.5
 30
0.0
 11
41.999999999999929
 21
121.5
 31
0.0
  0
LINE
  5
95
  8
1
 10
49.999999999999922
 20
152.0
 30
0.0
 11
49.999999999999943
 21
192.0
 31
0.0
  0
LINE
  5
96
  8
1
 10
69.999999999999915
 20
172.0
 30
0.0
 11
29.999999999999929
 21
172.0
 31
0.0
  0
LINE
  5
97
  8
1
 10
50.000000000000007
 20
127.0
 30
0.0
 11
50.0
 21
45.0
 31
0.0
  0
LINE
  5
189
  8
0
 10
63.999999999999837
 20
107.9999999999999
 30
0.0
 11
36.0
 21
108.0
 31
0.0
  0
ARC
  5
18B
  8
0
 10
40.000000000000043
 20
106.0
 30
0.0
 40
2.0
 50
0.0
 51
90.0
  0
ARC
  5
18C
  8
0
 10
60.000000000000007
 20
106.0
 30
0.0
 40
2.0
 50
90.0
 51
180.0
  0
ARC
  5
18E
  8
0
 10
58.499999999999929
 20
118.5
 30
0.0
 40
0.5
 50
180.0
 51
270.0
  0
ARC
  5
18F
  8
0
 10
41.499999999999908
 20
118.5
 30
0.0
 40
0.5
 50
270.0
 51
0.0
  0
TEXT
  5
24A
  8
0
 62
     3
 10
0.0
 20
0.0
 30
0.0
 40
10.0
  1
BJ734-16002
  7
STANDARD1
  0
LINE
  5
2A1
  8
0
 10
41.999999999999929
 20
121.5
 30
0.0
 11
57.999999999999929
 21
121.5
 31
0.0
  0
LINE
  5
2AF
  8
3
 10
43.082500000000053
 20
105.0
 30
0.0
 11
42.000000000000071
 21
106.8749449991932
 31
0.0
  0
LINE
  5
2B0
  8
3
 10
56.917499999999983
 20
105.0
 30
0.0
 11
57.999999999999957
 21
106.8749449991932
 31
0.0
  0
ARC
  5
2B1
  8
0
 10
49.999976330837129
 20
88.321183649355007
 30
0.0
 40
18.321183649125121
 50
247.78080708366389
 51
292.21930398121049
  0
ARC
  5
2B2
  8
0
 10
49.999976330837129
 20
61.678816350574706
 30
0.0
 40
18.321183649125121
 50
67.780696018789499
 51
112.2191929163361
  0
LINE
  5
2B3
  8
0
 10
43.071804000153818
 20
78.639528095626574
 30
0.0
 11
43.071804000153818
 21
71.360471904303026
 31
0.0
  0
LINE
  5
2B4
  8
0
 10
56.92818153898596
 20
78.639528095626574
 30
0.0
 11
56.928181538985491
 21
71.360471904303026
 31
0.0
  0
LINE
  5
2B5
  8
0
 10
61.49999999999995
 20
69.999999999999986
 30
0.0
 11
38.500000000000071
 21
69.999999999999986
 31
0.0
  0
LINE
  5
2B6
  8
0
 10
61.49999999999995
 20
79.999999999929841
 30
0.0
 11
38.500000000000071
 21
79.999999999929841
 31
0.0
  0
LINE
  5
2B7
  8
0
 10
38.499999999999957
 20
69.999999999999986
 30
0.0
 11
36.143608000308816
 21
71.360471904303026
 31
0.0
  0
LINE
  5
2B8
  8
0
 10
36.143608000308816
 20
71.360471904303026
 30
0.0
 11
36.143608000308816
 21
78.639528095626574
 31
0.0
  0
LINE
  5
2B9
  8
0
 10
36.143608000308816
 20
78.639528095626574
 30
0.0
 11
38.499999999999957
 21
79.999999999929841
 31
0.0
  0
ARC
  5
2BB
  8
0
 10
39.607713230661332
 20
74.909520437087266
 30
0.0
 40
5.0904795628426038
 50
47.116752286379899
 51
89.999984819749287
  0
ARC
  5
2BC
  8
0
 10
39.607713230661332
 20
75.090479562842333
 30
0.0
 40
5.0904795628426038
 50
270.00001518025073
 51
312.88324771362011
  0
ARC
  5
2BD
  8
0
 10
60.392286769338703
 20
75.090479562842333
 30
0.0
 40
5.0904795628426038
 50
227.11675228637989
 51
269.99998481974927
  0
ARC
  5
2BE
  8
0
 10
60.392286769338703
 20
74.909520437087266
 30
0.0
 40
5.0904795628426038
 50
90.000015180250699
 51
132.88324771362011
  0
LINE
  5
2C0
  8
0
 10
63.856391999691212
 20
78.639528095626574
 30
0.0
 11
61.49999999999995
 21
79.999999999929841
 31
0.0
  0
LINE
  5
2C1
  8
0
 10
63.856391999691212
 20
71.360471904303026
 30
0.0
 11
63.856391999691212
 21
78.639528095626574
 31
0.0
  0
LINE
  5
2C2
  8
0
 10
61.49999999999995
 20
69.999999999999986
 30
0.0
 11
63.856391999691212
 21
71.360471904303026
 31
0.0
  0
LINE
  5
2C3
  8
0
 10
58.0
 20
79.999999999929855
 30
0.0
 11
58.000000000000007
 21
106.0
 31
0.0
  0
LINE
  5
2C4
  8
3
 10
56.917500000000018
 20
69.999999999999986
 30
0.0
 11
56.917500000000018
 21
50.917500000000011
 31
0.0
  0
LINE
  5
2C5
  8
3
 10
43.082499999999982
 20
69.999999999999986
 30
0.0
 11
43.082499999999982
 21
50.917500000000011
 31
0.0
  0
LINE
  5
2C6
  8
0
 10
42.000000000000007
 20
79.999999999929855
 30
0.0
 11
42.000000000000043
 21
106.0
 31
0.0
  0
ENDSEC
  0
EOF
