  0
SECTION
  2
HEADER
  9
$ACADVER
  1
AC1009
  9
$INSBASE
 10
0.0
 20
0.0
 30
0.0
  9
$EXTMIN
 10
0.0
 20
-2.960436562073669
 30
0.0
  9
$EXTMAX
 10
83.110504774897677
 20
153.5
 30
0.0
  9
$LIMMIN
 10
0.0
 20
0.0
  9
$LIMMAX
 10
187.5
 20
135.0
  9
$ORTHOMODE
 70
     0
  9
$REGENMODE
 70
     1
  9
$FILLMODE
 70
     1
  9
$QTEXTMODE
 70
     0
  9
$MIRRTEXT
 70
     0
  9
$DRAGMODE
 70
     2
  9
$LTSCALE
 40
5.0
  9
$OSMODE
 70
    37
  9
$ATTMODE
 70
     1
  9
$TEXTSIZE
 40
0.2
  9
$TRACEWID
 40
0.05
  9
$TEXTSTYLE
  7
STANDARD
  9
$CLAYER
  8
0
  9
$CELTYPE
  6
BYLAYER
  9
$CECOLOR
 62
   256
  9
$DIMSCALE
 40
1.0
  9
$DIMASZ
 40
3.0
  9
$DIMEXO
 40
2.0
  9
$DIMDLI
 40
0.38
  9
$DIMRND
 40
0.0
  9
$DIMDLE
 40
0.0
  9
$DIMEXE
 40
2.0
  9
$DIMTP
 40
0.0
  9
$DIMTM
 40
0.0
  9
$DIMTXT
 40
3.0
  9
$DIMCEN
 40
0.0
  9
$DIMTSZ
 40
0.0
  9
$DIMTOL
 70
     0
  9
$DIMLIM
 70
     0
  9
$DIMTIH
 70
     0
  9
$DIMTOH
 70
     0
  9
$DIMSE1
 70
     0
  9
$DIMSE2
 70
     0
  9
$DIMTAD
 70
     1
  9
$DIMZIN
 70
     8
  9
$DIMBLK
  1

  9
$DIMASO
 70
     0
  9
$DIMSHO
 70
     0
  9
$DIMPOST
  1

  9
$DIMAPOST
  1

  9
$DIMALT
 70
     0
  9
$DIMALTD
 70
     2
  9
$DIMALTF
 40
25.399999999999999
  9
$DIMLFAC
 40
1.0
  9
$DIMTOFL
 70
     1
  9
$DIMTVP
 40
1.6000000000000001
  9
$DIMTIX
 70
     1
  9
$DIMSOXD
 70
     0
  9
$DIMSAH
 70
     0
  9
$DIMBLK1
  1

  9
$DIMBLK2
  1

  9
$DIMSTYLE
  2
STANDARD
  9
$DIMCLRD
 70
     0
  9
$DIMCLRE
 70
     0
  9
$DIMCLRT
 70
     0
  9
$DIMTFAC
 40
1.0
  9
$DIMGAP
 40
1.0
  9
$LUNITS
 70
     2
  9
$LUPREC
 70
     1
  9
$SKETCHINC
 40
0.1
  9
$FILLETRAD
 40
1.0
  9
$AUNITS
 70
     0
  9
$AUPREC
 70
     1
  9
$MENU
  1
E:\r13\win\SUPPORT\ACAD
  9
$ELEVATION
 40
0.0
  9
$PELEVATION
 40
0.0
  9
$THICKNESS
 40
0.0
  9
$LIMCHECK
 70
     0
  9
$BLIPMODE
 70
     0
  9
$CHAMFERA
 40
0.0
  9
$CHAMFERB
 40
0.0
  9
$SKPOLY
 70
     0
  9
$TDCREATE
 40
2449839.7696180558
  9
$TDUPDATE
 40
2458893.5731891431
  9
$TDINDWG
 40
0.0688310648
  9
$TDUSRTIMER
 40
0.0688310648
  9
$USRTIMER
 70
     1
  9
$ANGBASE
 50
0.0
  9
$ANGDIR
 70
     0
  9
$PDMODE
 70
     0
  9
$PDSIZE
 40
0.0
  9
$PLINEWID
 40
0.0
  9
$COORDS
 70
     1
  9
$SPLFRAME
 70
     0
  9
$SPLINETYPE
 70
     6
  9
$SPLINESEGS
 70
     8
  9
$ATTDIA
 70
     0
  9
$ATTREQ
 70
     1
  9
$HANDLING
 70
     1
  9
$HANDSEED
  5
4EC
  9
$SURFTAB1
 70
     6
  9
$SURFTAB2
 70
     6
  9
$SURFTYPE
 70
     6
  9
$SURFU
 70
     6
  9
$SURFV
 70
     6
  9
$UCSNAME
  2

  9
$UCSORG
 10
0.0
 20
0.0
 30
0.0
  9
$UCSXDIR
 10
1.0
 20
0.0
 30
0.0
  9
$UCSYDIR
 10
0.0
 20
1.0
 30
0.0
  9
$PUCSNAME
  2

  9
$PUCSORG
 10
0.0
 20
0.0
 30
0.0
  9
$PUCSXDIR
 10
1.0
 20
0.0
 30
0.0
  9
$PUCSYDIR
 10
0.0
 20
1.0
 30
0.0
  9
$USERI1
 70
     3
  9
$USERI2
 70
     1
  9
$USERI3
 70
     0
  9
$USERI4
 70
     0
  9
$USERI5
 70
     0
  9
$USERR1
 40
0.5
  9
$USERR2
 40
3.0
  9
$USERR3
 40
3.0
  9
$USERR4
 40
3.0
  9
$USERR5
 40
10.0
  9
$WORLDVIEW
 70
     1
  9
$SHADEDGE
 70
     3
  9
$SHADEDIF
 70
    70
  9
$TILEMODE
 70
     1
  9
$MAXACTVP
 70
    16
  9
$PLIMCHECK
 70
     0
  9
$PEXTMIN
 10
1.0000000000000000E+020
 20
1.0000000000000000E+020
 30
1.0000000000000000E+020
  9
$PEXTMAX
 10
-1.0000000000000000E+020
 20
-1.0000000000000000E+020
 30
-1.0000000000000000E+020
  9
$PLIMMIN
 10
0.0
 20
0.0
  9
$PLIMMAX
 10
12.0
 20
9.0
  9
$UNITMODE
 70
     0
  9
$VISRETAIN
 70
     0
  9
$PLINEGEN
 70
     0
  9
$PSLTSCALE
 70
     0
  0
ENDSEC
  0
SECTION
  2
TABLES
  0
TABLE
  2
VPORT
 70
     1
  0
VPORT
  2
*ACTIVE
 70
     0
 10
0.0
 20
0.0
 11
1.0
 21
1.0
 12
241.56441717791409
 22
100.0
 13
0.0
 23
0.0
 14
5.0
 24
5.0
 15
10.0
 25
10.0
 16
0.0
 26
0.0
 36
1.0
 17
0.0
 27
0.0
 37
0.0
 40
200.0
 41
2.415644171779141
 42
50.0
 43
0.0
 44
0.0
 50
0.0
 51
0.0
 71
     0
 72
   100
 73
     1
 74
     0
 75
     0
 76
     0
 77
     0
 78
     2
  0
ENDTAB
  0
TABLE
  2
LTYPE
 70
     3
  0
LTYPE
  2
CONTINUOUS
 70
     0
  3
Solid Line
 72
    65
 73
     0
 40
0.0
  0
LTYPE
  2
CENTER
 70
     0
  3
____ _ ____ _ ____ _ ____ _ ____ _ ____ _ ____
 72
    65
 73
     4
 40
2.0
 49
1.25
 49
-0.25
 49
0.25
 49
-0.25
  0
LTYPE
  2
PHANTOM2
 70
     0
  3
___ _ _ ___ _ _ ___ _ _ ___ _ _
 72
    65
 73
     6
 40
1.25
 49
0.625
 49
-0.125
 49
0.125
 49
-0.125
 49
0.125
 49
-0.125
  0
ENDTAB
  0
TABLE
  2
LAYER
 70
     3
  0
LAYER
  2
0
 70
     0
 62
     7
  6
CONTINUOUS
  0
LAYER
  2
1
 70
     0
 62
     1
  6
CENTER
  0
LAYER
  2
3
 70
     0
 62
     3
  6
CONTINUOUS
  0
ENDTAB
  0
TABLE
  2
STYLE
 70
     2
  0
STYLE
  2
STANDARD
 70
     0
 40
0.0
 41
1.0
 50
0.0
 71
     0
 42
0.2
  3
TXT
  4
BIGFONT
  0
STYLE
  2
STANDARD1
 70
     0
 40
0.0
 41
1.0
 50
0.0
 71
     0
 42
3.0
  3
txt
  4

  0
ENDTAB
  0
TABLE
  2
VIEW
 70
     0
  0
ENDTAB
  0
TABLE
  2
UCS
 70
     0
  0
ENDTAB
  0
TABLE
  2
APPID
 70
     6
  0
APPID
  2
ACAD
 70
     0
  0
APPID
  2
ACAD_MLEADERVER
 70
     0
  0
APPID
  2
ACAD_EXEMPT_FROM_CAD_STANDARDS
 70
     0
  0
APPID
  2
ACAD_NAV_VCDISPLAY
 70
     0
  0
APPID
  2
ACAD_DSTYLE_DIMJAG
 70
     0
  0
APPID
  2
ACAD_DSTYLE_DIMTALN
 70
     0
  0
ENDTAB
  0
TABLE
  2
DIMSTYLE
 70
     1
  0
DIMSTYLE
  2
STANDARD
 70
     0
  3

  4

  5

  6

  7

 40
1.0
 41
0.18
 42
0.0625
 43
0.38
 44
0.18
 45
0.0
 46
0.0
 47
0.0
 48
0.0
140
0.18
141
0.09
142
0.0
143
25.399999999999999
144
1.0
145
0.0
146
1.0
147
0.09
 71
     0
 72
     0
 73
     1
 74
     1
 75
     0
 76
     0
 77
     0
 78
     0
170
     0
171
     2
172
     0
173
     0
174
     0
175
     0
176
     0
177
     0
178
     0
  0
ENDTAB
  0
ENDSEC
  0
SECTION
  2
BLOCKS
  0
BLOCK
  8
0
  2
$MODEL_SPACE
 70
     0
 10
0.0
 20
0.0
 30
0.0
  3
$MODEL_SPACE
  1

  0
ENDBLK
  5
168
  8
0
  0
BLOCK
 67
     1
  8
0
  2
$PAPER_SPACE
 70
     0
 10
0.0
 20
0.0
 30
0.0
  3
$PAPER_SPACE
  1

  0
ENDBLK
  5
166
 67
     1
  8
0
  0
ENDSEC
  0
SECTION
  2
ENTITIES
  0
CIRCLE
  5
7B
  8
0
 10
50.0
 20
139.0
 30
0.0
 40
8.5
  0
LINE
  5
7C
  8
1
 10
50.0
 20
124.5
 30
0.0
 11
50.0
 21
153.5
 31
0.0
  0
LINE
  5
7D
  8
1
 10
64.5
 20
139.0
 30
0.0
 11
35.5
 21
139.0
 31
0.0
  0
ARC
  5
7E
  8
0
 10
50.0
 20
139.0
 30
0.0
 40
10.0
 50
333.19487200000009
 51
341.8051280000002
  0
ARC
  5
7F
  8
0
 10
50.0
 20
139.0
 30
0.0
 40
10.0
 50
288.19487199999992
 51
296.80512799999991
  0
ARC
  5
80
  8
0
 10
50.0
 20
139.0
 30
0.0
 40
10.0
 50
243.19487200000009
 51
251.80512800000011
  0
ARC
  5
81
  8
0
 10
50.0
 20
139.0
 30
0.0
 40
10.0
 50
198.1948719999998
 51
206.80512799999991
  0
ARC
  5
82
  8
0
 10
50.0
 20
139.0
 30
0.0
 40
10.0
 50
153.194872
 51
161.80512800000011
  0
ARC
  5
83
  8
0
 10
50.0
 20
139.0
 30
0.0
 40
10.0
 50
108.1948719999998
 51
116.8051279999999
  0
ARC
  5
84
  8
0
 10
50.0
 20
139.0
 30
0.0
 40
10.0
 50
63.194872000000068
 51
71.805128000000138
  0
ARC
  5
A5
  8
0
 10
50.0
 20
139.0
 30
0.0
 40
10.0
 50
18.194871999999869
 51
26.805127999999939
  0
CIRCLE
  5
AF
  8
0
 10
50.0
 20
139.0
 30
0.0
 40
5.0
  0
LINE
  5
199
  8
0
 10
55.0
 20
108.5
 30
0.0
 11
55.0
 21
105.40000000000001
 31
0.0
  0
LINE
  5
19A
  8
0
 10
54.5
 20
109.0
 30
0.0
 11
45.499999999999993
 21
109.0
 31
0.0
  0
LINE
  5
19B
  8
0
 10
59.5
 20
104.42265
 30
0.0
 11
59.5
 21
97.577349999999996
 31
0.0
  0
LINE
  5
19C
  8
0
 10
58.925454999999999
 20
104.42265
 30
0.0
 11
58.925454999999999
 21
97.577349999999996
 31
0.0
  0
LINE
  5
19D
  8
0
 10
54.509574000000001
 20
104.42265
 30
0.0
 11
54.509574000000001
 21
97.577349999999996
 31
0.0
  0
LINE
  5
19E
  8
0
 10
53.122499000000012
 20
104.42265
 30
0.0
 11
53.122499000000012
 21
97.577349999999996
 31
0.0
  0
LINE
  5
19F
  8
0
 10
58.5
 20
105.0
 30
0.0
 11
59.5
 21
104.42265
 31
0.0
  0
LINE
  5
1A0
  8
0
 10
59.5
 20
104.42265
 30
0.0
 11
58.925454999999999
 21
104.42265
 31
0.0
  0
LINE
  5
1A1
  8
0
 10
54.509574000000001
 20
104.42265
 30
0.0
 11
53.122499000000012
 21
104.42265
 31
0.0
  0
LINE
  5
1A2
  8
0
 10
46.877500999999988
 20
104.42265
 30
0.0
 11
46.877500999999988
 21
97.577349999999996
 31
0.0
  0
LINE
  5
1A3
  8
0
 10
54.509574000000001
 20
97.577349999999996
 30
0.0
 11
53.122499000000012
 21
97.577349999999996
 31
0.0
  0
LINE
  5
1A4
  8
0
 10
59.5
 20
97.577349999999996
 30
0.0
 11
58.925454999999999
 21
97.577349999999996
 31
0.0
  0
LINE
  5
1A5
  8
0
 10
58.5
 20
97.0
 30
0.0
 11
59.5
 21
97.577349999999996
 31
0.0
  0
LINE
  5
1A6
  8
0
 10
40.499999999999993
 20
97.577349999999996
 30
0.0
 11
41.074545000000001
 21
97.577349999999996
 31
0.0
  0
LINE
  5
1A7
  8
0
 10
45.490425999999992
 20
97.577349999999996
 30
0.0
 11
46.877500999999988
 21
97.577349999999996
 31
0.0
  0
LINE
  5
1A8
  8
0
 10
45.490425999999992
 20
104.42265
 30
0.0
 11
46.877500999999988
 21
104.42265
 31
0.0
  0
LINE
  5
1A9
  8
0
 10
40.499999999999993
 20
104.42265
 30
0.0
 11
41.074545000000001
 21
104.42265
 31
0.0
  0
LINE
  5
1AB
  8
0
 10
45.490425999999992
 20
104.42265
 30
0.0
 11
45.490425999999992
 21
97.577349999999996
 31
0.0
  0
LINE
  5
1AC
  8
0
 10
41.074545000000001
 20
104.42265
 30
0.0
 11
41.074545000000001
 21
97.577349999999996
 31
0.0
  0
LINE
  5
1AD
  8
0
 10
40.499999999999993
 20
104.42265
 30
0.0
 11
40.499999999999993
 21
97.577349999999996
 31
0.0
  0
LINE
  5
1AE
  8
0
 10
58.5
 20
105.0
 30
0.0
 11
41.5
 21
105.0
 31
0.0
  0
LINE
  5
1AF
  8
0
 10
53.5
 20
50.0
 30
0.0
 11
46.5
 21
50.0
 31
0.0
  0
LINE
  5
1B0
  8
0
 10
44.999999999999972
 20
96.0
 30
0.0
 11
44.999999999999993
 21
71.0
 31
0.0
  0
LINE
  5
1B1
  8
3
 10
45.811999999999991
 20
95.0
 30
0.0
 11
45.812000000000012
 21
71.0
 31
0.0
  0
LINE
  5
1B2
  8
3
 10
54.188000000000002
 20
95.0
 30
0.0
 11
54.187999999999988
 21
71.0
 31
0.0
  0
LINE
  5
1B3
  8
0
 10
55.0
 20
96.0
 30
0.0
 11
55.0
 21
71.0
 31
0.0
  0
LINE
  5
1B4
  8
0
 10
55.0
 20
51.5
 30
0.0
 11
53.5
 21
50.0
 31
0.0
  0
LINE
  5
1B5
  8
0
 10
46.5
 20
50.0
 30
0.0
 11
45.0
 21
51.5
 31
0.0
  0
LINE
  5
1B6
  8
0
 10
55.0
 20
95.0
 30
0.0
 11
45.0
 21
95.0
 31
0.0
  0
LINE
  5
1B9
  8
0
 10
55.0
 20
51.5
 30
0.0
 11
45.0
 21
51.5
 31
0.0
  0
LINE
  5
1BA
  8
0
 10
41.5
 20
97.0
 30
0.0
 11
58.5
 21
96.999999999999986
 31
0.0
  0
LINE
  5
1BD
  8
0
 10
41.5
 20
105.0
 30
0.0
 11
40.499999999999993
 21
104.42265
 31
0.0
  0
LINE
  5
1BE
  8
0
 10
41.5
 20
97.0
 30
0.0
 11
40.499999999999993
 21
97.577349999999996
 31
0.0
  0
ARC
  5
1BF
  8
0
 10
56.717513999999987
 20
98.528899999999993
 30
0.0
 40
6.2937500000000002
 50
69.462844000000302
 51
110.5371559999997
  0
ARC
  5
1C0
  8
0
 10
50.0
 20
92.435149999999993
 30
0.0
 40
12.387499999999999
 50
75.400049000000365
 51
104.59995099999961
  0
ARC
  5
1C1
  8
0
 10
56.717513999999987
 20
103.47110000000001
 30
0.0
 40
6.2937500000000002
 50
249.4628440000003
 51
290.5371559999997
  0
ARC
  5
1C2
  8
0
 10
50.0
 20
109.56485000000001
 30
0.0
 40
12.387499999999999
 50
255.40004900000031
 51
284.59995099999958
  0
ARC
  5
1C3
  8
0
 10
43.282486000000013
 20
103.47110000000001
 30
0.0
 40
6.2937500000000002
 50
249.4628440000003
 51
290.5371559999997
  0
ARC
  5
1C4
  8
0
 10
43.282486000000013
 20
98.528899999999993
 30
0.0
 40
6.2937500000000002
 50
69.462844000000302
 51
110.5371559999997
  0
LINE
  5
1C5
  8
1
 10
50.0
 20
114.0
 30
0.0
 11
50.0
 21
45.0
 31
0.0
  0
ARC
  5
1C6
  8
0
 10
55.399999999999999
 20
105.40000000000001
 30
0.0
 40
0.4
 50
180.0
 51
270.0
  0
ARC
  5
1C7
  8
0
 10
44.599999999999987
 20
105.40000000000001
 30
0.0
 40
0.4
 50
270.0
 51
0.0
  0
LINE
  5
1C8
  8
0
 10
45.0
 20
108.5
 30
0.0
 11
45.0
 21
105.40000000000001
 31
0.0
  0
LINE
  5
1C9
  8
0
 10
55.0
 20
108.5
 30
0.0
 11
54.5
 21
109.0
 31
0.0
  0
LINE
  5
1CA
  8
0
 10
45.499999999999993
 20
109.0
 30
0.0
 11
45.0
 21
108.5
 31
0.0
  0
ARC
  5
1D4
  8
0
 10
56.0
 20
96.0
 30
0.0
 40
1.0
 50
90.0
 51
180.0
  0
ARC
  5
1D5
  8
0
 10
43.999999999999972
 20
96.0
 30
0.0
 40
1.0
 50
0.0
 51
90.0
  0
TEXT
  5
288
  8
0
 62
     3
 10
0.0
 20
0.0
 30
0.0
 40
10.0
  1
BJ734-10002
  7
STANDARD1
  0
LINE
  5
2D0
  8
0
 10
54.509574000000001
 20
130.074545
 30
0.0
 11
58.925454999999999
 21
134.49042600000001
 31
0.0
  0
LINE
  5
2D3
  8
0
 10
59.5
 20
135.877501
 30
0.0
 11
59.5
 21
142.122499
 31
0.0
  0
LINE
  5
2D4
  8
0
 10
58.925454999999999
 20
143.50957399999999
 30
0.0
 11
54.509574000000001
 21
147.925455
 31
0.0
  0
LINE
  5
2D5
  8
0
 10
53.122499000000012
 20
148.5
 30
0.0
 11
46.877500999999988
 21
148.5
 31
0.0
  0
LINE
  5
2D6
  8
0
 10
45.490425999999992
 20
147.925455
 30
0.0
 11
41.074545000000001
 21
143.50957399999999
 31
0.0
  0
LINE
  5
2D7
  8
0
 10
40.499999999999993
 20
142.122499
 30
0.0
 11
40.499999999999993
 21
135.877501
 31
0.0
  0
LINE
  5
2D8
  8
0
 10
41.074545000000001
 20
134.49042600000001
 30
0.0
 11
45.490425999999992
 21
130.074545
 31
0.0
  0
LINE
  5
2D9
  8
0
 10
46.877500999999988
 20
129.5
 30
0.0
 11
53.122499000000012
 21
129.5
 31
0.0
  0
LINE
  5
2DA
  8
0
 10
58.25
 20
65.0
 30
0.0
 11
41.749999999999993
 21
65.0
 31
0.0
  0
LINE
  5
2DB
  8
0
 10
41.749999999999993
 20
71.0
 30
0.0
 11
58.25
 21
71.0
 31
0.0
  0
ARC
  5
2DC
  8
0
 10
57.361215999999999
 20
66.510763999999995
 30
0.0
 40
4.344898999999999
 50
64.384247000000116
 51
124.3842470000003
  0
LINE
  5
2DD
  8
0
 10
59.814954999999998
 20
70.096473000000003
 30
0.0
 11
58.25
 21
71.0
 31
0.0
  0
LINE
  5
2DE
  8
0
 10
59.814954999999998
 20
65.903526999999997
 30
0.0
 11
58.25
 21
65.0
 31
0.0
  0
ARC
  5
2DF
  8
0
 10
57.361215999999999
 20
69.489236000000005
 30
0.0
 40
4.344898999999999
 50
235.6157529999997
 51
295.61575299999993
  0
LINE
  5
2E0
  8
0
 10
59.814954999999998
 20
70.096473000000003
 30
0.0
 11
59.814954999999998
 21
65.903526999999997
 31
0.0
  0
LINE
  5
2E1
  8
0
 10
54.907477
 20
70.096473000000003
 30
0.0
 11
54.907477
 21
65.903526999999997
 31
0.0
  0
LINE
  5
2E2
  8
0
 10
45.092522999999993
 20
70.096473000000003
 30
0.0
 11
45.092522999999993
 21
65.903526999999997
 31
0.0
  0
LINE
  5
2E3
  8
0
 10
40.185045000000002
 20
70.096473000000003
 30
0.0
 11
40.185045000000002
 21
65.903526999999997
 31
0.0
  0
ARC
  5
2E4
  8
0
 10
50.0
 20
81.385148000000015
 30
0.0
 40
16.24081099999999
 50
252.41204600000009
 51
287.5879539999998
  0
ARC
  5
2E5
  8
0
 10
42.638784000000001
 20
69.489236000000005
 30
0.0
 40
4.344898999999999
 50
244.3842469999999
 51
304.3842470000003
  0
LINE
  5
2E6
  8
0
 10
40.185045000000002
 20
65.903526999999997
 30
0.0
 11
41.749999999999993
 21
65.0
 31
0.0
  0
LINE
  5
2E7
  8
0
 10
40.185045000000002
 20
70.096473000000003
 30
0.0
 11
41.749999999999993
 21
71.0
 31
0.0
  0
ARC
  5
2E8
  8
0
 10
50.0
 20
54.614851999999999
 30
0.0
 40
16.24081099999999
 50
72.41204600000016
 51
107.5879539999998
  0
ARC
  5
2E9
  8
0
 10
42.638784000000001
 20
66.510763999999995
 30
0.0
 40
4.344898999999999
 50
55.61575299999965
 51
115.6157529999999
  0
LINE
  5
2F2
  8
0
 10
55.0
 20
65.0
 30
0.0
 11
55.0
 21
51.5
 31
0.0
  0
LINE
  5
2F3
  8
3
 10
54.187999999999988
 20
65.0
 30
0.0
 11
54.188000000000002
 21
50.688000000000002
 31
0.0
  0
LINE
  5
2F4
  8
3
 10
45.812000000000012
 20
65.0
 30
0.0
 11
45.811999999999991
 21
50.688000000000002
 31
0.0
  0
LINE
  5
2F5
  8
0
 10
44.999999999999993
 20
65.0
 30
0.0
 11
45.0
 21
51.5
 31
0.0
  0
LINE
  5
318
  8
0
 10
40.499999999999993
 20
139.5455173280956
 30
0.0
 11
40.18504542377633
 21
138.99999999999989
 31
0.0
  0
LINE
  5
319
  8
0
 10
40.18504542377633
 20
138.99999999999989
 30
0.0
 11
40.499999999999993
 21
138.4544826719042
 31
0.0
  0
LINE
  5
31B
  8
0
 10
59.499999999999993
 20
138.4544826719044
 30
0.0
 11
59.814954576223549
 21
139.0
 31
0.0
  0
LINE
  5
31C
  8
0
 10
59.814954576223549
 20
139.0
 30
0.0
 11
59.499999999999993
 21
139.54551732809551
 31
0.0
  0
LINE
  5
408
  8
0
 10
55.0
 20
108.5
 30
0.0
 11
45.0
 21
108.5
 31
0.0
  0
LINE
  5
45D
  8
3
 10
54.188000000000102
 20
94.999999999999943
 30
0.0
 11
55.0
 21
96.406425255745717
 31
0.0
  0
LINE
  5
45E
  8
3
 10
45.811999999999898
 20
94.999999999999943
 30
0.0
 11
45.0
 21
96.406425255745717
 31
0.0
  0
ENDSEC
  0
EOF
