  0
SECTION
  2
HEADER
  9
$ACADVER
  1
AC1009
  9
$INSBASE
 10
0.0
 20
0.0
 30
0.0
  9
$EXTMIN
 10
0.0
 20
-2.960436562073669
 30
0.0
  9
$EXTMAX
 10
176.81272799999999
 20
90.932063999999997
 30
0.0
  9
$LIMMIN
 10
0.0
 20
0.0
  9
$LIMMAX
 10
187.5
 20
135.0
  9
$ORTHOMODE
 70
     1
  9
$REGENMODE
 70
     1
  9
$FILLMODE
 70
     1
  9
$QTEXTMODE
 70
     0
  9
$MIRRTEXT
 70
     0
  9
$DRAGMODE
 70
     2
  9
$LTSCALE
 40
10.0
  9
$OSMODE
 70
  3071
  9
$ATTMODE
 70
     1
  9
$TEXTSIZE
 40
0.2
  9
$TRACEWID
 40
0.05
  9
$TEXTSTYLE
  7
STANDARD
  9
$CLAYER
  8
0
  9
$CELTYPE
  6
BYLAYER
  9
$CECOLOR
 62
   256
  9
$DIMSCALE
 40
1.0
  9
$DIMASZ
 40
3.0
  9
$DIMEXO
 40
2.0
  9
$DIMDLI
 40
0.38
  9
$DIMRND
 40
0.0
  9
$DIMDLE
 40
0.0
  9
$DIMEXE
 40
2.0
  9
$DIMTP
 40
0.0
  9
$DIMTM
 40
0.0
  9
$DIMTXT
 40
3.2000000000000002
  9
$DIMCEN
 40
0.0
  9
$DIMTSZ
 40
0.0
  9
$DIMTOL
 70
     0
  9
$DIMLIM
 70
     0
  9
$DIMTIH
 70
     0
  9
$DIMTOH
 70
     0
  9
$DIMSE1
 70
     0
  9
$DIMSE2
 70
     0
  9
$DIMTAD
 70
     1
  9
$DIMZIN
 70
     0
  9
$DIMBLK
  1

  9
$DIMASO
 70
     0
  9
$DIMSHO
 70
     0
  9
$DIMPOST
  1

  9
$DIMAPOST
  1

  9
$DIMALT
 70
     0
  9
$DIMALTD
 70
     2
  9
$DIMALTF
 40
25.399999999999999
  9
$DIMLFAC
 40
1.0
  9
$DIMTOFL
 70
     1
  9
$DIMTVP
 40
1.6000000000000001
  9
$DIMTIX
 70
     1
  9
$DIMSOXD
 70
     0
  9
$DIMSAH
 70
     0
  9
$DIMBLK1
  1

  9
$DIMBLK2
  1

  9
$DIMSTYLE
  2
STANDARD
  9
$DIMCLRD
 70
     0
  9
$DIMCLRE
 70
     0
  9
$DIMCLRT
 70
     0
  9
$DIMTFAC
 40
1.0
  9
$DIMGAP
 40
0.09
  9
$LUNITS
 70
     2
  9
$LUPREC
 70
     4
  9
$SKETCHINC
 40
0.1
  9
$FILLETRAD
 40
0.0
  9
$AUNITS
 70
     0
  9
$AUPREC
 70
     4
  9
$MENU
  1
E:\r13\win\SUPPORT\ACAD
  9
$ELEVATION
 40
0.0
  9
$PELEVATION
 40
0.0
  9
$THICKNESS
 40
0.0
  9
$LIMCHECK
 70
     0
  9
$BLIPMODE
 70
     0
  9
$CHAMFERA
 40
0.0
  9
$CHAMFERB
 40
0.0
  9
$SKPOLY
 70
     0
  9
$TDCREATE
 40
2449839.7684375001
  9
$TDUPDATE
 40
2456597.6921109948
  9
$TDINDWG
 40
0.0012701852
  9
$TDUSRTIMER
 40
0.0012701852
  9
$USRTIMER
 70
     1
  9
$ANGBASE
 50
0.0
  9
$ANGDIR
 70
     0
  9
$PDMODE
 70
     0
  9
$PDSIZE
 40
0.0
  9
$PLINEWID
 40
0.0
  9
$COORDS
 70
     1
  9
$SPLFRAME
 70
     0
  9
$SPLINETYPE
 70
     6
  9
$SPLINESEGS
 70
     8
  9
$ATTDIA
 70
     0
  9
$ATTREQ
 70
     1
  9
$HANDLING
 70
     1
  9
$HANDSEED
  5
374
  9
$SURFTAB1
 70
     6
  9
$SURFTAB2
 70
     6
  9
$SURFTYPE
 70
     6
  9
$SURFU
 70
     6
  9
$SURFV
 70
     6
  9
$UCSNAME
  2

  9
$UCSORG
 10
0.0
 20
0.0
 30
0.0
  9
$UCSXDIR
 10
1.0
 20
0.0
 30
0.0
  9
$UCSYDIR
 10
0.0
 20
1.0
 30
0.0
  9
$PUCSNAME
  2

  9
$PUCSORG
 10
0.0
 20
0.0
 30
0.0
  9
$PUCSXDIR
 10
1.0
 20
0.0
 30
0.0
  9
$PUCSYDIR
 10
0.0
 20
1.0
 30
0.0
  9
$USERI1
 70
     3
  9
$USERI2
 70
     1
  9
$USERI3
 70
     1
  9
$USERI4
 70
     0
  9
$USERI5
 70
     0
  9
$USERR1
 40
0.0
  9
$USERR2
 40
0.0
  9
$USERR3
 40
0.0
  9
$USERR4
 40
0.0
  9
$USERR5
 40
0.0
  9
$WORLDVIEW
 70
     1
  9
$SHADEDGE
 70
     3
  9
$SHADEDIF
 70
    70
  9
$TILEMODE
 70
     1
  9
$MAXACTVP
 70
    16
  9
$PLIMCHECK
 70
     0
  9
$PEXTMIN
 10
1.0000000000000000E+020
 20
1.0000000000000000E+020
 30
1.0000000000000000E+020
  9
$PEXTMAX
 10
-1.0000000000000000E+020
 20
-1.0000000000000000E+020
 30
-1.0000000000000000E+020
  9
$PLIMMIN
 10
0.0
 20
0.0
  9
$PLIMMAX
 10
12.0
 20
9.0
  9
$UNITMODE
 70
     0
  9
$VISRETAIN
 70
     0
  9
$PLINEGEN
 70
     0
  9
$PSLTSCALE
 70
     0
  0
ENDSEC
  0
SECTION
  2
TABLES
  0
TABLE
  2
VPORT
 70
     1
  0
VPORT
  2
*ACTIVE
 70
     0
 10
0.0
 20
0.0
 11
1.0
 21
1.0
 12
97.570150770051072
 22
66.014785922033241
 13
0.0
 23
0.0
 14
10.0
 24
10.0
 15
10.0
 25
10.0
 16
0.0
 26
0.0
 36
1.0
 17
0.0
 27
0.0
 37
0.0
 40
139.20783109903601
 41
1.831871345029239
 42
50.0
 43
0.0
 44
0.0
 50
0.0
 51
0.0
 71
     0
 72
   100
 73
     1
 74
     0
 75
     0
 76
     0
 77
     0
 78
     2
  0
ENDTAB
  0
TABLE
  2
LTYPE
 70
     3
  0
LTYPE
  2
CONTINUOUS
 70
     0
  3
Solid Line
 72
    65
 73
     0
 40
0.0
  0
LTYPE
  2
CENTER
 70
     0
  3
____ _ ____ _ ____ _ ____ _ ____ _ ____ _ ____
 72
    65
 73
     4
 40
2.0
 49
1.25
 49
-0.25
 49
0.25
 49
-0.25
  0
LTYPE
  2
PHANTOM2
 70
     0
  3
___ _ _ ___ _ _ ___ _ _ ___ _ _
 72
    65
 73
     6
 40
1.25
 49
0.625
 49
-0.125
 49
0.125
 49
-0.125
 49
0.125
 49
-0.125
  0
ENDTAB
  0
TABLE
  2
LAYER
 70
     3
  0
LAYER
  2
0
 70
     0
 62
     7
  6
CONTINUOUS
  0
LAYER
  2
1
 70
     0
 62
     1
  6
CENTER
  0
LAYER
  2
3
 70
     0
 62
     3
  6
CONTINUOUS
  0
ENDTAB
  0
TABLE
  2
STYLE
 70
     2
  0
STYLE
  2
STANDARD
 70
     0
 40
0.0
 41
1.0
 50
0.0
 71
     0
 42
0.2
  3
TXT
  4
BIGFONT
  0
STYLE
  2
STANDARD1
 70
     0
 40
0.0
 41
1.0
 50
0.0
 71
     0
 42
3.0
  3
txt
  4

  0
ENDTAB
  0
TABLE
  2
VIEW
 70
     1
  0
VIEW
  2
ALL
 70
     0
 40
179.538466
 10
135.0
 20
89.769233000000014
 41
0.0
 11
0.0
 21
0.0
 31
1.0
 12
0.0
 22
0.0
 32
0.0
 42
0.0
 43
0.0
 44
0.0
 50
0.0
 71
     0
  0
ENDTAB
  0
TABLE
  2
UCS
 70
     0
  0
ENDTAB
  0
TABLE
  2
APPID
 70
     3
  0
APPID
  2
ACAD
 70
     0
  0
APPID
  2
ACAD_MLEADERVER
 70
     0
  0
APPID
  2
ACAD_NAV_VCDISPLAY
 70
     0
  0
ENDTAB
  0
TABLE
  2
DIMSTYLE
 70
     1
  0
DIMSTYLE
  2
STANDARD
 70
     0
  3

  4

  5

  6

  7

 40
1.0
 41
0.18
 42
0.0625
 43
0.38
 44
0.18
 45
0.0
 46
0.0
 47
0.0
 48
0.0
140
0.18
141
0.09
142
0.0
143
25.399999999999999
144
1.0
145
0.0
146
1.0
147
0.09
 71
     0
 72
     0
 73
     1
 74
     1
 75
     0
 76
     0
 77
     0
 78
     0
170
     0
171
     2
172
     0
173
     0
174
     0
175
     0
176
     0
177
     0
178
     0
  0
ENDTAB
  0
ENDSEC
  0
SECTION
  2
BLOCKS
  0
BLOCK
  8
0
  2
$MODEL_SPACE
 70
     0
 10
0.0
 20
0.0
 30
0.0
  3
$MODEL_SPACE
  1

  0
ENDBLK
  5
22A
  8
0
  0
BLOCK
 67
     1
  8
0
  2
$PAPER_SPACE
 70
     0
 10
0.0
 20
0.0
 30
0.0
  3
$PAPER_SPACE
  1

  0
ENDBLK
  5
228
 67
     1
  8
0
  0
BLOCK
  8
0
  2
STDGX5
 70
     0
 10
0.0
 20
0.0
 30
0.0
  3
STDGX5
  1

  0
ENDBLK
  5
4B
  8
0
  0
BLOCK
  8
0
  2
732D55C2
 70
     0
 10
249.561215
 20
63.676901000000001
 30
0.0
  3
732D55C2
  1

  0
LINE
  5
DB
  8
0
 10
240.92168699999999
 20
49.820483000000003
 30
0.0
 11
248.20074299999999
 21
49.820483000000003
 31
0.0
  0
LINE
  5
DC
  8
0
 10
240.92168699999999
 20
70.594390000000004
 30
0.0
 11
248.20074299999999
 21
70.594390000000004
 31
0.0
  0
LINE
  5
DD
  8
0
 10
240.92168699999999
 20
56.759390000000003
 30
0.0
 11
248.20074299999999
 21
56.759390000000003
 31
0.0
  0
LINE
  5
DE
  8
0
 10
240.92168699999999
 20
77.533295999999993
 30
0.0
 11
248.20074299999999
 21
77.533295999999993
 31
0.0
  0
LINE
  5
DF
  8
0
 10
249.561215
 20
75.17689
 30
0.0
 11
248.20074299999999
 21
77.533295999999993
 31
0.0
  0
LINE
  5
E0
  8
0
 10
249.561215
 20
52.17689
 30
0.0
 11
248.20074299999999
 21
49.820483000000003
 31
0.0
  0
LINE
  5
E1
  8
0
 10
249.561215
 20
75.17689
 30
0.0
 11
249.561215
 21
52.17689
 31
0.0
  0
ARC
  5
E2
  8
0
 10
244.470744
 20
74.069194999999993
 30
0.0
 40
5.0904699999999989
 50
42.883288
 51
42.883288
  0
ARC
  5
E3
  8
0
 10
244.45711600000001
 20
53.289937000000002
 30
0.0
 40
5.1041009999999991
 50
342.82319899999999
 51
42.823199000000002
  0
ARC
  5
E4
  8
0
 10
231.29450499999999
 20
63.67689
 30
0.0
 40
18.266708999999999
 50
337.7471680000001
 51
22.252832000000001
  0
ARC
  5
E5
  8
0
 10
244.470744
 20
74.069194999999993
 30
0.0
 40
5.0904699999999989
 50
317.11671200000001
 51
17.116712
  0
ARC
  5
E6
  8
0
 10
244.65168499999999
 20
74.069194999999993
 30
0.0
 40
5.0904699999999989
 50
162.88328799999999
 51
222.88328799999999
  0
ARC
  5
E7
  8
0
 10
257.827924
 20
63.67689
 30
0.0
 40
18.266708999999999
 50
157.74716799999999
 51
202.25283200000001
  0
ARC
  5
E8
  8
0
 10
244.665314
 20
53.289937000000002
 30
0.0
 40
5.1041009999999991
 50
137.17680100000001
 51
197.17680100000001
  0
ARC
  5
E9
  8
0
 10
244.65168499999999
 20
74.069194999999993
 30
0.0
 40
5.0904699999999989
 50
137.11671200000001
 51
137.11671200000001
  0
LINE
  5
EA
  8
0
 10
239.561215
 20
75.17689
 30
0.0
 11
239.561215
 21
52.17689
 31
0.0
  0
LINE
  5
EB
  8
0
 10
239.561215
 20
52.17689
 30
0.0
 11
240.92168699999999
 21
49.820483000000003
 31
0.0
  0
LINE
  5
EC
  8
0
 10
239.561215
 20
75.17689
 30
0.0
 11
240.92168699999999
 21
77.533295999999993
 31
0.0
  0
ENDBLK
  5
ED
  8
0
  0
BLOCK
  8
0
  2
B732118A
 70
     0
 10
0.0
 20
0.0
 30
0.0
  3
B732118A
  1

  0
LINE
  5
EF
  8
1
 10
-17.5
 20
0.0
 30
0.0
 11
17.5
 21
0.0
 31
0.0
  0
LINE
  5
F0
  8
1
 10
0.0
 20
17.5
 30
0.0
 11
0.0
 21
-17.5
 31
0.0
  0
LINE
  5
F1
  8
0
 10
0.0
 20
-13.856406
 30
0.0
 11
12.0
 21
-6.928202999999999
 31
0.0
  0
LINE
  5
F2
  8
0
 10
-12.0
 20
-6.928202999999999
 30
0.0
 11
0.0
 21
-13.856406
 31
0.0
  0
LINE
  5
F3
  8
0
 10
-12.0
 20
6.928202999999999
 30
0.0
 11
-12.0
 21
-6.928202999999999
 31
0.0
  0
LINE
  5
F4
  8
0
 10
0.0
 20
13.856406
 30
0.0
 11
-12.0
 21
6.928202999999999
 31
0.0
  0
LINE
  5
F5
  8
0
 10
12.0
 20
6.928202999999999
 30
0.0
 11
0.0
 21
13.856406
 31
0.0
  0
LINE
  5
F6
  8
0
 10
12.0
 20
-6.928202999999999
 30
0.0
 11
12.0
 21
6.928202999999999
 31
0.0
  0
ENDBLK
  5
F7
  8
0
  0
ENDSEC
  0
SECTION
  2
ENTITIES
  0
INSERT
  5
101
  8
0
  2
STDGX5
 10
0.0
 20
0.0
 30
0.0
  0
INSERT
  5
102
  8
0
  2
STDGX5
 10
0.0
 20
0.0
 30
0.0
  0
INSERT
  5
105
  8
0
  2
732D55C2
 10
128.20554999999999
 20
73.432063999999997
 30
0.0
  0
LINE
  5
106
  8
1
 10
76.812728000000007
 20
73.432063999999997
 30
0.0
 11
176.81272799999999
 21
73.432063999999997
 31
0.0
  0
LINE
  5
107
  8
0
 10
92.212727999999984
 20
65.432063999999997
 30
0.0
 11
164.81272799999999
 21
65.432063999999997
 31
0.0
  0
LINE
  5
108
  8
0
 10
92.212727999999984
 20
81.432063999999997
 30
0.0
 11
164.81272799999999
 21
81.432063999999997
 31
0.0
  0
LINE
  5
109
  8
0
 10
93.812728000000007
 20
81.432063999999997
 30
0.0
 11
93.812728000000007
 21
65.432063999999997
 31
0.0
  0
LINE
  5
10A
  8
0
 10
164.81272799999999
 20
81.432063999999997
 30
0.0
 11
164.81272799999999
 21
65.432063999999997
 31
0.0
  0
LINE
  5
10B
  8
0
 10
166.81272799999999
 20
79.432063999999997
 30
0.0
 11
166.81272799999999
 21
67.432063999999997
 31
0.0
  0
LINE
  5
10C
  8
0
 10
164.81272799999999
 20
65.432063999999997
 30
0.0
 11
166.81272799999999
 21
67.432063999999997
 31
0.0
  0
LINE
  5
10D
  8
3
 10
165.895228
 20
66.514563999999993
 30
0.0
 11
93.812728000000007
 21
66.514563999999993
 31
0.0
  0
LINE
  5
10E
  8
3
 10
93.812728000000007
 20
66.514563999999993
 30
0.0
 11
91.937782999999996
 21
65.432063999999997
 31
0.0
  0
LINE
  5
10F
  8
3
 10
93.812728000000007
 20
80.349564000000001
 30
0.0
 11
91.937782999999996
 21
81.432063999999997
 31
0.0
  0
LINE
  5
110
  8
3
 10
165.895228
 20
80.349564000000001
 30
0.0
 11
93.812728000000007
 21
80.349564000000001
 31
0.0
  0
LINE
  5
111
  8
0
 10
164.81272799999999
 20
81.432063999999997
 30
0.0
 11
166.81272799999999
 21
79.432063999999997
 31
0.0
  0
LINE
  5
112
  8
0
 10
84.672409999999985
 20
66.503860000000003
 30
0.0
 11
91.812728000000007
 21
66.503860000000003
 31
0.0
  0
LINE
  5
113
  8
0
 10
84.672409999999985
 20
80.360266999999993
 30
0.0
 11
91.812728000000007
 21
80.360266999999993
 31
0.0
  0
LINE
  5
114
  8
0
 10
91.812728000000007
 20
59.575656999999993
 30
0.0
 11
84.672409999999985
 21
59.575656999999993
 31
0.0
  0
LINE
  5
115
  8
0
 10
91.812728000000007
 20
87.288470000000004
 30
0.0
 11
91.812728000000007
 21
59.575656999999993
 31
0.0
  0
LINE
  5
116
  8
0
 10
84.672409999999985
 20
87.288470000000004
 30
0.0
 11
91.812728000000007
 21
87.288470000000004
 31
0.0
  0
ARC
  5
117
  8
0
 10
88.714785000000006
 20
83.824369000000004
 30
0.0
 40
5.3236069999999991
 50
179.9999709999999
 51
220.59483399999999
  0
ARC
  5
118
  8
0
 10
102.81272800000001
 20
73.432063999999997
 30
0.0
 40
19.418319
 50
159.09699599999999
 51
200.90300400000001
  0
ARC
  5
119
  8
0
 10
88.714785000000006
 20
83.824369000000004
 30
0.0
 40
5.3236069999999991
 50
139.40516600000001
 51
139.40516600000001
  0
ARC
  5
11A
  8
0
 10
88.714095
 20
63.039758999999997
 30
0.0
 40
5.3230829999999996
 50
139.40033500000001
 51
179.99425400000001
  0
ARC
  5
11B
  8
0
 10
116.81272800000001
 20
73.432063999999997
 30
0.0
 40
35.0
 50
156.67805000000001
 51
203.32194999999999
  0
ARC
  5
11C
  8
0
 10
92.212727999999984
 20
81.832064000000017
 30
0.0
 40
0.4
 50
180.0
 51
270.0
  0
ARC
  5
11D
  8
0
 10
92.212727999999984
 20
65.032064000000005
 30
0.0
 40
0.4
 50
90.0
 51
180.0
  0
INSERT
  5
11E
  8
0
  2
B732118A
 10
41.632709999999989
 20
73.432063999999997
 30
0.0
  0
INSERT
  5
11F
  8
0
  2
STDGX5
 10
0.0
 20
0.0
 30
0.0
  0
TEXT
  5
2E3
  8
0
 62
     3
 10
0.0
 20
0.0
 30
0.0
 40
10.0
  1
BJ732-16075
  7
STANDARD1
  0
ENDSEC
  0
EOF
