  0
SECTION
  2
HEADER
  9
$ACADVER
  1
AC1009
  9
$INSBASE
 10
0.0
 20
0.0
 30
0.0
  9
$EXTMIN
 10
0.0
 20
-2.960436562073669
 30
0.0
  9
$EXTMAX
 10
169.01555500000001
 20
90.451082999999997
 30
0.0
  9
$LIMMIN
 10
0.0
 20
0.0
  9
$LIMMAX
 10
187.5
 20
135.0
  9
$ORTHOMODE
 70
     1
  9
$REGENMODE
 70
     1
  9
$FILLMODE
 70
     1
  9
$QTEXTMODE
 70
     0
  9
$MIRRTEXT
 70
     0
  9
$DRAGMODE
 70
     2
  9
$LTSCALE
 40
10.0
  9
$OSMODE
 70
  3071
  9
$ATTMODE
 70
     1
  9
$TEXTSIZE
 40
0.2
  9
$TRACEWID
 40
0.05
  9
$TEXTSTYLE
  7
STANDARD
  9
$CLAYER
  8
0
  9
$CELTYPE
  6
BYLAYER
  9
$CECOLOR
 62
   256
  9
$DIMSCALE
 40
1.0
  9
$DIMASZ
 40
3.0
  9
$DIMEXO
 40
2.0
  9
$DIMDLI
 40
0.38
  9
$DIMRND
 40
0.0
  9
$DIMDLE
 40
0.0
  9
$DIMEXE
 40
2.0
  9
$DIMTP
 40
0.0
  9
$DIMTM
 40
0.0
  9
$DIMTXT
 40
3.2000000000000002
  9
$DIMCEN
 40
0.0
  9
$DIMTSZ
 40
0.0
  9
$DIMTOL
 70
     0
  9
$DIMLIM
 70
     0
  9
$DIMTIH
 70
     0
  9
$DIMTOH
 70
     0
  9
$DIMSE1
 70
     0
  9
$DIMSE2
 70
     0
  9
$DIMTAD
 70
     1
  9
$DIMZIN
 70
     0
  9
$DIMBLK
  1

  9
$DIMASO
 70
     0
  9
$DIMSHO
 70
     0
  9
$DIMPOST
  1

  9
$DIMAPOST
  1

  9
$DIMALT
 70
     0
  9
$DIMALTD
 70
     2
  9
$DIMALTF
 40
25.399999999999999
  9
$DIMLFAC
 40
1.0
  9
$DIMTOFL
 70
     1
  9
$DIMTVP
 40
1.6000000000000001
  9
$DIMTIX
 70
     1
  9
$DIMSOXD
 70
     0
  9
$DIMSAH
 70
     0
  9
$DIMBLK1
  1

  9
$DIMBLK2
  1

  9
$DIMSTYLE
  2
STANDARD
  9
$DIMCLRD
 70
     0
  9
$DIMCLRE
 70
     0
  9
$DIMCLRT
 70
     0
  9
$DIMTFAC
 40
1.0
  9
$DIMGAP
 40
0.09
  9
$LUNITS
 70
     2
  9
$LUPREC
 70
     4
  9
$SKETCHINC
 40
0.1
  9
$FILLETRAD
 40
0.0
  9
$AUNITS
 70
     0
  9
$AUPREC
 70
     4
  9
$MENU
  1
E:\r13\win\SUPPORT\ACAD
  9
$ELEVATION
 40
0.0
  9
$PELEVATION
 40
0.0
  9
$THICKNESS
 40
0.0
  9
$LIMCHECK
 70
     0
  9
$BLIPMODE
 70
     0
  9
$CHAMFERA
 40
0.0
  9
$CHAMFERB
 40
0.0
  9
$SKPOLY
 70
     0
  9
$TDCREATE
 40
2449839.768344908
  9
$TDUPDATE
 40
2456597.691928206
  9
$TDINDWG
 40
0.0017257755
  9
$TDUSRTIMER
 40
0.0017257755
  9
$USRTIMER
 70
     1
  9
$ANGBASE
 50
0.0
  9
$ANGDIR
 70
     0
  9
$PDMODE
 70
     0
  9
$PDSIZE
 40
0.0
  9
$PLINEWID
 40
0.0
  9
$COORDS
 70
     1
  9
$SPLFRAME
 70
     0
  9
$SPLINETYPE
 70
     6
  9
$SPLINESEGS
 70
     8
  9
$ATTDIA
 70
     0
  9
$ATTREQ
 70
     1
  9
$HANDLING
 70
     1
  9
$HANDSEED
  5
326
  9
$SURFTAB1
 70
     6
  9
$SURFTAB2
 70
     6
  9
$SURFTYPE
 70
     6
  9
$SURFU
 70
     6
  9
$SURFV
 70
     6
  9
$UCSNAME
  2

  9
$UCSORG
 10
0.0
 20
0.0
 30
0.0
  9
$UCSXDIR
 10
1.0
 20
0.0
 30
0.0
  9
$UCSYDIR
 10
0.0
 20
1.0
 30
0.0
  9
$PUCSNAME
  2

  9
$PUCSORG
 10
0.0
 20
0.0
 30
0.0
  9
$PUCSXDIR
 10
1.0
 20
0.0
 30
0.0
  9
$PUCSYDIR
 10
0.0
 20
1.0
 30
0.0
  9
$USERI1
 70
     3
  9
$USERI2
 70
     1
  9
$USERI3
 70
     1
  9
$USERI4
 70
     0
  9
$USERI5
 70
     0
  9
$USERR1
 40
0.0
  9
$USERR2
 40
0.0
  9
$USERR3
 40
0.0
  9
$USERR4
 40
0.0
  9
$USERR5
 40
0.0
  9
$WORLDVIEW
 70
     1
  9
$SHADEDGE
 70
     3
  9
$SHADEDIF
 70
    70
  9
$TILEMODE
 70
     1
  9
$MAXACTVP
 70
    16
  9
$PLIMCHECK
 70
     0
  9
$PEXTMIN
 10
1.0000000000000000E+020
 20
1.0000000000000000E+020
 30
1.0000000000000000E+020
  9
$PEXTMAX
 10
-1.0000000000000000E+020
 20
-1.0000000000000000E+020
 30
-1.0000000000000000E+020
  9
$PLIMMIN
 10
0.0
 20
0.0
  9
$PLIMMAX
 10
12.0
 20
9.0
  9
$UNITMODE
 70
     0
  9
$VISRETAIN
 70
     0
  9
$PLINEGEN
 70
     0
  9
$PSLTSCALE
 70
     0
  0
ENDSEC
  0
SECTION
  2
TABLES
  0
TABLE
  2
VPORT
 70
     1
  0
VPORT
  2
*ACTIVE
 70
     0
 10
0.0
 20
0.0
 11
1.0
 21
1.0
 12
97.570150770051072
 22
66.014785922033241
 13
0.0
 23
0.0
 14
10.0
 24
10.0
 15
10.0
 25
10.0
 16
0.0
 26
0.0
 36
1.0
 17
0.0
 27
0.0
 37
0.0
 40
139.20783109903601
 41
1.831871345029239
 42
50.0
 43
0.0
 44
0.0
 50
0.0
 51
0.0
 71
     0
 72
   100
 73
     1
 74
     0
 75
     0
 76
     0
 77
     0
 78
     2
  0
ENDTAB
  0
TABLE
  2
LTYPE
 70
     3
  0
LTYPE
  2
CONTINUOUS
 70
     0
  3
Solid Line
 72
    65
 73
     0
 40
0.0
  0
LTYPE
  2
CENTER
 70
     0
  3
____ _ ____ _ ____ _ ____ _ ____ _ ____ _ ____
 72
    65
 73
     4
 40
2.0
 49
1.25
 49
-0.25
 49
0.25
 49
-0.25
  0
LTYPE
  2
PHANTOM2
 70
     0
  3
___ _ _ ___ _ _ ___ _ _ ___ _ _
 72
    65
 73
     6
 40
1.25
 49
0.625
 49
-0.125
 49
0.125
 49
-0.125
 49
0.125
 49
-0.125
  0
ENDTAB
  0
TABLE
  2
LAYER
 70
     3
  0
LAYER
  2
0
 70
     0
 62
     7
  6
CONTINUOUS
  0
LAYER
  2
1
 70
     0
 62
     1
  6
CENTER
  0
LAYER
  2
3
 70
     0
 62
     3
  6
CONTINUOUS
  0
ENDTAB
  0
TABLE
  2
STYLE
 70
     2
  0
STYLE
  2
STANDARD
 70
     0
 40
0.0
 41
1.0
 50
0.0
 71
     0
 42
0.2
  3
TXT
  4
BIGFONT
  0
STYLE
  2
STANDARD1
 70
     0
 40
0.0
 41
1.0
 50
0.0
 71
     0
 42
3.0
  3
txt
  4

  0
ENDTAB
  0
TABLE
  2
VIEW
 70
     1
  0
VIEW
  2
ALL
 70
     0
 40
179.538466
 10
135.0
 20
89.769233000000014
 41
0.0
 11
0.0
 21
0.0
 31
1.0
 12
0.0
 22
0.0
 32
0.0
 42
0.0
 43
0.0
 44
0.0
 50
0.0
 71
     0
  0
ENDTAB
  0
TABLE
  2
UCS
 70
     0
  0
ENDTAB
  0
TABLE
  2
APPID
 70
     3
  0
APPID
  2
ACAD
 70
     0
  0
APPID
  2
ACAD_MLEADERVER
 70
     0
  0
APPID
  2
ACAD_NAV_VCDISPLAY
 70
     0
  0
ENDTAB
  0
TABLE
  2
DIMSTYLE
 70
     1
  0
DIMSTYLE
  2
STANDARD
 70
     0
  3

  4

  5

  6

  7

 40
1.0
 41
0.18
 42
0.0625
 43
0.38
 44
0.18
 45
0.0
 46
0.0
 47
0.0
 48
0.0
140
0.18
141
0.09
142
0.0
143
25.399999999999999
144
1.0
145
0.0
146
1.0
147
0.09
 71
     0
 72
     0
 73
     1
 74
     1
 75
     0
 76
     0
 77
     0
 78
     0
170
     0
171
     2
172
     0
173
     0
174
     0
175
     0
176
     0
177
     0
178
     0
  0
ENDTAB
  0
ENDSEC
  0
SECTION
  2
BLOCKS
  0
BLOCK
  8
0
  2
$MODEL_SPACE
 70
     0
 10
0.0
 20
0.0
 30
0.0
  3
$MODEL_SPACE
  1

  0
ENDBLK
  5
1DC
  8
0
  0
BLOCK
 67
     1
  8
0
  2
$PAPER_SPACE
 70
     0
 10
0.0
 20
0.0
 30
0.0
  3
$PAPER_SPACE
  1

  0
ENDBLK
  5
1DA
 67
     1
  8
0
  0
BLOCK
  8
0
  2
STDGX5
 70
     0
 10
0.0
 20
0.0
 30
0.0
  3
STDGX5
  1

  0
ENDBLK
  5
47
  8
0
  0
BLOCK
  8
0
  2
B732018A
 70
     0
 10
0.0
 20
0.0
 30
0.0
  3
B732018A
  1

  0
LINE
  5
7A
  8
1
 10
-15.0
 20
0.0
 30
0.0
 11
15.0
 21
0.0
 31
0.0
  0
LINE
  5
7B
  8
1
 10
0.0
 20
15.0
 30
0.0
 11
0.0
 21
-15.0
 31
0.0
  0
LINE
  5
7C
  8
0
 10
0.0
 20
-10.969654999999999
 30
0.0
 11
9.5
 21
-5.4848280000000003
 31
0.0
  0
LINE
  5
7D
  8
0
 10
-9.5
 20
-5.4848280000000003
 30
0.0
 11
0.0
 21
-10.969654999999999
 31
0.0
  0
LINE
  5
7E
  8
0
 10
-9.5
 20
5.4848280000000003
 30
0.0
 11
-9.5
 21
-5.4848280000000003
 31
0.0
  0
LINE
  5
7F
  8
0
 10
0.0
 20
10.969654999999999
 30
0.0
 11
-9.5
 21
5.4848280000000003
 31
0.0
  0
LINE
  5
80
  8
0
 10
9.5
 20
5.4848280000000003
 30
0.0
 11
0.0
 21
10.969654999999999
 31
0.0
  0
LINE
  5
81
  8
0
 10
9.5
 20
-5.4848280000000003
 30
0.0
 11
9.5
 21
5.4848280000000003
 31
0.0
  0
ENDBLK
  5
82
  8
0
  0
BLOCK
  8
0
  2
732C50C2
 70
     0
 10
258.63176199999998
 20
45.001320999999997
 30
0.0
  3
732C50C2
  1

  0
LINE
  5
A3
  8
0
 10
258.63176199999998
 20
54.00133499999999
 30
0.0
 11
257.49458099999998
 21
55.97099
 31
0.0
  0
LINE
  5
A4
  8
0
 10
258.63176199999998
 20
36.001334999999997
 30
0.0
 11
257.49458099999998
 21
34.031678999999997
 31
0.0
  0
LINE
  5
A5
  8
0
 10
258.63176199999998
 20
54.00133499999999
 30
0.0
 11
258.63176199999998
 21
36.001334999999997
 31
0.0
  0
ARC
  5
A6
  8
0
 10
254.756383
 20
36.774093000000001
 30
0.0
 40
3.8753790000000001
 50
314.95592699999997
 51
314.95592699999997
  0
ARC
  5
A7
  8
0
 10
244.836018
 20
45.00133499999999
 30
0.0
 40
13.795743999999999
 50
336.57340199999999
 51
23.426597999999998
  0
ARC
  5
A8
  8
0
 10
254.756383
 20
53.228575999999997
 30
0.0
 40
3.8753790000000001
 50
314.95592699999997
 51
14.955927000000001
  0
ARC
  5
A9
  8
0
 10
254.756383
 20
53.228575999999997
 30
0.0
 40
3.8753790000000001
 50
45.04407299999999
 51
45.04407299999999
  0
ARC
  5
AA
  8
0
 10
254.756383
 20
36.774093000000001
 30
0.0
 40
3.8753790000000001
 50
345.04407300000003
 51
45.04407299999999
  0
ARC
  5
AB
  8
0
 10
255.50714099999999
 20
36.774093000000001
 30
0.0
 40
3.8753790000000001
 50
134.955927
 51
194.955927
  0
ARC
  5
AC
  8
0
 10
255.50714099999999
 20
53.228575999999997
 30
0.0
 40
3.8753790000000001
 50
134.955927
 51
134.955927
  0
ARC
  5
AD
  8
0
 10
255.50714099999999
 20
53.228575999999997
 30
0.0
 40
3.8753790000000001
 50
165.044073
 51
225.044073
  0
ARC
  5
AE
  8
0
 10
265.42750599999999
 20
45.00133499999999
 30
0.0
 40
13.795743999999999
 50
156.57340199999999
 51
203.42659800000001
  0
ARC
  5
AF
  8
0
 10
255.50714099999999
 20
36.774093000000001
 30
0.0
 40
3.8753790000000001
 50
225.044073
 51
225.044073
  0
LINE
  5
B0
  8
0
 10
251.63176200000001
 20
54.00133499999999
 30
0.0
 11
251.63176200000001
 21
36.001334999999997
 31
0.0
  0
LINE
  5
B1
  8
0
 10
251.63176200000001
 20
36.001334999999997
 30
0.0
 11
252.76894300000001
 21
34.031678999999997
 31
0.0
  0
LINE
  5
B2
  8
0
 10
251.63176200000001
 20
54.00133499999999
 30
0.0
 11
252.76894300000001
 21
55.97099
 31
0.0
  0
LINE
  5
B3
  8
0
 10
252.76894300000001
 20
55.97099
 30
0.0
 11
257.49458099999998
 21
55.97099
 31
0.0
  0
LINE
  5
B4
  8
0
 10
252.76894300000001
 20
50.486162
 30
0.0
 11
257.49458099999998
 21
50.486162
 31
0.0
  0
LINE
  5
B5
  8
0
 10
257.49458099999998
 20
39.516506999999997
 30
0.0
 11
252.76894300000001
 21
39.516506999999997
 31
0.0
  0
LINE
  5
B6
  8
0
 10
257.49458099999998
 20
34.031678999999997
 30
0.0
 11
252.76894300000001
 21
34.031678999999997
 31
0.0
  0
ENDBLK
  5
B7
  8
0
  0
ENDSEC
  0
SECTION
  2
ENTITIES
  0
INSERT
  5
C1
  8
0
  2
STDGX5
 10
0.0
 20
0.0
 30
0.0
  0
INSERT
  5
C3
  8
0
  2
732C50C2
 10
129.51550599999999
 20
75.451082999999997
 30
0.0
  0
LINE
  5
C4
  8
1
 10
89.515506000000002
 20
75.451082999999997
 30
0.0
 11
169.01555500000001
 21
75.451082999999997
 31
0.0
  0
ARC
  5
C5
  8
0
 10
104.91550599999999
 20
81.851083000000017
 30
0.0
 40
0.4
 50
180.0
 51
270.0
  0
ARC
  5
C6
  8
0
 10
104.91550599999999
 20
69.051082999999991
 30
0.0
 40
0.4
 50
90.0
 51
180.0
  0
LINE
  5
C7
  8
3
 10
106.515506
 20
80.504082999999994
 30
0.0
 11
163.46255500000001
 21
80.504082999999994
 31
0.0
  0
LINE
  5
C8
  8
0
 10
104.91550599999999
 20
81.451082999999997
 30
0.0
 11
162.51555500000001
 21
81.451082999999997
 31
0.0
  0
LINE
  5
C9
  8
3
 10
106.515506
 20
80.504082999999994
 30
0.0
 11
104.875253
 21
81.451082999999997
 31
0.0
  0
LINE
  5
CA
  8
3
 10
106.515506
 20
70.398083
 30
0.0
 11
104.875253
 21
69.451082999999997
 31
0.0
  0
LINE
  5
CB
  8
3
 10
163.46255500000001
 20
70.398083
 30
0.0
 11
106.515506
 21
70.398083
 31
0.0
  0
LINE
  5
CC
  8
0
 10
162.51555500000001
 20
81.451082999999997
 30
0.0
 11
162.51555500000001
 21
69.451082999999997
 31
0.0
  0
LINE
  5
CD
  8
0
 10
106.515506
 20
81.451082999999997
 30
0.0
 11
106.515506
 21
69.451082999999997
 31
0.0
  0
LINE
  5
CE
  8
0
 10
162.51555500000001
 20
69.451082999999997
 30
0.0
 11
104.91550599999999
 21
69.451082999999997
 31
0.0
  0
LINE
  5
CF
  8
0
 10
164.51555500000001
 20
71.451082999999997
 30
0.0
 11
162.51555500000001
 21
69.451082999999997
 31
0.0
  0
LINE
  5
D0
  8
0
 10
164.51555500000001
 20
79.451082999999997
 30
0.0
 11
164.51555500000001
 21
71.451082999999997
 31
0.0
  0
LINE
  5
D1
  8
0
 10
162.51555500000001
 20
81.451082999999997
 30
0.0
 11
164.51555500000001
 21
79.451082999999997
 31
0.0
  0
LINE
  5
D2
  8
0
 10
96.592994000000004
 20
69.966256000000001
 30
0.0
 11
104.515506
 21
69.966256000000001
 31
0.0
  0
LINE
  5
D3
  8
0
 10
96.592994000000004
 20
80.935911000000004
 30
0.0
 11
104.515506
 21
80.935911000000004
 31
0.0
  0
ARC
  5
D4
  8
0
 10
100.18450300000001
 20
67.223842000000005
 30
0.0
 40
4.5188239999999986
 50
217.36471900000001
 51
217.36471900000001
  0
ARC
  5
D5
  8
0
 10
100.18450300000001
 20
83.678325000000001
 30
0.0
 40
4.5188239999999986
 50
179.99996999999999
 51
217.36471900000001
  0
ARC
  5
D6
  8
0
 10
100.18450300000001
 20
67.223842000000005
 30
0.0
 40
4.5188239999999986
 50
142.63528099999999
 51
180.00003000000001
  0
ARC
  5
D7
  8
0
 10
112.350005
 20
75.451082999999997
 30
0.0
 40
16.684325999999999
 50
160.807602
 51
199.192398
  0
ARC
  5
D8
  8
0
 10
100.18450300000001
 20
83.678325000000001
 30
0.0
 40
4.5188239999999986
 50
142.63528099999999
 51
142.63528099999999
  0
ARC
  5
D9
  8
0
 10
124.515506
 20
75.451082999999997
 30
0.0
 40
30.0
 50
158.55209099999999
 51
201.44790900000001
  0
LINE
  5
DA
  8
0
 10
104.515506
 20
64.481428000000008
 30
0.0
 11
96.592994000000004
 21
64.481428000000008
 31
0.0
  0
LINE
  5
DB
  8
0
 10
104.515506
 20
86.420738999999983
 30
0.0
 11
104.515506
 21
64.481428000000008
 31
0.0
  0
LINE
  5
DC
  8
0
 10
96.592994000000004
 20
86.420738999999983
 30
0.0
 11
104.515506
 21
86.420738999999983
 31
0.0
  0
INSERT
  5
DD
  8
0
  2
STDGX5
 10
0.0
 20
0.0
 30
0.0
  0
INSERT
  5
E0
  8
0
  2
B732018A
 10
46.384433999999999
 20
75.451082999999997
 30
0.0
  0
INSERT
  5
E1
  8
0
  2
STDGX5
 10
0.0
 20
0.0
 30
0.0
  0
TEXT
  5
295
  8
0
 62
     3
 10
0.0
 20
0.0
 30
0.0
 40
10.0
  1
BJ732-12060
  7
STANDARD1
  0
ENDSEC
  0
EOF
