  0
SECTION
  2
HEADER
  9
$ACADVER
  1
AC1009
  9
$INSBASE
 10
0.0
 20
0.0
 30
0.0
  9
$EXTMIN
 10
-0.0005
 20
-2.960436562073669
 30
0.0
  9
$EXTMAX
 10
141.5845737078192
 20
126.5960374614609
 30
0.0
  9
$LIMMIN
 10
0.0
 20
0.0
  9
$LIMMAX
 10
187.5
 20
135.0
  9
$ORTHOMODE
 70
     0
  9
$REGENMODE
 70
     1
  9
$FILLMODE
 70
     1
  9
$QTEXTMODE
 70
     0
  9
$MIRRTEXT
 70
     0
  9
$DRAGMODE
 70
     2
  9
$LTSCALE
 40
5.0
  9
$OSMODE
 70
  3071
  9
$ATTMODE
 70
     1
  9
$TEXTSIZE
 40
0.2
  9
$TRACEWID
 40
0.05
  9
$TEXTSTYLE
  7
STANDARD
  9
$CLAYER
  8
0
  9
$CELTYPE
  6
BYLAYER
  9
$CECOLOR
 62
   256
  9
$DIMSCALE
 40
0.5
  9
$DIMASZ
 40
3.0
  9
$DIMEXO
 40
2.0
  9
$DIMDLI
 40
0.38
  9
$DIMRND
 40
0.0
  9
$DIMDLE
 40
0.0
  9
$DIMEXE
 40
2.0
  9
$DIMTP
 40
0.0
  9
$DIMTM
 40
0.0
  9
$DIMTXT
 40
3.0
  9
$DIMCEN
 40
0.0
  9
$DIMTSZ
 40
0.0
  9
$DIMTOL
 70
     0
  9
$DIMLIM
 70
     0
  9
$DIMTIH
 70
     0
  9
$DIMTOH
 70
     0
  9
$DIMSE1
 70
     0
  9
$DIMSE2
 70
     0
  9
$DIMTAD
 70
     1
  9
$DIMZIN
 70
     0
  9
$DIMBLK
  1

  9
$DIMASO
 70
     0
  9
$DIMSHO
 70
     0
  9
$DIMPOST
  1

  9
$DIMAPOST
  1

  9
$DIMALT
 70
     0
  9
$DIMALTD
 70
     2
  9
$DIMALTF
 40
25.399999999999999
  9
$DIMLFAC
 40
1.0
  9
$DIMTOFL
 70
     1
  9
$DIMTVP
 40
1.6000000000000001
  9
$DIMTIX
 70
     1
  9
$DIMSOXD
 70
     0
  9
$DIMSAH
 70
     0
  9
$DIMBLK1
  1

  9
$DIMBLK2
  1

  9
$DIMSTYLE
  2
STANDARD
  9
$DIMCLRD
 70
     0
  9
$DIMCLRE
 70
     0
  9
$DIMCLRT
 70
     0
  9
$DIMTFAC
 40
1.0
  9
$DIMGAP
 40
0.09
  9
$LUNITS
 70
     2
  9
$LUPREC
 70
     4
  9
$SKETCHINC
 40
0.1
  9
$FILLETRAD
 40
0.0
  9
$AUNITS
 70
     0
  9
$AUPREC
 70
     4
  9
$MENU
  1
E:\r13\win\SUPPORT\ACAD
  9
$ELEVATION
 40
0.0
  9
$PELEVATION
 40
0.0
  9
$THICKNESS
 40
0.0
  9
$LIMCHECK
 70
     0
  9
$BLIPMODE
 70
     0
  9
$CHAMFERA
 40
0.0
  9
$CHAMFERB
 40
0.0
  9
$SKPOLY
 70
     0
  9
$TDCREATE
 40
2449839.7683217591
  9
$TDUPDATE
 40
2456597.6918642242
  9
$TDINDWG
 40
0.006569294
  9
$TDUSRTIMER
 40
0.006569294
  9
$USRTIMER
 70
     1
  9
$ANGBASE
 50
0.0
  9
$ANGDIR
 70
     0
  9
$PDMODE
 70
     0
  9
$PDSIZE
 40
0.0
  9
$PLINEWID
 40
0.0
  9
$COORDS
 70
     1
  9
$SPLFRAME
 70
     0
  9
$SPLINETYPE
 70
     6
  9
$SPLINESEGS
 70
     8
  9
$ATTDIA
 70
     0
  9
$ATTREQ
 70
     1
  9
$HANDLING
 70
     1
  9
$HANDSEED
  5
447
  9
$SURFTAB1
 70
     6
  9
$SURFTAB2
 70
     6
  9
$SURFTYPE
 70
     6
  9
$SURFU
 70
     6
  9
$SURFV
 70
     6
  9
$UCSNAME
  2

  9
$UCSORG
 10
0.0
 20
0.0
 30
0.0
  9
$UCSXDIR
 10
1.0
 20
0.0
 30
0.0
  9
$UCSYDIR
 10
0.0
 20
1.0
 30
0.0
  9
$PUCSNAME
  2

  9
$PUCSORG
 10
0.0
 20
0.0
 30
0.0
  9
$PUCSXDIR
 10
1.0
 20
0.0
 30
0.0
  9
$PUCSYDIR
 10
0.0
 20
1.0
 30
0.0
  9
$USERI1
 70
     0
  9
$USERI2
 70
     1
  9
$USERI3
 70
     1
  9
$USERI4
 70
     0
  9
$USERI5
 70
     0
  9
$USERR1
 40
0.0
  9
$USERR2
 40
0.0
  9
$USERR3
 40
0.0
  9
$USERR4
 40
0.0
  9
$USERR5
 40
0.0
  9
$WORLDVIEW
 70
     1
  9
$SHADEDGE
 70
     3
  9
$SHADEDIF
 70
    70
  9
$TILEMODE
 70
     1
  9
$MAXACTVP
 70
    16
  9
$PLIMCHECK
 70
     0
  9
$PEXTMIN
 10
1.0000000000000000E+020
 20
1.0000000000000000E+020
 30
1.0000000000000000E+020
  9
$PEXTMAX
 10
-1.0000000000000000E+020
 20
-1.0000000000000000E+020
 30
-1.0000000000000000E+020
  9
$PLIMMIN
 10
0.0
 20
0.0
  9
$PLIMMAX
 10
12.0
 20
9.0
  9
$UNITMODE
 70
     0
  9
$VISRETAIN
 70
     0
  9
$PLINEGEN
 70
     0
  9
$PSLTSCALE
 70
     0
  0
ENDSEC
  0
SECTION
  2
TABLES
  0
TABLE
  2
VPORT
 70
     1
  0
VPORT
  2
*ACTIVE
 70
     0
 10
0.0
 20
0.0
 11
1.0
 21
1.0
 12
97.569629527584027
 22
66.019680281628425
 13
0.0
 23
0.0
 14
5.0
 24
5.0
 15
5.0
 25
5.0
 16
0.0
 26
0.0
 36
1.0
 17
0.0
 27
0.0
 37
0.0
 40
139.19795458864209
 41
1.831871345029239
 42
50.0
 43
0.0
 44
0.0
 50
0.0
 51
0.0
 71
     0
 72
   500
 73
     1
 74
     0
 75
     0
 76
     0
 77
     0
 78
     2
  0
ENDTAB
  0
TABLE
  2
LTYPE
 70
     3
  0
LTYPE
  2
CONTINUOUS
 70
     0
  3
Solid Line
 72
    65
 73
     0
 40
0.0
  0
LTYPE
  2
CENTER
 70
     0
  3
____ _ ____ _ ____ _ ____ _ ____ _ ____ _ ____
 72
    65
 73
     4
 40
2.0
 49
1.25
 49
-0.25
 49
0.25
 49
-0.25
  0
LTYPE
  2
PHANTOM2
 70
     0
  3
___ _ _ ___ _ _ ___ _ _ ___ _ _
 72
    65
 73
     6
 40
1.25
 49
0.625
 49
-0.125
 49
0.125
 49
-0.125
 49
0.125
 49
-0.125
  0
ENDTAB
  0
TABLE
  2
LAYER
 70
     4
  0
LAYER
  2
0
 70
     0
 62
     7
  6
CONTINUOUS
  0
LAYER
  2
1
 70
     0
 62
     1
  6
CENTER
  0
LAYER
  2
3
 70
     0
 62
     3
  6
CONTINUOUS
  0
LAYER
  2
ITTEN
 70
     0
 62
     1
  6
CENTER
  0
ENDTAB
  0
TABLE
  2
STYLE
 70
     2
  0
STYLE
  2
STANDARD
 70
     0
 40
0.0
 41
1.0
 50
0.0
 71
     0
 42
0.2
  3
TXT
  4
BIGFONT
  0
STYLE
  2
STANDARD1
 70
     0
 40
0.0
 41
1.0
 50
0.0
 71
     0
 42
3.0
  3
txt
  4

  0
ENDTAB
  0
TABLE
  2
VIEW
 70
     1
  0
VIEW
  2
ALL
 70
     0
 40
179.5384664489153
 10
135.0
 20
89.769233224457665
 41
0.0
 11
0.0
 21
0.0
 31
1.0
 12
0.0
 22
0.0
 32
0.0
 42
0.0
 43
0.0
 44
0.0
 50
0.0
 71
     0
  0
ENDTAB
  0
TABLE
  2
UCS
 70
     0
  0
ENDTAB
  0
TABLE
  2
APPID
 70
     3
  0
APPID
  2
ACAD
 70
     0
  0
APPID
  2
ACAD_MLEADERVER
 70
     0
  0
APPID
  2
ACAD_NAV_VCDISPLAY
 70
     0
  0
ENDTAB
  0
TABLE
  2
DIMSTYLE
 70
     1
  0
DIMSTYLE
  2
STANDARD
 70
     0
  3

  4

  5

  6

  7

 40
1.0
 41
0.18
 42
0.0625
 43
0.38
 44
0.18
 45
0.0
 46
0.0
 47
0.0
 48
0.0
140
0.18
141
0.09
142
0.0
143
25.399999999999999
144
1.0
145
0.0
146
1.0
147
0.09
 71
     0
 72
     0
 73
     1
 74
     1
 75
     0
 76
     0
 77
     0
 78
     0
170
     0
171
     2
172
     0
173
     0
174
     0
175
     0
176
     0
177
     0
178
     0
  0
ENDTAB
  0
ENDSEC
  0
SECTION
  2
BLOCKS
  0
BLOCK
  8
0
  2
$MODEL_SPACE
 70
     0
 10
0.0
 20
0.0
 30
0.0
  3
$MODEL_SPACE
  1

  0
ENDBLK
  5
157
  8
0
  0
BLOCK
 67
     1
  8
0
  2
$PAPER_SPACE
 70
     0
 10
0.0
 20
0.0
 30
0.0
  3
$PAPER_SPACE
  1

  0
ENDBLK
  5
155
 67
     1
  8
0
  0
BLOCK
  8
0
  2
732C50B2
 70
     0
 10
145.12127069387651
 20
67.194408350003187
 30
0.0
  3
732C50B2
  1

  0
LINE
  5
2C
  8
0
 10
145.12127069387651
 20
73.05722743941169
 30
0.0
 11
145.12127069387651
 21
68.331589260594455
 31
0.0
  0
LINE
  5
2D
  8
0
 10
136.12127069384829
 20
74.194408350003073
 30
0.0
 11
154.12127069390471
 21
74.194408350003073
 31
0.0
  0
LINE
  5
2E
  8
0
 10
154.62127069382061
 20
73.905733215456848
 30
0.0
 11
154.62127069382061
 21
67.483083484549525
 31
0.0
  0
LINE
  5
2F
  8
0
 10
135.62127069382959
 20
73.905733215397504
 30
0.0
 11
135.62127069382959
 21
67.483083484608869
 31
0.0
  0
LINE
  5
30
  8
0
 10
154.12127069390471
 20
74.194408350003073
 30
0.0
 11
154.62127069382069
 21
73.905733215456848
 31
0.0
  0
LINE
  5
31
  8
0
 10
136.1212706938484
 20
74.194408350003073
 30
0.0
 11
135.62127069393239
 21
73.905733215456848
 31
0.0
  0
ARC
  5
32
  8
0
 10
149.8712706938486
 20
63.705452634731273
 30
0.0
 40
10.488955715271929
 50
63.072847342322667
 51
116.9271526576776
  0
ARC
  5
33
  8
0
 10
140.37127069390439
 20
63.705452634731273
 30
0.0
 40
10.488955715271929
 50
63.072847342322397
 51
116.9271526576773
  0
ARC
  5
34
  8
0
 10
140.37127069390439
 20
77.6833640652751
 30
0.0
 40
10.488955715271929
 50
243.07284734232269
 51
296.9271526576776
  0
ARC
  5
35
  8
0
 10
149.8712706938486
 20
77.6833640652751
 30
0.0
 40
10.488955715271929
 50
243.0728473423224
 51
296.92715265767742
  0
LINE
  5
36
  8
0
 10
136.1212706938484
 20
67.194408350003187
 30
0.0
 11
135.62127069393239
 21
67.483083484549525
 31
0.0
  0
LINE
  5
37
  8
0
 10
154.12127069390471
 20
67.194408350003187
 30
0.0
 11
154.62127069382069
 21
67.483083484549525
 31
0.0
  0
LINE
  5
38
  8
0
 10
136.12127069384829
 20
67.194408350003187
 30
0.0
 11
154.12127069390471
 21
67.194408350003187
 31
0.0
  0
ENDBLK
  5
39
  8
0
  0
BLOCK
  8
0
  2
732C50C2
 70
     0
 10
258.63176218530941
 20
45.00132136911558
 30
0.0
  3
732C50C2
  1

  0
LINE
  5
3B
  8
0
 10
258.63176218530748
 20
54.001334583521903
 30
0.0
 11
257.49458127463288
 21
55.970989698207568
 31
0.0
  0
LINE
  5
3C
  8
0
 10
258.63176218530748
 20
36.001334583509959
 30
0.0
 11
257.49458127463288
 21
34.031679468824173
 31
0.0
  0
LINE
  5
3D
  8
0
 10
258.63176218531129
 20
54.001334583515302
 30
0.0
 11
258.63176218530748
 21
36.00133458351587
 31
0.0
  0
ARC
  5
3E
  8
0
 10
254.7563833101249
 20
36.774093247657163
 30
0.0
 40
3.875378875182518
 50
314.9559267611524
 51
314.9559267611636
  0
ARC
  5
3F
  8
0
 10
244.8360180506568
 20
45.001334583617279
 30
0.0
 40
13.7957441346507
 50
336.57340249042011
 51
23.426597509579931
  0
ARC
  5
40
  8
0
 10
254.75638331017251
 20
53.228575919563752
 30
0.0
 40
3.8753788751386642
 50
314.9559267608073
 51
14.955926760804649
  0
ARC
  5
41
  8
0
 10
254.75638331017251
 20
53.228575919563752
 30
0.0
 40
3.8753788751386642
 50
45.044073239175248
 51
45.044073239192507
  0
ARC
  5
42
  8
0
 10
254.7563833101249
 20
36.774093247657163
 30
0.0
 40
3.875378875182518
 50
345.04407323386238
 51
45.044073238847631
  0
ARC
  5
43
  8
0
 10
255.50714106049
 20
36.774093247657163
 30
0.0
 40
3.875378875182518
 50
134.9559267611524
 51
194.95592676613759
  0
ARC
  5
44
  8
0
 10
255.50714106044251
 20
53.228575919563752
 30
0.0
 40
3.8753788751386642
 50
134.95592676080739
 51
134.9559267608247
  0
ARC
  5
45
  8
0
 10
255.50714106044251
 20
53.228575919563752
 30
0.0
 40
3.8753788751386642
 50
165.04407323919531
 51
225.04407323919261
  0
ARC
  5
46
  8
0
 10
265.4275063199583
 20
45.001334583617279
 30
0.0
 40
13.7957441346507
 50
156.57340249042011
 51
203.42659750957989
  0
ARC
  5
47
  8
0
 10
255.50714106049
 20
36.774093247657163
 30
0.0
 40
3.875378875182518
 50
225.0440732388364
 51
225.0440732388476
  0
LINE
  5
48
  8
0
 10
251.6317621853037
 20
54.001334583515302
 30
0.0
 11
251.63176218530751
 21
36.00133458351587
 31
0.0
  0
LINE
  5
49
  8
0
 10
251.63176218530751
 20
36.001334583509959
 30
0.0
 11
252.768943095982
 21
34.031679468824173
 31
0.0
  0
LINE
  5
4A
  8
0
 10
251.63176218530759
 20
54.001334583521903
 30
0.0
 11
252.768943095982
 21
55.970989698207568
 31
0.0
  0
LINE
  5
4B
  8
0
 10
252.7689430959812
 20
55.970989698206772
 30
0.0
 11
257.49458127463288
 21
55.970989698207568
 31
0.0
  0
LINE
  5
4C
  8
0
 10
252.768943095982
 20
50.48616214091993
 30
0.0
 11
257.49458127463311
 21
50.486162140919816
 31
0.0
  0
LINE
  5
4D
  8
0
 10
257.49458127463311
 20
39.516507026314628
 30
0.0
 11
252.768943095982
 21
39.516507026315537
 31
0.0
  0
LINE
  5
4E
  8
0
 10
257.49458127463288
 20
34.031679468824173
 30
0.0
 11
252.768943095982
 21
34.031679468824173
 31
0.0
  0
ENDBLK
  5
4F
  8
0
  0
BLOCK
  8
0
  2
BATU
 70
     0
 10
0.0
 20
0.0
 30
0.0
  3
BATU
  1

  0
LINE
  5
162
  8
ITTEN
 10
0.5
 20
0.0
 30
0.0
 11
-0.5
 21
0.0
 31
0.0
  0
LINE
  5
163
  8
ITTEN
 10
0.0
 20
0.5
 30
0.0
 11
0.0
 21
-0.5
 31
0.0
  0
ENDBLK
  5
165
  8
0
  0
ENDSEC
  0
SECTION
  2
ENTITIES
  0
LINE
  5
5B
  8
0
 10
80.14432252921695
 20
105.14155478955649
 30
0.0
 11
80.14432252921695
 21
116.11120990400831
 31
0.0
  0
LINE
  5
5C
  8
0
 10
80.14432252921695
 20
116.1112099041593
 30
0.0
 11
70.644322529347903
 21
121.59603746138529
 31
0.0
  0
LINE
  5
5D
  8
0
 10
70.644322529216936
 20
121.5960374614608
 30
0.0
 11
61.14432252934791
 21
116.1112099042348
 31
0.0
  0
LINE
  5
5E
  8
0
 10
61.14432252921695
 20
116.1112099041593
 30
0.0
 11
61.144322529216943
 21
105.1415547897074
 31
0.0
  0
LINE
  5
5F
  8
0
 10
61.144322529216943
 20
105.14155478955649
 30
0.0
 11
70.644322529086423
 21
99.656727232330454
 31
0.0
  0
LINE
  5
60
  8
0
 10
70.644322529216936
 20
99.656727232254966
 30
0.0
 11
80.144322529086438
 21
105.14155478948069
 31
0.0
  0
INSERT
  5
61
  8
0
  2
732C50B2
 10
70.644322529216836
 20
46.252731267627119
 30
0.0
  0
INSERT
  5
62
  8
0
  2
732C50C2
 10
130.6149053787272
 20
46.252731267627112
 30
0.0
 50
270.0
  0
LINE
  5
6C
  8
0
 10
61.144322529216851
 20
79.708837817891464
 30
0.0
 11
61.144322529216851
 21
71.252731267627084
 31
0.0
  0
ARC
  5
6E
  8
0
 10
65.894322529216851
 20
67.473399414992556
 30
0.0
 40
12.629158541869771
 50
67.906834751609694
 51
112.09316524839031
  0
ARC
  5
71
  8
0
 10
75.394322529216851
 20
67.473399414992556
 30
0.0
 40
12.629158541869771
 50
67.906834751609694
 51
112.09316524839031
  0
ARC
  5
72
  8
0
 10
70.644322529216851
 20
51.252731267627077
 30
0.0
 40
30.0
 50
71.538541703231246
 51
108.4614582967687
  0
LINE
  5
73
  8
3
 10
75.6973225292313
 20
69.252731267627084
 30
0.0
 11
75.697322529231286
 21
32.305731267641519
 31
0.0
  0
LINE
  5
74
  8
0
 10
76.644322529216964
 20
71.252731267627098
 30
0.0
 11
76.644322529216851
 21
33.252731267627077
 31
0.0
  0
LINE
  5
75
  8
3
 10
75.697322529231286
 20
69.252731267627084
 30
0.0
 11
76.644322529216851
 21
70.892983382339054
 31
0.0
  0
LINE
  5
76
  8
3
 10
65.591322529202415
 20
69.252731267572855
 30
0.0
 11
64.644322529216851
 21
70.892983382315634
 31
0.0
  0
LINE
  5
77
  8
3
 10
65.591322529202415
 20
32.305731267641519
 30
0.0
 11
65.591322529162511
 21
69.252731267627084
 31
0.0
  0
LINE
  5
78
  8
0
 10
76.644322529216851
 20
33.252731267627077
 30
0.0
 11
64.644322529216851
 21
33.252731267627077
 31
0.0
  0
LINE
  5
79
  8
0
 10
76.644322529216851
 20
69.252731267627084
 30
0.0
 11
64.644322529216851
 21
69.252731267627084
 31
0.0
  0
LINE
  5
7A
  8
0
 10
64.644322529216851
 20
33.252731267627077
 30
0.0
 11
64.644322529216851
 21
71.252731267627098
 31
0.0
  0
LINE
  5
7B
  8
0
 10
66.644322529216851
 20
31.252731267627091
 30
0.0
 11
64.644322529216851
 21
33.252731267627077
 31
0.0
  0
LINE
  5
7C
  8
0
 10
74.644322529216851
 20
31.252731267627091
 30
0.0
 11
66.644322529216851
 21
31.252731267627091
 31
0.0
  0
LINE
  5
7D
  8
0
 10
76.644322529216851
 20
33.252731267627077
 30
0.0
 11
74.644322529216851
 21
31.252731267627091
 31
0.0
  0
LINE
  5
7F
  8
0
 10
80.144322529216836
 20
71.252731267627084
 30
0.0
 11
61.144322529216851
 21
71.252731267627084
 31
0.0
  0
LINE
  5
80
  8
0
 10
80.144322529216836
 20
79.708837817891464
 30
0.0
 11
80.144322529216836
 21
71.252731267627084
 31
0.0
  0
LINE
  5
81
  8
0
 10
141.58456049341891
 20
79.175243093476752
 30
0.0
 11
141.58456049341891
 21
71.252731267627027
 31
0.0
  0
LINE
  5
82
  8
0
 10
141.58456049341891
 20
71.252731267627027
 30
0.0
 11
119.6452502642102
 21
71.252731267627027
 31
0.0
  0
LINE
  5
83
  8
0
 10
119.6452502642102
 20
71.252731267627027
 30
0.0
 11
119.6452502642102
 21
79.175243093545376
 31
0.0
  0
ARC
  5
84
  8
0
 10
130.6149053787272
 20
51.252731267627027
 30
0.0
 40
30.0
 50
68.552091427660415
 51
111.4479085719813
  0
ARC
  5
85
  8
0
 10
138.842146714775
 20
75.58373348846429
 30
0.0
 40
4.5188244683980399
 50
52.635281079706637
 51
52.635281079707561
  0
ARC
  5
86
  8
0
 10
130.61490537882909
 20
63.418232378260981
 30
0.0
 40
16.684325578601261
 50
70.8076022110411
 51
109.1923977889587
  0
ARC
  5
87
  8
0
 10
122.38766404286901
 20
75.583733488419725
 30
0.0
 40
4.5188244684425172
 50
52.635281079897837
 51
90.000029619169183
  0
ARC
  5
88
  8
0
 10
138.842146714775
 20
75.58373348846429
 30
0.0
 40
4.5188244683980399
 50
89.999970380830774
 51
127.3647189202929
  0
ARC
  5
89
  8
0
 10
122.38766404286901
 20
75.583733488419725
 30
0.0
 40
4.5188244684425172
 50
127.3647189171528
 51
127.36471892010211
  0
LINE
  5
8A
  8
0
 10
136.09973293613129
 20
79.175243093476823
 30
0.0
 11
136.09973293613129
 21
71.252731267627141
 31
0.0
  0
LINE
  5
8B
  8
0
 10
125.1300778215269
 20
79.175243093476823
 30
0.0
 11
125.1300778215269
 21
71.252731267627027
 31
0.0
  0
LINE
  5
8C
  8
0
 10
136.6149053787272
 20
33.252731267626999
 30
0.0
 11
134.6149053787272
 21
31.252731267626999
 31
0.0
  0
LINE
  5
8D
  8
0
 10
134.6149053787272
 20
31.252731267626999
 30
0.0
 11
126.6149053787272
 21
31.252731267626999
 31
0.0
  0
LINE
  5
8E
  8
0
 10
126.6149053787272
 20
31.252731267626999
 30
0.0
 11
124.6149053787272
 21
33.252731267626999
 31
0.0
  0
LINE
  5
8F
  8
0
 10
124.6149053787272
 20
33.252731267626999
 30
0.0
 11
124.6149053787271
 21
71.252731267627027
 31
0.0
  0
LINE
  5
90
  8
0
 10
136.6149053787272
 20
69.252731267627027
 30
0.0
 11
124.6149053787273
 21
69.252731267627027
 31
0.0
  0
LINE
  5
91
  8
0
 10
136.6149053787272
 20
33.252731267627119
 30
0.0
 11
124.6149053787272
 21
33.252731267626999
 31
0.0
  0
LINE
  5
92
  8
3
 10
125.56190537871279
 20
32.305731267641441
 30
0.0
 11
125.5619053786731
 21
69.252731267627027
 31
0.0
  0
LINE
  5
93
  8
3
 10
125.56190537871279
 20
69.252731267572912
 30
0.0
 11
124.6149053787273
 21
70.892983382315705
 31
0.0
  0
LINE
  5
94
  8
3
 10
135.66790537874169
 20
69.252731267627141
 30
0.0
 11
136.6149053787272
 21
70.892983382339125
 31
0.0
  0
LINE
  5
95
  8
0
 10
136.6149053787272
 20
71.252731267627027
 30
0.0
 11
136.6149053787272
 21
33.252731267626999
 31
0.0
  0
LINE
  5
96
  8
3
 10
135.66790537874149
 20
69.252731267627027
 30
0.0
 11
135.66790537874169
 21
32.305731267641441
 31
0.0
  0
LINE
  5
99
  8
1
 10
70.644322529216851
 20
26.252731267627091
 30
0.0
 11
70.644322529216879
 21
86.252731267627084
 31
0.0
  0
LINE
  5
9A
  8
1
 10
130.61490537882111
 20
86.252731267627027
 30
0.0
 11
130.61490537882111
 21
26.252731267626999
 31
0.0
  0
LINE
  5
9B
  8
1
 10
56.144322529216943
 20
110.6263823469333
 30
0.0
 11
85.14432252921695
 21
110.6263823469333
 31
0.0
  0
LINE
  5
9C
  8
1
 10
70.644322529217035
 20
126.5960374614609
 30
0.0
 11
70.644322529217035
 21
94.656727232255022
 31
0.0
  0
INSERT
  5
166
  8
0
  2
BATU
 10
0.0
 20
0.0
 30
0.0
 41
0.001
 42
0.001
 43
0.001
  0
LINE
  5
169
  8
0
 10
70.644322529216822
 20
79.175243093476837
 30
0.0
 11
70.644322529216879
 21
71.252731267627084
 31
0.0
  0
TEXT
  5
3B6
  8
0
 62
     3
 10
0.0
 20
0.0
 30
0.0
 40
10.0
  1
BJ732-12050
  7
STANDARD1
  0
ENDSEC
  0
EOF
