  0
SECTION
  2
HEADER
  9
$ACADVER
  1
AC1009
  9
$INSBASE
 10
0.0
 20
0.0
 30
0.0
  9
$EXTMIN
 10
0.0
 20
-2.960436562073669
 30
0.0
  9
$EXTMAX
 10
159.40088600000001
 20
92.033794000000015
 30
0.0
  9
$LIMMIN
 10
0.0
 20
0.0
  9
$LIMMAX
 10
187.5
 20
135.0
  9
$ORTHOMODE
 70
     1
  9
$REGENMODE
 70
     1
  9
$FILLMODE
 70
     1
  9
$QTEXTMODE
 70
     0
  9
$MIRRTEXT
 70
     0
  9
$DRAGMODE
 70
     2
  9
$LTSCALE
 40
10.0
  9
$OSMODE
 70
  3071
  9
$ATTMODE
 70
     1
  9
$TEXTSIZE
 40
0.2
  9
$TRACEWID
 40
0.05
  9
$TEXTSTYLE
  7
STANDARD
  9
$CLAYER
  8
0
  9
$CELTYPE
  6
BYLAYER
  9
$CECOLOR
 62
   256
  9
$DIMSCALE
 40
1.0
  9
$DIMASZ
 40
3.0
  9
$DIMEXO
 40
2.0
  9
$DIMDLI
 40
0.38
  9
$DIMRND
 40
0.0
  9
$DIMDLE
 40
0.0
  9
$DIMEXE
 40
2.0
  9
$DIMTP
 40
0.0
  9
$DIMTM
 40
0.0
  9
$DIMTXT
 40
3.2000000000000002
  9
$DIMCEN
 40
0.0
  9
$DIMTSZ
 40
0.0
  9
$DIMTOL
 70
     0
  9
$DIMLIM
 70
     0
  9
$DIMTIH
 70
     0
  9
$DIMTOH
 70
     0
  9
$DIMSE1
 70
     0
  9
$DIMSE2
 70
     0
  9
$DIMTAD
 70
     1
  9
$DIMZIN
 70
     0
  9
$DIMBLK
  1

  9
$DIMASO
 70
     0
  9
$DIMSHO
 70
     0
  9
$DIMPOST
  1

  9
$DIMAPOST
  1

  9
$DIMALT
 70
     0
  9
$DIMALTD
 70
     2
  9
$DIMALTF
 40
25.399999999999999
  9
$DIMLFAC
 40
1.0
  9
$DIMTOFL
 70
     1
  9
$DIMTVP
 40
1.6000000000000001
  9
$DIMTIX
 70
     1
  9
$DIMSOXD
 70
     0
  9
$DIMSAH
 70
     0
  9
$DIMBLK1
  1

  9
$DIMBLK2
  1

  9
$DIMSTYLE
  2
STANDARD
  9
$DIMCLRD
 70
     0
  9
$DIMCLRE
 70
     0
  9
$DIMCLRT
 70
     0
  9
$DIMTFAC
 40
1.0
  9
$DIMGAP
 40
0.09
  9
$LUNITS
 70
     2
  9
$LUPREC
 70
     4
  9
$SKETCHINC
 40
0.1
  9
$FILLETRAD
 40
0.0
  9
$AUNITS
 70
     0
  9
$AUPREC
 70
     4
  9
$MENU
  1
E:\r13\win\SUPPORT\ACAD
  9
$ELEVATION
 40
0.0
  9
$PELEVATION
 40
0.0
  9
$THICKNESS
 40
0.0
  9
$LIMCHECK
 70
     0
  9
$BLIPMODE
 70
     0
  9
$CHAMFERA
 40
0.0
  9
$CHAMFERB
 40
0.0
  9
$SKPOLY
 70
     0
  9
$TDCREATE
 40
2449839.7692476851
  9
$TDUPDATE
 40
2456597.6917363429
  9
$TDINDWG
 40
0.0021663079
  9
$TDUSRTIMER
 40
0.0021663079
  9
$USRTIMER
 70
     1
  9
$ANGBASE
 50
0.0
  9
$ANGDIR
 70
     0
  9
$PDMODE
 70
     0
  9
$PDSIZE
 40
0.0
  9
$PLINEWID
 40
0.0
  9
$COORDS
 70
     1
  9
$SPLFRAME
 70
     0
  9
$SPLINETYPE
 70
     6
  9
$SPLINESEGS
 70
     8
  9
$ATTDIA
 70
     0
  9
$ATTREQ
 70
     1
  9
$HANDLING
 70
     1
  9
$HANDSEED
  5
3AB
  9
$SURFTAB1
 70
     6
  9
$SURFTAB2
 70
     6
  9
$SURFTYPE
 70
     6
  9
$SURFU
 70
     6
  9
$SURFV
 70
     6
  9
$UCSNAME
  2

  9
$UCSORG
 10
0.0
 20
0.0
 30
0.0
  9
$UCSXDIR
 10
1.0
 20
0.0
 30
0.0
  9
$UCSYDIR
 10
0.0
 20
1.0
 30
0.0
  9
$PUCSNAME
  2

  9
$PUCSORG
 10
0.0
 20
0.0
 30
0.0
  9
$PUCSXDIR
 10
1.0
 20
0.0
 30
0.0
  9
$PUCSYDIR
 10
0.0
 20
1.0
 30
0.0
  9
$USERI1
 70
     3
  9
$USERI2
 70
     1
  9
$USERI3
 70
     1
  9
$USERI4
 70
     0
  9
$USERI5
 70
     0
  9
$USERR1
 40
0.0
  9
$USERR2
 40
0.0
  9
$USERR3
 40
0.0
  9
$USERR4
 40
0.0
  9
$USERR5
 40
0.0
  9
$WORLDVIEW
 70
     1
  9
$SHADEDGE
 70
     3
  9
$SHADEDIF
 70
    70
  9
$TILEMODE
 70
     1
  9
$MAXACTVP
 70
    16
  9
$PLIMCHECK
 70
     0
  9
$PEXTMIN
 10
1.0000000000000000E+020
 20
1.0000000000000000E+020
 30
1.0000000000000000E+020
  9
$PEXTMAX
 10
-1.0000000000000000E+020
 20
-1.0000000000000000E+020
 30
-1.0000000000000000E+020
  9
$PLIMMIN
 10
0.0
 20
0.0
  9
$PLIMMAX
 10
12.0
 20
9.0
  9
$UNITMODE
 70
     0
  9
$VISRETAIN
 70
     0
  9
$PLINEGEN
 70
     0
  9
$PSLTSCALE
 70
     0
  0
ENDSEC
  0
SECTION
  2
TABLES
  0
TABLE
  2
VPORT
 70
     1
  0
VPORT
  2
*ACTIVE
 70
     0
 10
0.0
 20
0.0
 11
1.0
 21
1.0
 12
97.570150770051072
 22
66.014785922033241
 13
0.0
 23
0.0
 14
10.0
 24
10.0
 15
10.0
 25
10.0
 16
0.0
 26
0.0
 36
1.0
 17
0.0
 27
0.0
 37
0.0
 40
139.20783109903601
 41
1.831871345029239
 42
50.0
 43
0.0
 44
0.0
 50
0.0
 51
0.0
 71
     0
 72
   100
 73
     1
 74
     0
 75
     0
 76
     0
 77
     0
 78
     2
  0
ENDTAB
  0
TABLE
  2
LTYPE
 70
     3
  0
LTYPE
  2
CONTINUOUS
 70
     0
  3
Solid Line
 72
    65
 73
     0
 40
0.0
  0
LTYPE
  2
CENTER
 70
     0
  3
____ _ ____ _ ____ _ ____ _ ____ _ ____ _ ____
 72
    65
 73
     4
 40
2.0
 49
1.25
 49
-0.25
 49
0.25
 49
-0.25
  0
LTYPE
  2
PHANTOM2
 70
     0
  3
___ _ _ ___ _ _ ___ _ _ ___ _ _
 72
    65
 73
     6
 40
1.25
 49
0.625
 49
-0.125
 49
0.125
 49
-0.125
 49
0.125
 49
-0.125
  0
ENDTAB
  0
TABLE
  2
LAYER
 70
     3
  0
LAYER
  2
0
 70
     0
 62
     7
  6
CONTINUOUS
  0
LAYER
  2
1
 70
     0
 62
     1
  6
CENTER
  0
LAYER
  2
3
 70
     0
 62
     3
  6
CONTINUOUS
  0
ENDTAB
  0
TABLE
  2
STYLE
 70
     2
  0
STYLE
  2
STANDARD
 70
     0
 40
0.0
 41
1.0
 50
0.0
 71
     0
 42
0.2
  3
TXT
  4
BIGFONT
  0
STYLE
  2
STANDARD1
 70
     0
 40
0.0
 41
1.0
 50
0.0
 71
     0
 42
3.0
  3
txt
  4

  0
ENDTAB
  0
TABLE
  2
VIEW
 70
     1
  0
VIEW
  2
ALL
 70
     0
 40
179.538466
 10
135.0
 20
89.769233000000014
 41
0.0
 11
0.0
 21
0.0
 31
1.0
 12
0.0
 22
0.0
 32
0.0
 42
0.0
 43
0.0
 44
0.0
 50
0.0
 71
     0
  0
ENDTAB
  0
TABLE
  2
UCS
 70
     0
  0
ENDTAB
  0
TABLE
  2
APPID
 70
     3
  0
APPID
  2
ACAD
 70
     0
  0
APPID
  2
ACAD_MLEADERVER
 70
     0
  0
APPID
  2
ACAD_NAV_VCDISPLAY
 70
     0
  0
ENDTAB
  0
TABLE
  2
DIMSTYLE
 70
     1
  0
DIMSTYLE
  2
STANDARD
 70
     0
  3

  4

  5

  6

  7

 40
1.0
 41
0.18
 42
0.0625
 43
0.38
 44
0.18
 45
0.0
 46
0.0
 47
0.0
 48
0.0
140
0.18
141
0.09
142
0.0
143
25.399999999999999
144
1.0
145
0.0
146
1.0
147
0.09
 71
     0
 72
     0
 73
     1
 74
     1
 75
     0
 76
     0
 77
     0
 78
     0
170
     0
171
     2
172
     0
173
     0
174
     0
175
     0
176
     0
177
     0
178
     0
  0
ENDTAB
  0
ENDSEC
  0
SECTION
  2
BLOCKS
  0
BLOCK
  8
0
  2
$MODEL_SPACE
 70
     0
 10
0.0
 20
0.0
 30
0.0
  3
$MODEL_SPACE
  1

  0
ENDBLK
  5
261
  8
0
  0
BLOCK
 67
     1
  8
0
  2
$PAPER_SPACE
 70
     0
 10
0.0
 20
0.0
 30
0.0
  3
$PAPER_SPACE
  1

  0
ENDBLK
  5
25F
 67
     1
  8
0
  0
BLOCK
  8
0
  2
STDGX5
 70
     0
 10
0.0
 20
0.0
 30
0.0
  3
STDGX5
  1

  0
ENDBLK
  5
4D
  8
0
  0
BLOCK
  8
0
  2
B732018A
 70
     0
 10
0.0
 20
0.0
 30
0.0
  3
B732018A
  1

  0
LINE
  5
80
  8
1
 10
-15.0
 20
0.0
 30
0.0
 11
15.0
 21
0.0
 31
0.0
  0
LINE
  5
81
  8
1
 10
0.0
 20
15.0
 30
0.0
 11
0.0
 21
-15.0
 31
0.0
  0
LINE
  5
82
  8
0
 10
0.0
 20
-10.969654999999999
 30
0.0
 11
9.5
 21
-5.4848280000000003
 31
0.0
  0
LINE
  5
83
  8
0
 10
-9.5
 20
-5.4848280000000003
 30
0.0
 11
0.0
 21
-10.969654999999999
 31
0.0
  0
LINE
  5
84
  8
0
 10
-9.5
 20
5.4848280000000003
 30
0.0
 11
-9.5
 21
-5.4848280000000003
 31
0.0
  0
LINE
  5
85
  8
0
 10
0.0
 20
10.969654999999999
 30
0.0
 11
-9.5
 21
5.4848280000000003
 31
0.0
  0
LINE
  5
86
  8
0
 10
9.5
 20
5.4848280000000003
 30
0.0
 11
0.0
 21
10.969654999999999
 31
0.0
  0
LINE
  5
87
  8
0
 10
9.5
 20
-5.4848280000000003
 30
0.0
 11
9.5
 21
5.4848280000000003
 31
0.0
  0
ENDBLK
  5
88
  8
0
  0
BLOCK
  8
0
  2
NM10B
 70
     0
 10
0.0
 20
0.0
 30
0.0
  3
NM10B
  1

  0
LINE
  5
116
  8
0
 10
0.0
 20
8.25
 30
0.0
 11
0.0
 21
-8.25
 31
0.0
  0
LINE
  5
117
  8
0
 10
-6.0
 20
-8.25
 30
0.0
 11
-6.0
 21
8.25
 31
0.0
  0
ARC
  5
118
  8
0
 10
-1.5107639999999991
 20
7.3612159999999998
 30
0.0
 40
4.344898999999999
 50
154.38424699999999
 51
214.38424699999999
  0
LINE
  5
119
  8
0
 10
-5.0964729999999996
 20
9.8149549999999994
 30
0.0
 11
-6.0
 21
8.25
 31
0.0
  0
LINE
  5
11A
  8
0
 10
-0.903527
 20
9.8149549999999994
 30
0.0
 11
0.0
 21
8.25
 31
0.0
  0
ARC
  5
11B
  8
0
 10
-4.489236
 20
7.3612159999999998
 30
0.0
 40
4.344898999999999
 50
325.61575299999998
 51
25.615753000000002
  0
LINE
  5
11C
  8
0
 10
-5.0964729999999996
 20
9.8149549999999994
 30
0.0
 11
-0.903527
 21
9.8149549999999994
 31
0.0
  0
LINE
  5
11D
  8
0
 10
-5.0964729999999996
 20
4.9074770000000001
 30
0.0
 11
-0.903527
 21
4.9074770000000001
 31
0.0
  0
LINE
  5
11E
  8
0
 10
-5.0964729999999996
 20
-4.9074770000000001
 30
0.0
 11
-0.903527
 21
-4.9074770000000001
 31
0.0
  0
LINE
  5
11F
  8
0
 10
-5.0964729999999996
 20
-9.8149549999999994
 30
0.0
 11
-0.903527
 21
-9.8149549999999994
 31
0.0
  0
ARC
  5
120
  8
0
 10
-16.385148000000001
 20
0.0
 30
0.0
 40
16.24081099999999
 50
342.41204599999998
 51
17.587954
  0
ARC
  5
121
  8
0
 10
-4.489236
 20
-7.3612159999999998
 30
0.0
 40
4.344898999999999
 50
334.38424700000002
 51
34.384247000000002
  0
LINE
  5
122
  8
0
 10
-0.903527
 20
-9.8149549999999994
 30
0.0
 11
0.0
 21
-8.25
 31
0.0
  0
LINE
  5
123
  8
0
 10
-5.0964729999999996
 20
-9.8149549999999994
 30
0.0
 11
-6.0
 21
-8.25
 31
0.0
  0
ARC
  5
124
  8
0
 10
10.385147999999999
 20
0.0
 30
0.0
 40
16.24081099999999
 50
162.412046
 51
197.587954
  0
ARC
  5
125
  8
0
 10
-1.5107639999999991
 20
-7.3612159999999998
 30
0.0
 40
4.344898999999999
 50
145.61575300000001
 51
205.61575300000001
  0
ENDBLK
  5
126
  8
0
  0
ENDSEC
  0
SECTION
  2
ENTITIES
  0
INSERT
  5
130
  8
0
  2
STDGX5
 10
0.0
 20
0.0
 30
0.0
  0
INSERT
  5
131
  8
0
  2
STDGX5
 10
0.0
 20
0.0
 30
0.0
  0
INSERT
  5
135
  8
0
  2
B732018A
 10
53.372263000000011
 20
78.612739000000005
 30
0.0
 41
0.8947370000000001
 42
0.8947370000000001
 43
0.8947370000000001
  0
INSERT
  5
136
  8
0
  2
STDGX5
 10
0.0
 20
0.0
 30
0.0
  0
ARC
  5
137
  8
0
 10
116.400886
 20
78.612739000000005
 30
0.0
 40
20.0
 50
150.61026100000001
 51
209.38973899999999
  0
LINE
  5
138
  8
0
 10
104.80088600000001
 20
83.612739000000005
 30
0.0
 11
152.90088600000001
 21
83.612739000000005
 31
0.0
  0
LINE
  5
139
  8
0
 10
154.40088600000001
 20
82.112739000000005
 30
0.0
 11
154.40088600000001
 21
75.112739000000005
 31
0.0
  0
LINE
  5
13A
  8
0
 10
152.90088600000001
 20
73.612739000000005
 30
0.0
 11
104.80088600000001
 21
73.612739000000005
 31
0.0
  0
LINE
  5
13B
  8
0
 10
107.400886
 20
73.612739000000005
 30
0.0
 11
107.400886
 21
83.612739000000005
 31
0.0
  0
LINE
  5
13C
  8
0
 10
152.90088600000001
 20
83.612739000000005
 30
0.0
 11
154.40088600000001
 21
82.112739000000005
 31
0.0
  0
LINE
  5
13D
  8
0
 10
154.40088600000001
 20
75.112739000000005
 30
0.0
 11
152.90088600000001
 21
73.612739000000005
 31
0.0
  0
LINE
  5
13E
  8
0
 10
152.90088600000001
 20
83.612739000000005
 30
0.0
 11
152.90088600000001
 21
73.612739000000005
 31
0.0
  0
LINE
  5
13F
  8
3
 10
107.400886
 20
82.612739000000005
 30
0.0
 11
153.90088600000001
 21
82.612739000000005
 31
0.0
  0
LINE
  5
140
  8
3
 10
107.400886
 20
82.612739000000005
 30
0.0
 11
105.668835
 21
83.612739000000005
 31
0.0
  0
LINE
  5
141
  8
3
 10
107.400886
 20
74.612739000000005
 30
0.0
 11
153.90088600000001
 21
74.612739000000005
 31
0.0
  0
LINE
  5
142
  8
3
 10
107.400886
 20
74.612739000000005
 30
0.0
 11
105.668835
 21
73.612739000000005
 31
0.0
  0
ARC
  5
143
  8
0
 10
104.80088600000001
 20
73.212738999999999
 30
0.0
 40
0.4
 50
90.0
 51
180.0
  0
ARC
  5
144
  8
0
 10
104.80088600000001
 20
84.012738999999996
 30
0.0
 40
0.4
 50
180.0
 51
270.0
  0
LINE
  5
145
  8
0
 10
98.904411999999994
 20
73.705262000000005
 30
0.0
 11
104.400886
 21
73.705262000000005
 31
0.0
  0
LINE
  5
146
  8
0
 10
98.904411999999994
 20
83.520216000000005
 30
0.0
 11
104.400886
 21
83.520216000000005
 31
0.0
  0
LINE
  5
147
  8
0
 10
98.974851000000001
 20
88.427693000000005
 30
0.0
 11
104.400886
 21
88.427693000000005
 31
0.0
  0
ARC
  5
148
  8
0
 10
101.784499
 20
85.973955000000004
 30
0.0
 40
3.783614
 50
171.150971
 51
220.42989700000001
  0
ARC
  5
149
  8
0
 10
101.784499
 20
71.251522999999992
 30
0.0
 40
3.783614
 50
139.57010299999999
 51
188.849029
  0
ARC
  5
14A
  8
0
 10
111.794541
 20
78.612739000000005
 30
0.0
 40
13.792706000000001
 50
159.157374
 51
200.842626
  0
LINE
  5
14B
  8
0
 10
98.974851000000001
 20
68.797783999999993
 30
0.0
 11
104.400886
 21
68.797783999999993
 31
0.0
  0
LINE
  5
14C
  8
0
 10
104.400886
 20
68.797783999999993
 30
0.0
 11
104.400886
 21
88.427693000000005
 31
0.0
  0
LINE
  5
14D
  8
1
 10
91.400886
 20
78.612739000000005
 30
0.0
 11
159.40088600000001
 21
78.612739000000005
 31
0.0
  0
INSERT
  5
14E
  8
0
  2
NM10B
 10
122.559708
 20
78.612739000000005
 30
0.0
  0
TEXT
  5
31A
  8
0
 62
     3
 10
0.0
 20
0.0
 30
0.0
 40
10.0
  1
BJ732-10050
  7
STANDARD1
  0
ENDSEC
  0
EOF
