  0
SECTION
  2
HEADER
  9
$ACADVER
  1
AC1009
  9
$INSBASE
 10
0.0
 20
0.0
 30
0.0
  9
$EXTMIN
 10
0.0
 20
-1.4802182810368341
 30
0.0
  9
$EXTMAX
 10
124.0
 20
118.0
 30
0.0
  9
$LIMMIN
 10
0.0
 20
0.0
  9
$LIMMAX
 10
187.5
 20
135.0
  9
$ORTHOMODE
 70
     0
  9
$REGENMODE
 70
     1
  9
$FILLMODE
 70
     1
  9
$QTEXTMODE
 70
     0
  9
$MIRRTEXT
 70
     0
  9
$DRAGMODE
 70
     2
  9
$LTSCALE
 40
5.0
  9
$OSMODE
 70
  3071
  9
$ATTMODE
 70
     1
  9
$TEXTSIZE
 40
0.2
  9
$TRACEWID
 40
0.05
  9
$TEXTSTYLE
  7
STANDARD
  9
$CLAYER
  8
0
  9
$CELTYPE
  6
BYLAYER
  9
$CECOLOR
 62
   256
  9
$DIMSCALE
 40
0.5
  9
$DIMASZ
 40
3.0
  9
$DIMEXO
 40
2.0
  9
$DIMDLI
 40
0.38
  9
$DIMRND
 40
0.0
  9
$DIMDLE
 40
0.0
  9
$DIMEXE
 40
2.0
  9
$DIMTP
 40
0.0
  9
$DIMTM
 40
0.0
  9
$DIMTXT
 40
3.2000000000000002
  9
$DIMCEN
 40
0.0
  9
$DIMTSZ
 40
0.0
  9
$DIMTOL
 70
     0
  9
$DIMLIM
 70
     0
  9
$DIMTIH
 70
     0
  9
$DIMTOH
 70
     0
  9
$DIMSE1
 70
     0
  9
$DIMSE2
 70
     0
  9
$DIMTAD
 70
     1
  9
$DIMZIN
 70
     0
  9
$DIMBLK
  1

  9
$DIMASO
 70
     0
  9
$DIMSHO
 70
     0
  9
$DIMPOST
  1

  9
$DIMAPOST
  1

  9
$DIMALT
 70
     0
  9
$DIMALTD
 70
     2
  9
$DIMALTF
 40
25.399999999999999
  9
$DIMLFAC
 40
1.0
  9
$DIMTOFL
 70
     1
  9
$DIMTVP
 40
1.6000000000000001
  9
$DIMTIX
 70
     1
  9
$DIMSOXD
 70
     0
  9
$DIMSAH
 70
     0
  9
$DIMBLK1
  1

  9
$DIMBLK2
  1

  9
$DIMSTYLE
  2
STANDARD
  9
$DIMCLRD
 70
     0
  9
$DIMCLRE
 70
     0
  9
$DIMCLRT
 70
     0
  9
$DIMTFAC
 40
1.0
  9
$DIMGAP
 40
0.09
  9
$LUNITS
 70
     2
  9
$LUPREC
 70
     4
  9
$SKETCHINC
 40
0.1
  9
$FILLETRAD
 40
0.0
  9
$AUNITS
 70
     0
  9
$AUPREC
 70
     4
  9
$MENU
  1
E:\r13\win\SUPPORT\ACAD
  9
$ELEVATION
 40
0.0
  9
$PELEVATION
 40
0.0
  9
$THICKNESS
 40
0.0
  9
$LIMCHECK
 70
     0
  9
$BLIPMODE
 70
     0
  9
$CHAMFERA
 40
0.0
  9
$CHAMFERB
 40
0.0
  9
$SKPOLY
 70
     0
  9
$TDCREATE
 40
2449839.7678356478
  9
$TDUPDATE
 40
2456597.6900339699
  9
$TDINDWG
 40
0.0006929745
  9
$TDUSRTIMER
 40
0.0006929745
  9
$USRTIMER
 70
     1
  9
$ANGBASE
 50
0.0
  9
$ANGDIR
 70
     0
  9
$PDMODE
 70
     0
  9
$PDSIZE
 40
0.0
  9
$PLINEWID
 40
0.0
  9
$COORDS
 70
     1
  9
$SPLFRAME
 70
     0
  9
$SPLINETYPE
 70
     6
  9
$SPLINESEGS
 70
     8
  9
$ATTDIA
 70
     0
  9
$ATTREQ
 70
     1
  9
$HANDLING
 70
     1
  9
$HANDSEED
  5
28D
  9
$SURFTAB1
 70
     6
  9
$SURFTAB2
 70
     6
  9
$SURFTYPE
 70
     6
  9
$SURFU
 70
     6
  9
$SURFV
 70
     6
  9
$UCSNAME
  2

  9
$UCSORG
 10
0.0
 20
0.0
 30
0.0
  9
$UCSXDIR
 10
1.0
 20
0.0
 30
0.0
  9
$UCSYDIR
 10
0.0
 20
1.0
 30
0.0
  9
$PUCSNAME
  2

  9
$PUCSORG
 10
0.0
 20
0.0
 30
0.0
  9
$PUCSXDIR
 10
1.0
 20
0.0
 30
0.0
  9
$PUCSYDIR
 10
0.0
 20
1.0
 30
0.0
  9
$USERI1
 70
     3
  9
$USERI2
 70
     1
  9
$USERI3
 70
     1
  9
$USERI4
 70
     0
  9
$USERI5
 70
     0
  9
$USERR1
 40
0.0
  9
$USERR2
 40
0.0
  9
$USERR3
 40
0.0
  9
$USERR4
 40
0.0
  9
$USERR5
 40
0.0
  9
$WORLDVIEW
 70
     1
  9
$SHADEDGE
 70
     3
  9
$SHADEDIF
 70
    70
  9
$TILEMODE
 70
     1
  9
$MAXACTVP
 70
    16
  9
$PLIMCHECK
 70
     0
  9
$PEXTMIN
 10
1.0000000000000000E+020
 20
1.0000000000000000E+020
 30
1.0000000000000000E+020
  9
$PEXTMAX
 10
-1.0000000000000000E+020
 20
-1.0000000000000000E+020
 30
-1.0000000000000000E+020
  9
$PLIMMIN
 10
0.0
 20
0.0
  9
$PLIMMAX
 10
12.0
 20
9.0
  9
$UNITMODE
 70
     0
  9
$VISRETAIN
 70
     0
  9
$PLINEGEN
 70
     0
  9
$PSLTSCALE
 70
     0
  0
ENDSEC
  0
SECTION
  2
TABLES
  0
TABLE
  2
VPORT
 70
     1
  0
VPORT
  2
*ACTIVE
 70
     0
 10
0.0
 20
0.0
 11
1.0
 21
1.0
 12
97.52905416604365
 22
66.75636307133405
 13
0.0
 23
0.0
 14
5.0
 24
5.0
 15
5.0
 25
5.0
 16
0.0
 26
0.0
 36
1.0
 17
0.0
 27
0.0
 37
0.0
 40
137.71137496815999
 41
1.831871345029239
 42
50.0
 43
0.0
 44
0.0
 50
0.0
 51
0.0
 71
     0
 72
   500
 73
     1
 74
     0
 75
     0
 76
     0
 77
     0
 78
     2
  0
ENDTAB
  0
TABLE
  2
LTYPE
 70
     3
  0
LTYPE
  2
CONTINUOUS
 70
     0
  3
Solid Line
 72
    65
 73
     0
 40
0.0
  0
LTYPE
  2
CENTER
 70
     0
  3
____ _ ____ _ ____ _ ____ _ ____ _ ____ _ ____
 72
    65
 73
     4
 40
2.0
 49
1.25
 49
-0.25
 49
0.25
 49
-0.25
  0
LTYPE
  2
PHANTOM2
 70
     0
  3
___ _ _ ___ _ _ ___ _ _ ___ _ _
 72
    65
 73
     6
 40
1.25
 49
0.625
 49
-0.125
 49
0.125
 49
-0.125
 49
0.125
 49
-0.125
  0
ENDTAB
  0
TABLE
  2
LAYER
 70
     3
  0
LAYER
  2
0
 70
     0
 62
     7
  6
CONTINUOUS
  0
LAYER
  2
1
 70
     0
 62
     1
  6
CENTER
  0
LAYER
  2
3
 70
     0
 62
     3
  6
CONTINUOUS
  0
ENDTAB
  0
TABLE
  2
STYLE
 70
     2
  0
STYLE
  2
STANDARD
 70
     0
 40
0.0
 41
1.0
 50
0.0
 71
     0
 42
0.2
  3
TXT
  4
BIGFONT
  0
STYLE
  2
STANDARD1
 70
     0
 40
0.0
 41
1.0
 50
0.0
 71
     0
 42
3.0
  3
txt
  4

  0
ENDTAB
  0
TABLE
  2
VIEW
 70
     1
  0
VIEW
  2
ALL
 70
     0
 40
179.5384664489153
 10
135.0
 20
89.769233224457665
 41
0.0
 11
0.0
 21
0.0
 31
1.0
 12
0.0
 22
0.0
 32
0.0
 42
0.0
 43
0.0
 44
0.0
 50
0.0
 71
     0
  0
ENDTAB
  0
TABLE
  2
UCS
 70
     0
  0
ENDTAB
  0
TABLE
  2
APPID
 70
     3
  0
APPID
  2
ACAD
 70
     0
  0
APPID
  2
ACAD_MLEADERVER
 70
     0
  0
APPID
  2
ACAD_NAV_VCDISPLAY
 70
     0
  0
ENDTAB
  0
TABLE
  2
DIMSTYLE
 70
     1
  0
DIMSTYLE
  2
STANDARD
 70
     0
  3

  4

  5

  6

  7

 40
1.0
 41
0.18
 42
0.0625
 43
0.38
 44
0.18
 45
0.0
 46
0.0
 47
0.0
 48
0.0
140
0.18
141
0.09
142
0.0
143
25.399999999999999
144
1.0
145
0.0
146
1.0
147
0.09
 71
     0
 72
     0
 73
     1
 74
     1
 75
     0
 76
     0
 77
     0
 78
     0
170
     0
171
     2
172
     0
173
     0
174
     0
175
     0
176
     0
177
     0
178
     0
  0
ENDTAB
  0
ENDSEC
  0
SECTION
  2
BLOCKS
  0
BLOCK
  8
0
  2
$MODEL_SPACE
 70
     0
 10
0.0
 20
0.0
 30
0.0
  3
$MODEL_SPACE
  1

  0
ENDBLK
  5
142
  8
0
  0
BLOCK
 67
     1
  8
0
  2
$PAPER_SPACE
 70
     0
 10
0.0
 20
0.0
 30
0.0
  3
$PAPER_SPACE
  1

  0
ENDBLK
  5
140
 67
     1
  8
0
  0
ENDSEC
  0
SECTION
  2
ENTITIES
  0
LINE
  5
35
  8
1
 10
65.0
 20
14.0
 30
0.0
 11
65.0
 21
70.0
 31
0.0
  0
LINE
  5
36
  8
0
 10
73.569568250501476
 20
48.000000000000021
 30
0.0
 11
65.0
 21
48.0
 31
0.0
  0
LINE
  5
37
  8
0
 10
71.113248654044725
 20
65.0
 30
0.0
 11
74.0
 21
60.0
 31
0.0
  0
LINE
  5
38
  8
0
 10
58.886751345955268
 20
65.0
 30
0.0
 11
56.0
 21
60.0
 31
0.0
  0
LINE
  5
39
  8
0
 10
74.0
 20
60.0
 30
0.0
 11
74.0
 21
21.000000000000011
 31
0.0
  0
LINE
  5
3A
  8
0
 10
58.886751345955268
 20
65.0
 30
0.0
 11
71.113248654044725
 21
65.0
 31
0.0
  0
LINE
  5
3B
  8
0
 10
56.0
 20
21.000000000000011
 30
0.0
 11
74.0
 21
21.000000000000011
 31
0.0
  0
CIRCLE
  5
3E
  8
0
 10
65.000000000000014
 20
105.0
 30
0.0
 40
6.1132486540447166
  0
CIRCLE
  5
3F
  8
0
 10
65.000000000000014
 20
105.0
 30
0.0
 40
2.0000000000000142
  0
CIRCLE
  5
40
  8
3
 10
65.000000000000014
 20
105.0
 30
0.0
 40
2.5
  0
LINE
  5
41
  8
1
 10
65.000000000000014
 20
91.999999999999986
 30
0.0
 11
65.000000000000014
 21
118.0
 31
0.0
  0
LINE
  5
42
  8
1
 10
52.000000000000007
 20
105.0
 30
0.0
 11
78.000000000000014
 21
105.0
 31
0.0
  0
LINE
  5
43
  8
0
 10
73.569568250501405
 20
107.75
 30
0.0
 11
65.000000000000014
 21
112.6976425362658
 31
0.0
  0
LINE
  5
44
  8
0
 10
73.569568250501604
 20
102.2500000000001
 30
0.0
 11
65.000000000000014
 21
97.302357463734154
 31
0.0
  0
LINE
  5
45
  8
0
 10
56.430431749498347
 20
107.7499999999998
 30
0.0
 11
65.000000000000014
 21
112.6976425362658
 31
0.0
  0
LINE
  5
46
  8
0
 10
56.430431749498723
 20
102.2499999999999
 30
0.0
 11
65.000000000000014
 21
97.302357463734154
 31
0.0
  0
LINE
  5
47
  8
0
 10
73.569568250501476
 20
60.0
 30
0.0
 11
73.569568250501476
 21
48.000000000000021
 31
0.0
  0
LINE
  5
48
  8
0
 10
65.0
 20
48.0
 30
0.0
 11
65.0
 21
62.255749296791699
 31
0.0
  0
LINE
  5
49
  8
3
 10
65.0
 20
48.0
 30
0.0
 11
73.569568250501476
 21
60.0
 31
0.0
  0
LINE
  5
4A
  8
3
 10
73.569568250501476
 20
48.000000000000021
 30
0.0
 11
65.0
 21
62.255749296791763
 31
0.0
  0
LINE
  5
4B
  8
0
 10
74.0
 20
21.000000000000011
 30
0.0
 11
72.845299461620755
 21
19.000000000000011
 31
0.0
  0
LINE
  5
4C
  8
0
 10
72.845299461620755
 20
19.000000000000011
 30
0.0
 11
57.154700538379252
 21
19.000000000000011
 31
0.0
  0
LINE
  5
4D
  8
0
 10
56.0
 20
21.000000000000011
 30
0.0
 11
57.154700538379252
 21
19.000000000000011
 31
0.0
  0
LINE
  5
4E
  8
0
 10
56.0
 20
21.000000000000011
 30
0.0
 11
56.0
 21
60.0
 31
0.0
  0
CIRCLE
  5
4F
  8
0
 10
65.000000000000014
 20
105.0
 30
0.0
 40
9.0
  0
CIRCLE
  5
50
  8
0
 10
65.000000000000014
 20
105.0
 30
0.0
 40
3.0
  0
ARC
  5
51
  8
0
 10
68.282355912175547
 20
60.412750127973808
 30
0.0
 40
3.7643732905300391
 50
89.226452408330388
 51
150.6863690900141
  0
ARC
  5
52
  8
0
 10
68.437406245968035
 20
58.936653558405787
 30
0.0
 40
5.2411632769478258
 50
11.70563909087903
 51
91.139497033036122
  0
LINE
  5
53
  8
0
 10
74.0
 20
59.999999999999993
 30
0.0
 11
73.569568250501291
 21
59.99999999999973
 31
0.0
  0
LINE
  5
54
  8
0
 10
56.0
 20
59.999999999999993
 30
0.0
 11
56.430431749498709
 21
59.99999999999973
 31
0.0
  0
ARC
  5
55
  8
0
 10
61.562593754031958
 20
58.936653558405787
 30
0.0
 40
5.2411632769478258
 50
88.860502966963907
 51
168.294360909121
  0
ARC
  5
56
  8
0
 10
61.717644087824453
 20
60.412750127973808
 30
0.0
 40
3.7643732905300391
 50
29.313630909985921
 51
90.773547591669626
  0
LINE
  5
57
  8
3
 10
56.430431749498517
 20
48.000000000000021
 30
0.0
 11
65.0
 21
62.255749296791763
 31
0.0
  0
LINE
  5
58
  8
3
 10
65.0
 20
48.0
 30
0.0
 11
56.430431749498517
 21
60.0
 31
0.0
  0
LINE
  5
59
  8
0
 10
56.430431749498517
 20
60.0
 30
0.0
 11
56.430431749498517
 21
48.000000000000021
 31
0.0
  0
LINE
  5
5A
  8
0
 10
56.430431749498517
 20
48.000000000000021
 30
0.0
 11
65.0
 21
48.0
 31
0.0
  0
LINE
  5
5B
  8
0
 10
106.0
 20
21.000000000000011
 30
0.0
 11
106.0
 21
48.0
 31
0.0
  0
LINE
  5
5C
  8
0
 10
106.0
 20
21.000000000000011
 30
0.0
 11
107.1547005383792
 21
19.000000000000011
 31
0.0
  0
LINE
  5
5D
  8
0
 10
122.8452994616207
 20
19.000000000000011
 30
0.0
 11
107.1547005383792
 21
19.000000000000011
 31
0.0
  0
LINE
  5
5E
  8
0
 10
124.0
 20
21.000000000000011
 30
0.0
 11
122.8452994616207
 21
19.000000000000011
 31
0.0
  0
LINE
  5
5F
  8
0
 10
106.0
 20
21.000000000000011
 30
0.0
 11
124.0
 21
21.000000000000011
 31
0.0
  0
LINE
  5
60
  8
0
 10
108.8867513459552
 20
65.0
 30
0.0
 11
121.1132486540447
 21
65.0
 31
0.0
  0
LINE
  5
61
  8
0
 10
124.0
 20
48.000000000000021
 30
0.0
 11
124.0
 21
21.000000000000011
 31
0.0
  0
LINE
  5
62
  8
0
 10
108.8867513459552
 20
65.0
 30
0.0
 11
107.3023574637341
 21
62.255749296798427
 31
0.0
  0
LINE
  5
63
  8
0
 10
121.1132486540447
 20
65.0
 30
0.0
 11
122.6976425362659
 21
62.255749296798378
 31
0.0
  0
LINE
  5
64
  8
0
 10
124.0
 20
48.000000000000028
 30
0.0
 11
117.7500000000001
 21
48.000000000000021
 31
0.0
  0
LINE
  5
65
  8
1
 10
115.0
 20
14.0
 30
0.0
 11
115.0
 21
70.0
 31
0.0
  0
LINE
  5
66
  8
0
 10
122.6976425362659
 20
62.255749296798449
 30
0.0
 11
122.6976425362659
 21
48.000000000000028
 31
0.0
  0
LINE
  5
67
  8
0
 10
117.7500000000001
 20
60.000000000000071
 30
0.0
 11
117.7500000000001
 21
48.000000000000007
 31
0.0
  0
LINE
  5
68
  8
0
 10
112.2499999999999
 20
60.000000000000071
 30
0.0
 11
117.7500000000001
 21
60.000000000000078
 31
0.0
  0
LINE
  5
69
  8
0
 10
107.3023574637341
 20
62.255749296798449
 30
0.0
 11
107.302357463734
 21
48.000000000000028
 31
0.0
  0
LINE
  5
6A
  8
0
 10
108.8867513459552
 20
65.0
 30
0.0
 11
107.302357463734
 21
62.255749296798378
 31
0.0
  0
LINE
  5
6B
  8
0
 10
112.2499999999999
 20
60.000000000000071
 30
0.0
 11
112.2499999999998
 21
48.000000000000007
 31
0.0
  0
LINE
  5
6C
  8
0
 10
112.2499999999999
 20
48.000000000000007
 30
0.0
 11
106.0
 21
47.999999999999993
 31
0.0
  0
LINE
  5
6D
  8
3
 10
112.2499999999999
 20
60.000000000000071
 30
0.0
 11
107.302357463734
 21
48.0
 31
0.0
  0
LINE
  5
6E
  8
3
 10
112.2499999999998
 20
48.000000000000007
 30
0.0
 11
107.3023574637341
 21
62.255749296798442
 31
0.0
  0
LINE
  5
6F
  8
3
 10
117.7500000000001
 20
48.000000000000007
 30
0.0
 11
122.6976425362659
 21
62.255749296798442
 31
0.0
  0
LINE
  5
70
  8
3
 10
117.7500000000001
 20
60.000000000000071
 30
0.0
 11
122.6976425362659
 21
48.0
 31
0.0
  0
POLYLINE
  5
71
  8
0
 66
     1
 10
0.0
 20
0.0
 30
0.0
  0
VERTEX
  5
72
  8
0
 10
112.2499999999999
 20
60.000000000000028
 30
0.0
 42
0.0666049088463867
  0
VERTEX
  5
73
  8
0
 10
112.0274268408392
 20
61.663434278794739
 30
0.0
 42
0.0791241096454163
  0
VERTEX
  5
74
  8
0
 10
111.4452341334042
 20
62.953429706746952
 30
0.0
 42
0.1071543852889265
 70
     2
 50
123.3384165374198
  0
VERTEX
  5
75
  8
0
 10
110.4232516443282
 20
63.955252180182441
 30
0.0
 42
0.1643926884409226
 50
123.3384165374198
  0
VERTEX
  5
76
  8
0
 10
109.5023574637341
 20
64.176780346797131
 30
0.0
 42
0.1414173027652621
  0
VERTEX
  5
77
  8
0
 10
108.5174906254009
 20
63.892541471443813
 30
0.0
 42
0.0490343340892573
  0
VERTEX
  5
78
  8
0
 10
108.02810337040501
 20
63.512778080534567
 30
0.0
 42
0.0791241096453948
 70
     2
 50
236.66158346257961
  0
SEQEND
  5
79
  8
0
  0
POLYLINE
  5
7A
  8
0
 66
     1
 10
0.0
 20
0.0
 30
0.0
  0
VERTEX
  5
7B
  8
0
 10
117.7500000000001
 20
60.000000000000028
 30
0.0
 42
-0.0666049088463867
  0
VERTEX
  5
7C
  8
0
 10
117.9725731591608
 20
61.663434278794739
 30
0.0
 42
-0.0791241096454163
  0
VERTEX
  5
7D
  8
0
 10
118.5547658665957
 20
62.953429706746952
 30
0.0
 42
-0.1071543852889265
 70
     2
 50
56.661583462580239
  0
VERTEX
  5
7E
  8
0
 10
119.5767483556718
 20
63.955252180182441
 30
0.0
 42
-0.1643926884409226
  0
VERTEX
  5
7F
  8
0
 10
120.4976425362658
 20
64.176780346797131
 30
0.0
 42
-0.1414173027652621
  0
VERTEX
  5
80
  8
0
 10
121.482509374599
 20
63.892541471443813
 30
0.0
 42
-0.0490343340892573
  0
VERTEX
  5
81
  8
0
 10
121.97189662959489
 20
63.512778080534567
 30
0.0
 42
-0.0791241096453948
 70
     2
 50
303.33841653742053
  0
SEQEND
  5
82
  8
0
  0
TEXT
  5
1FC
  8
0
 62
     3
 10
0.0
 20
0.0
 30
0.0
 40
5.0
  1
BJ722-18001
  7
STANDARD1
  0
ENDSEC
  0
EOF
