  0
SECTION
  2
HEADER
  9
$ACADVER
  1
AC1009
  9
$INSBASE
 10
0.0
 20
0.0
 30
0.0
  9
$EXTMIN
 10
0.0
 20
-2.960436562073669
 30
0.0
  9
$EXTMAX
 10
83.110504774897677
 20
108.6075218407551
 30
0.0
  9
$LIMMIN
 10
0.0
 20
0.0
  9
$LIMMAX
 10
375.0
 20
270.0
  9
$ORTHOMODE
 70
     1
  9
$REGENMODE
 70
     1
  9
$FILLMODE
 70
     1
  9
$QTEXTMODE
 70
     0
  9
$MIRRTEXT
 70
     0
  9
$DRAGMODE
 70
     2
  9
$LTSCALE
 40
10.0
  9
$OSMODE
 70
  3071
  9
$ATTMODE
 70
     1
  9
$TEXTSIZE
 40
0.2
  9
$TRACEWID
 40
0.05
  9
$TEXTSTYLE
  7
STANDARD
  9
$CLAYER
  8
0
  9
$CELTYPE
  6
BYLAYER
  9
$CECOLOR
 62
   256
  9
$DIMSCALE
 40
1.0
  9
$DIMASZ
 40
3.0
  9
$DIMEXO
 40
2.0
  9
$DIMDLI
 40
0.38
  9
$DIMRND
 40
0.0
  9
$DIMDLE
 40
0.0
  9
$DIMEXE
 40
2.0
  9
$DIMTP
 40
0.0
  9
$DIMTM
 40
0.0
  9
$DIMTXT
 40
3.2000000000000002
  9
$DIMCEN
 40
0.0
  9
$DIMTSZ
 40
0.0
  9
$DIMTOL
 70
     0
  9
$DIMLIM
 70
     0
  9
$DIMTIH
 70
     0
  9
$DIMTOH
 70
     0
  9
$DIMSE1
 70
     0
  9
$DIMSE2
 70
     0
  9
$DIMTAD
 70
     1
  9
$DIMZIN
 70
     0
  9
$DIMBLK
  1

  9
$DIMASO
 70
     0
  9
$DIMSHO
 70
     0
  9
$DIMPOST
  1

  9
$DIMAPOST
  1

  9
$DIMALT
 70
     0
  9
$DIMALTD
 70
     2
  9
$DIMALTF
 40
25.399999999999999
  9
$DIMLFAC
 40
1.0
  9
$DIMTOFL
 70
     1
  9
$DIMTVP
 40
1.6000000000000001
  9
$DIMTIX
 70
     1
  9
$DIMSOXD
 70
     0
  9
$DIMSAH
 70
     0
  9
$DIMBLK1
  1

  9
$DIMBLK2
  1

  9
$DIMSTYLE
  2
STANDARD
  9
$DIMCLRD
 70
     0
  9
$DIMCLRE
 70
     0
  9
$DIMCLRT
 70
     0
  9
$DIMTFAC
 40
1.0
  9
$DIMGAP
 40
0.09
  9
$LUNITS
 70
     2
  9
$LUPREC
 70
     4
  9
$SKETCHINC
 40
0.1
  9
$FILLETRAD
 40
0.0
  9
$AUNITS
 70
     0
  9
$AUPREC
 70
     4
  9
$MENU
  1
E:\r13\win\SUPPORT\ACAD
  9
$ELEVATION
 40
0.0
  9
$PELEVATION
 40
0.0
  9
$THICKNESS
 40
0.0
  9
$LIMCHECK
 70
     0
  9
$BLIPMODE
 70
     0
  9
$CHAMFERA
 40
0.0
  9
$CHAMFERB
 40
0.0
  9
$SKPOLY
 70
     0
  9
$TDCREATE
 40
2449839.764699074
  9
$TDUPDATE
 40
2456602.6155902082
  9
$TDINDWG
 40
0.0276877199
  9
$TDUSRTIMER
 40
2456598.404894664
  9
$USRTIMER
 70
     1
  9
$ANGBASE
 50
0.0
  9
$ANGDIR
 70
     0
  9
$PDMODE
 70
     0
  9
$PDSIZE
 40
0.0
  9
$PLINEWID
 40
0.0
  9
$COORDS
 70
     1
  9
$SPLFRAME
 70
     0
  9
$SPLINETYPE
 70
     6
  9
$SPLINESEGS
 70
     8
  9
$ATTDIA
 70
     0
  9
$ATTREQ
 70
     1
  9
$HANDLING
 70
     1
  9
$HANDSEED
  5
10B5
  9
$SURFTAB1
 70
     6
  9
$SURFTAB2
 70
     6
  9
$SURFTYPE
 70
     6
  9
$SURFU
 70
     6
  9
$SURFV
 70
     6
  9
$UCSNAME
  2

  9
$UCSORG
 10
0.0
 20
0.0
 30
0.0
  9
$UCSXDIR
 10
1.0
 20
0.0
 30
0.0
  9
$UCSYDIR
 10
0.0
 20
1.0
 30
0.0
  9
$PUCSNAME
  2

  9
$PUCSORG
 10
0.0
 20
0.0
 30
0.0
  9
$PUCSXDIR
 10
1.0
 20
0.0
 30
0.0
  9
$PUCSYDIR
 10
0.0
 20
1.0
 30
0.0
  9
$USERI1
 70
     0
  9
$USERI2
 70
     1
  9
$USERI3
 70
     0
  9
$USERI4
 70
     0
  9
$USERI5
 70
     0
  9
$USERR1
 40
0.0
  9
$USERR2
 40
0.0
  9
$USERR3
 40
0.0
  9
$USERR4
 40
0.0
  9
$USERR5
 40
0.0
  9
$WORLDVIEW
 70
     1
  9
$SHADEDGE
 70
     3
  9
$SHADEDIF
 70
    70
  9
$TILEMODE
 70
     1
  9
$MAXACTVP
 70
    16
  9
$PLIMCHECK
 70
     0
  9
$PEXTMIN
 10
1.0000000000000000E+020
 20
1.0000000000000000E+020
 30
1.0000000000000000E+020
  9
$PEXTMAX
 10
-1.0000000000000000E+020
 20
-1.0000000000000000E+020
 30
-1.0000000000000000E+020
  9
$PLIMMIN
 10
0.0
 20
0.0
  9
$PLIMMAX
 10
12.0
 20
9.0
  9
$UNITMODE
 70
     0
  9
$VISRETAIN
 70
     0
  9
$PLINEGEN
 70
     0
  9
$PSLTSCALE
 70
     0
  0
ENDSEC
  0
SECTION
  2
TABLES
  0
TABLE
  2
VPORT
 70
     1
  0
VPORT
  2
*ACTIVE
 70
     0
 10
0.0
 20
0.0
 11
1.0
 21
1.0
 12
195.0581083320873
 22
133.5127261426681
 13
0.0
 23
0.0
 14
10.0
 24
10.0
 15
10.0
 25
10.0
 16
0.0
 26
0.0
 36
1.0
 17
0.0
 27
0.0
 37
0.0
 40
275.42274993631997
 41
1.831871345029239
 42
50.0
 43
0.0
 44
0.0
 50
0.0
 51
0.0
 71
     0
 72
   500
 73
     1
 74
     0
 75
     0
 76
     0
 77
     0
 78
     2
  0
ENDTAB
  0
TABLE
  2
LTYPE
 70
     4
  0
LTYPE
  2
CONTINUOUS
 70
     0
  3
Solid Line
 72
    65
 73
     0
 40
0.0
  0
LTYPE
  2
CENTER
 70
     0
  3
____ _ ____ _ ____ _ ____ _ ____ _ ____ _ ____
 72
    65
 73
     4
 40
2.0
 49
1.25
 49
-0.25
 49
0.25
 49
-0.25
  0
LTYPE
  2
HIDDEN
 70
     0
  3
_ _ _ _ _ _ _ _ _ _ _ _ _ _ _ _ _ _ _ _ _ _ _
 72
    65
 73
     2
 40
0.375
 49
0.25
 49
-0.125
  0
LTYPE
  2
PHANTOM2
 70
     0
  3
___ _ _ ___ _ _ ___ _ _ ___ _ _
 72
    65
 73
     6
 40
1.25
 49
0.625
 49
-0.125
 49
0.125
 49
-0.125
 49
0.125
 49
-0.125
  0
ENDTAB
  0
TABLE
  2
LAYER
 70
     5
  0
LAYER
  2
0
 70
     0
 62
     7
  6
CONTINUOUS
  0
LAYER
  2
1
 70
     0
 62
     1
  6
CENTER
  0
LAYER
  2
2
 70
     0
 62
     2
  6
HIDDEN
  0
LAYER
  2
3
 70
     0
 62
     3
  6
CONTINUOUS
  0
LAYER
  2
DEFPOINTS
 70
     0
 62
     7
  6
CONTINUOUS
  0
ENDTAB
  0
TABLE
  2
STYLE
 70
     2
  0
STYLE
  2
STANDARD
 70
     0
 40
0.0
 41
1.0
 50
0.0
 71
     0
 42
0.2
  3
TXT
  4
BIGFONT
  0
STYLE
  2
STANDARD1
 70
     0
 40
0.0
 41
1.0
 50
0.0
 71
     0
 42
3.0
  3
txt
  4

  0
ENDTAB
  0
TABLE
  2
VIEW
 70
     1
  0
VIEW
  2
ALL
 70
     0
 40
270.0
 10
220.99159663865549
 20
135.0
 41
0.0
 11
0.0
 21
0.0
 31
1.0
 12
0.0
 22
0.0
 32
0.0
 42
0.0
 43
0.0
 44
0.0
 50
0.0
 71
     0
  0
ENDTAB
  0
TABLE
  2
UCS
 70
     0
  0
ENDTAB
  0
TABLE
  2
APPID
 70
     3
  0
APPID
  2
ACAD
 70
     0
  0
APPID
  2
ACAD_MLEADERVER
 70
     0
  0
APPID
  2
ACAD_NAV_VCDISPLAY
 70
     0
  0
ENDTAB
  0
TABLE
  2
DIMSTYLE
 70
     1
  0
DIMSTYLE
  2
STANDARD
 70
     0
  3

  4

  5

  6

  7

 40
1.0
 41
0.18
 42
0.0625
 43
0.38
 44
0.18
 45
0.0
 46
0.0
 47
0.0
 48
0.0
140
0.18
141
0.09
142
0.0
143
25.399999999999999
144
1.0
145
0.0
146
1.0
147
0.09
 71
     0
 72
     0
 73
     1
 74
     1
 75
     0
 76
     0
 77
     0
 78
     0
170
     0
171
     2
172
     0
173
     0
174
     0
175
     0
176
     0
177
     0
178
     0
  0
ENDTAB
  0
ENDSEC
  0
SECTION
  2
BLOCKS
  0
BLOCK
  8
0
  2
$MODEL_SPACE
 70
     0
 10
0.0
 20
0.0
 30
0.0
  3
$MODEL_SPACE
  1

  0
ENDBLK
  5
159
  8
0
  0
BLOCK
 67
     1
  8
0
  2
$PAPER_SPACE
 70
     0
 10
0.0
 20
0.0
 30
0.0
  3
$PAPER_SPACE
  1

  0
ENDBLK
  5
157
 67
     1
  8
0
  0
ENDSEC
  0
SECTION
  2
ENTITIES
  0
CIRCLE
  5
56B
  8
0
 10
24.279851744691769
 20
100.607521840755
 30
0.0
 40
4.8999999999999977
  0
CIRCLE
  5
56C
  8
0
 10
24.279851744691769
 20
100.607521840755
 30
0.0
 40
3.5
  0
CIRCLE
  5
56D
  8
0
 10
24.279851744691769
 20
100.607521840755
 30
0.0
 40
2.499999999999992
  0
CIRCLE
  5
575
  8
3
 10
24.279851744691769
 20
100.607521840755
 30
0.0
 40
3.0
  0
LINE
  5
576
  8
0
 10
18.506349052795461
 20
45.154414143236338
 30
0.0
 11
19.379851744691759
 21
44.650097128932138
 31
0.0
  0
LINE
  5
577
  8
0
 10
19.379851744691759
 20
76.650097128932146
 30
0.0
 11
18.506349052795461
 21
76.145780114627939
 31
0.0
  0
LINE
  5
578
  8
0
 10
21.279851744691769
 20
35.650097128932138
 30
0.0
 11
22.279851744691769
 21
34.650097128932153
 31
0.0
  0
LINE
  5
579
  8
0
 10
21.279851744691769
 20
42.650097128932138
 30
0.0
 11
21.279851744691769
 21
35.650097128932138
 31
0.0
  0
ARC
  5
57A
  8
0
 10
21.529851744691769
 20
43.05009712893208
 30
0.0
 40
0.4000000000000057
 50
270.0
 51
0.0
  0
ARC
  5
57B
  8
0
 10
21.529851744691769
 20
44.250097128932062
 30
0.0
 40
0.4000000000000057
 50
0.0
 51
90.0
  0
LINE
  5
57C
  8
0
 10
21.929851744691749
 20
44.250097128932111
 30
0.0
 11
21.929851744691749
 21
43.050097128932123
 31
0.0
  0
LINE
  5
57D
  8
0
 10
29.179851744691749
 20
44.650097128932138
 30
0.0
 11
19.379851744691759
 21
44.650097128932138
 31
0.0
  0
LINE
  5
57E
  8
0
 10
30.053354436587998
 20
45.154414143236238
 30
0.0
 11
29.179851744691749
 21
44.650097128932138
 31
0.0
  0
LINE
  5
582
  8
0
 10
21.393100398743631
 20
45.154414143236338
 30
0.0
 11
21.393100398743631
 21
76.145780114627996
 31
0.0
  0
LINE
  5
585
  8
0
 10
18.506349052795461
 20
45.154414143236338
 30
0.0
 11
18.506349052795461
 21
76.145780114627939
 31
0.0
  0
LINE
  5
587
  8
0
 10
29.179851744691781
 20
76.650097128932146
 30
0.0
 11
30.05335443658808
 21
76.145780114627939
 31
0.0
  0
LINE
  5
588
  8
0
 10
19.379851744691759
 20
76.650097128932146
 30
0.0
 11
29.179851744691629
 21
76.650097128932259
 31
0.0
  0
LINE
  5
58A
  8
2
 10
27.779851744691769
 20
76.650097128932146
 30
0.0
 11
26.779851744691769
 21
75.650097128932146
 31
0.0
  0
LINE
  5
58B
  8
2
 10
26.779851744691769
 20
75.650097128932146
 30
0.0
 11
21.779851744691769
 21
75.650097128932032
 31
0.0
  0
LINE
  5
58D
  8
0
 10
26.279851744691769
 20
34.650097128932153
 30
0.0
 11
22.279851744691769
 21
34.650097128932153
 31
0.0
  0
LINE
  5
58E
  8
0
 10
27.279851744691769
 20
35.650097128932138
 30
0.0
 11
26.279851744691769
 21
34.650097128932153
 31
0.0
  0
LINE
  5
58F
  8
0
 10
21.279851744691769
 20
35.650097128932138
 30
0.0
 11
27.27985174469174
 21
35.650097128932138
 31
0.0
  0
LINE
  5
591
  8
0
 10
27.279851744691769
 20
35.650097128932138
 30
0.0
 11
27.279851744691769
 21
42.650097128932138
 31
0.0
  0
LINE
  5
592
  8
0
 10
24.279851744691769
 20
42.650097128932138
 30
0.0
 11
21.279851744691769
 21
42.650097128932138
 31
0.0
  0
ARC
  5
594
  8
0
 10
27.029851744691769
 20
43.05009712893208
 30
0.0
 40
0.4000000000000057
 50
180.0
 51
270.0
  0
ARC
  5
596
  8
0
 10
27.029851744691769
 20
44.250097128932062
 30
0.0
 40
0.4000000000000057
 50
89.999999999988802
 51
180.0
  0
LINE
  5
598
  8
2
 10
26.779851744691769
 20
61.650097128932153
 30
0.0
 11
24.279851744691769
 21
60.147945581363217
 31
0.0
  0
LINE
  5
599
  8
2
 10
26.779851744691769
 20
61.650097128932153
 30
0.0
 11
24.279851744691769
 21
61.650097128932082
 31
0.0
  0
LINE
  5
59A
  8
2
 10
26.779851744691769
 20
75.650097128932146
 30
0.0
 11
26.779851744691769
 21
61.650097128932153
 31
0.0
  0
LINE
  5
59B
  8
0
 10
26.629851744691759
 20
43.050097128932123
 30
0.0
 11
26.629851744691759
 21
44.250097128932111
 31
0.0
  0
LINE
  5
59D
  8
0
 10
30.053354436587998
 20
45.154414143236238
 30
0.0
 11
30.05335443658808
 21
76.145780114627939
 31
0.0
  0
LINE
  5
59F
  8
0
 10
27.279851744691769
 20
42.650097128932138
 30
0.0
 11
27.029851744691769
 21
42.650097128932138
 31
0.0
  0
LINE
  5
5A2
  8
0
 10
21.929851744691749
 20
43.050097128932123
 30
0.0
 11
26.629851744691759
 21
43.050097128932229
 31
0.0
  0
LINE
  5
5A3
  8
0
 10
26.629851744691759
 20
44.250097128932218
 30
0.0
 11
21.929851744691749
 21
44.250097128932111
 31
0.0
  0
LINE
  5
5B7
  8
3
 10
21.789851744439151
 20
35.140097129184767
 30
0.0
 11
21.789851744439151
 21
42.650097128932138
 31
0.0
  0
LINE
  5
5B8
  8
3
 10
26.76985174494439
 20
35.140097129184767
 30
0.0
 11
26.76985174494439
 21
42.650097128932138
 31
0.0
  0
LINE
  5
5B9
  8
0
 10
27.279851744691769
 20
42.650097128932138
 30
0.0
 11
21.279851744691769
 21
42.650097128932138
 31
0.0
  0
LINE
  5
5BA
  8
2
 10
27.279851744691769
 20
76.150097128932146
 30
0.0
 11
27.279851744691769
 21
64.650097128932146
 31
0.0
  0
LINE
  5
5BB
  8
2
 10
21.279851744691769
 20
76.150097128932146
 30
0.0
 11
21.279851744691769
 21
64.650097128932146
 31
0.0
  0
LINE
  5
5BC
  8
2
 10
21.279851744691769
 20
64.650097128932146
 30
0.0
 11
27.279851744691769
 21
64.650097128932146
 31
0.0
  0
LINE
  5
763
  8
0
 10
21.39310039877029
 20
105.607521840755
 30
0.0
 11
27.166603090639939
 21
105.6075218407551
 31
0.0
  0
LINE
  5
764
  8
0
 10
27.166603090639939
 20
105.6075218407551
 30
0.0
 11
30.053354436588108
 21
100.6075218407551
 31
0.0
  0
LINE
  5
765
  8
0
 10
30.053354436588108
 20
100.6075218407551
 30
0.0
 11
27.166603090639882
 21
95.607521840754885
 31
0.0
  0
LINE
  5
766
  8
0
 10
27.166603090639882
 20
95.607521840754885
 30
0.0
 11
21.393100398770262
 21
95.607521840754998
 31
0.0
  0
LINE
  5
767
  8
0
 10
21.393100398770262
 20
95.607521840754998
 30
0.0
 11
18.506349052795461
 21
100.6075218407549
 31
0.0
  0
LINE
  5
768
  8
0
 10
18.506349052795461
 20
100.6075218407549
 30
0.0
 11
21.393100398742579
 21
105.607521840755
 31
0.0
  0
POLYLINE
  5
769
  8
0
 66
     1
 10
0.0
 20
0.0
 30
0.0
 70
     2
  0
VERTEX
  5
9E0
  8
0
 10
18.50634905279713
 20
76.145780114628906
 30
0.0
 42
-0.0055878369037152
  0
VERTEX
  5
9F8
  8
0
 10
18.607168381548149
 20
76.202695375005817
 30
0.0
 42
-0.0078062622105202
 70
     1
  0
VERTEX
  5
9E1
  8
0
 10
18.680403842811408
 20
76.241489701672393
 30
0.0
 42
-0.0000554349413148
  0
VERTEX
  5
9F9
  8
0
 10
18.75078631574808
 20
76.277367179345276
 30
0.0
 42
-0.0023881839832578
 70
     1
  0
VERTEX
  5
9E2
  8
0
 10
18.752424105790851
 20
76.278191983961051
 30
0.0
 42
-0.0019754370848242
  0
VERTEX
  5
9FA
  8
0
 10
18.77029251118995
 20
76.286996019512628
 30
0.0
 42
-0.0009363185942462
 70
     1
  0
VERTEX
  5
9E3
  8
0
 10
18.808098537930078
 20
76.305350792238784
 30
0.0
 42
-0.0075496933033198
  0
VERTEX
  5
9FB
  8
0
 10
18.892865236162041
 20
76.344741527482654
 30
0.0
 42
-0.0070145780893026
 70
     1
  0
VERTEX
  5
9E4
  8
0
 10
18.985293768044411
 20
76.384461869227195
 30
0.0
 42
-0.0042184490399337
  0
VERTEX
  5
9FC
  8
0
 10
19.04359796983783
 20
76.407980416112025
 30
0.0
 42
-0.0049414754677009
 70
     1
  0
VERTEX
  5
9E5
  8
0
 10
19.093730992956068
 20
76.427142754992829
 30
0.0
 42
-0.0035573363387509
  0
VERTEX
  5
9FD
  8
0
 10
19.13837458536511
 20
76.443342705828002
 30
0.0
 42
-0.0033519145979998
 70
     1
  0
VERTEX
  5
9E6
  8
0
 10
19.18598713440181
 20
76.459879112829086
 30
0.0
 42
-0.0062741173640955
  0
VERTEX
  5
9FE
  8
0
 10
19.238916479155819
 20
76.477127646548468
 30
0.0
 42
-0.0048436686716441
 70
     1
  0
VERTEX
  5
9E7
  8
0
 10
19.307955802502018
 20
76.497939879471232
 30
0.0
 42
-0.0073460676392248
  0
VERTEX
  5
9FF
  8
0
 10
19.3620385020896
 20
76.512815272347098
 30
0.0
 42
-0.0050461697321168
 70
     1
  0
VERTEX
  5
9E8
  8
0
 10
19.441280740155719
 20
76.532512121643265
 30
0.0
 42
-0.0084988799386372
  0
VERTEX
  5
A00
  8
0
 10
19.492234581696039
 20
76.543721311776608
 30
0.0
 42
-0.0052819623778623
 70
     1
  0
VERTEX
  5
9E9
  8
0
 10
19.574683504518589
 20
76.559490416054274
 30
0.0
 42
-0.0155081294155036
  0
VERTEX
  5
A01
  8
0
 10
19.696822518711311
 20
76.577625142840716
 30
0.0
 42
-0.0150630379024301
 70
     1
  0
VERTEX
  5
9EA
  8
0
 10
19.82347467103062
 20
76.588577551809863
 30
0.0
 42
-0.006549160605729
  0
VERTEX
  5
A02
  8
0
 10
19.893004434540391
 20
76.591571945696955
 30
0.0
 42
-0.0080196629961456
 70
     1
  0
VERTEX
  5
9EB
  8
0
 10
19.949833429839739
 20
76.592362070186709
 30
0.0
 42
-0.0098949841490022
  0
VERTEX
  5
A03
  8
0
 10
20.041718167100949
 20
76.59034711419946
 30
0.0
 42
-0.0102976315418111
 70
     1
  0
VERTEX
  5
9EC
  8
0
 10
20.1298606837988
 20
76.584847878178977
 30
0.0
 42
-0.0084027423552106
  0
VERTEX
  5
A04
  8
0
 10
20.20237386977362
 20
76.577593594522384
 30
0.0
 42
-0.0078158975994526
 70
     1
  0
VERTEX
  5
9ED
  8
0
 10
20.28003692422271
 20
76.567270597083052
 30
0.0
 42
-0.0096052866934475
  0
VERTEX
  5
A05
  8
0
 10
20.354290370983222
 20
76.554754673512832
 30
0.0
 42
-0.0076746730769322
 70
     1
  0
VERTEX
  5
9EE
  8
0
 10
20.44662294364684
 20
76.535889257611984
 30
0.0
 42
-0.0128262281948982
  0
VERTEX
  5
A06
  8
0
 10
20.563233261997201
 20
76.507037863370954
 30
0.0
 42
-0.0126993165694337
 70
     1
  0
VERTEX
  5
9EF
  8
0
 10
20.67936824648751
 20
76.471926574913525
 30
0.0
 42
-0.0077480780285462
  0
VERTEX
  5
A07
  8
0
 10
20.801867555645568
 20
76.429352325747516
 30
0.0
 42
-0.0109367658188911
 70
     1
  0
VERTEX
  5
9F0
  8
0
 10
20.887469053814758
 20
76.395967726826669
 30
0.0
 42
-0.0026871090801293
  0
VERTEX
  5
A08
  8
0
 10
20.97055994925552
 20
76.360925273422765
 30
0.0
 42
-0.0058276553467624
 70
     1
  0
VERTEX
  5
9F1
  8
0
 10
21.008593151402408
 20
76.34411681531715
 30
0.0
 42
-0.0026140224353831
  0
VERTEX
  5
A09
  8
0
 10
21.07143907619605
 20
76.31506464814089
 30
0.0
 42
-0.0040574144158406
 70
     1
  0
VERTEX
  5
9F2
  8
0
 10
21.111675129426509
 20
76.295808811079041
 30
0.0
 42
-0.0030131896731452
  0
VERTEX
  5
A0A
  8
0
 10
21.167603557002732
 20
76.268064327984632
 30
0.0
 42
-0.0038336646914624
 70
     1
  0
VERTEX
  5
9F3
  8
0
 10
21.211259789003041
 20
76.245657658589806
 30
0.0
 42
-0.0025666114031715
  0
VERTEX
  5
A0B
  8
0
 10
21.270348777759981
 20
76.214368098183115
 30
0.0
 42
-0.0038627776319936
 70
     1
  0
VERTEX
  5
9F4
  8
0
 10
21.309340035279089
 20
76.193074542632658
 30
0.0
 42
-0.0008797816458277
  0
VERTEX
  5
A0D
  8
0
 10
21.315406277981431
 20
76.189686610402134
 30
0.0
 42
-0.0001015271037284
 70
     1
  0
VERTEX
  5
9F5
  8
0
 10
21.367915456242059
 20
76.160225443177154
 30
0.0
 42
-0.0023139254105959
  0
VERTEX
  5
A0C
  8
0
 10
21.373965416920441
 20
76.156792477937927
 30
0.0
 42
-0.0007290567129097
 70
     1
  0
VERTEX
  5
9F6
  8
0
 10
21.393100398743631
 20
76.145780114627996
 30
0.0
  0
SEQEND
  5
9F7
  8
0
  0
POLYLINE
  5
A9D
  8
0
 66
     1
 10
0.0
 20
0.0
 30
0.0
 70
     2
  0
VERTEX
  5
A9E
  8
0
 10
21.393113749069869
 20
76.145804300214721
 30
0.0
 42
-0.0027688062870654
  0
VERTEX
  5
A9F
  8
0
 10
21.59086346013143
 20
76.201836409230296
 30
0.0
 42
-0.0059198525249512
 70
     1
  0
VERTEX
  5
AA0
  8
0
 10
21.683798010545559
 20
76.226433063740345
 30
0.0
 42
-0.0001934590926464
  0
VERTEX
  5
AA1
  8
0
 10
22.018634911032191
 20
76.310686411917473
 30
0.0
 42
-0.0034975757123833
 70
     1
  0
VERTEX
  5
AA2
  8
0
 10
22.037189646609651
 20
76.315209871166772
 30
0.0
 42
-0.003267774060175
  0
VERTEX
  5
AA3
  8
0
 10
22.187275551629199
 20
76.349654804366097
 30
0.0
 42
-0.0031709589929438
 70
     1
  0
VERTEX
  5
AA4
  8
0
 10
22.342388019981311
 20
76.383156765349341
 30
0.0
 42
-0.0034852405250895
  0
VERTEX
  5
AA5
  8
0
 10
22.48101401561005
 20
76.411171793915173
 30
0.0
 42
-0.0031485435776206
 70
     1
  0
VERTEX
  5
AA6
  8
0
 10
22.634861885934871
 20
76.440144036723453
 30
0.0
 42
-0.0046543636282836
  0
VERTEX
  5
AA7
  8
0
 10
22.80954898883871
 20
76.470225918036036
 30
0.0
 42
-0.0045793205579008
 70
     1
  0
VERTEX
  5
AA8
  8
0
 10
22.987632958436109
 20
76.49751686294708
 30
0.0
 42
-0.0036243023158128
  0
VERTEX
  5
AA9
  8
0
 10
23.134314100474938
 20
76.517538218382711
 30
0.0
 42
-0.0038621826965245
 70
     1
  0
VERTEX
  5
AAA
  8
0
 10
23.272226946139231
 20
76.534263444370424
 30
0.0
 42
-0.0038297147845788
  0
VERTEX
  5
AAB
  8
0
 10
23.419448339859141
 20
76.549823530994914
 30
0.0
 42
-0.0039338310935285
 70
     1
  0
VERTEX
  5
AAC
  8
0
 10
23.562991277046219
 20
76.562744656559872
 30
0.0
 42
-0.0040559858914365
  0
VERTEX
  5
AAD
  8
0
 10
23.716320227735618
 20
76.57408003514503
 30
0.0
 42
-0.0045997153584209
 70
     1
  0
VERTEX
  5
AAE
  8
0
 10
23.85167766304329
 20
76.581733564352717
 30
0.0
 42
-0.0034091303632464
  0
VERTEX
  5
AAF
  8
0
 10
24.000278006877551
 20
76.587750014738063
 30
0.0
 42
-0.0039635563582348
 70
     1
  0
VERTEX
  5
AB0
  8
0
 10
24.128154924925131
 20
76.591039741260161
 30
0.0
 42
-0.0022292895613009
  0
VERTEX
  5
AB1
  8
0
 10
24.189404661827641
 20
76.591856518764828
 30
0.0
 42
-0.0015096145976517
 70
     1
  0
VERTEX
  5
AB2
  8
0
 10
24.279860086698019
 20
76.592386287076764
 30
0.0
 42
-0.0067044848596599
  0
VERTEX
  5
AB3
  8
0
 10
24.4677580360935
 20
76.590399871607943
 30
0.0
 42
-0.0057446575641276
 70
     1
  0
VERTEX
  5
AB4
  8
0
 10
24.686921998058011
 20
76.582623008508861
 30
0.0
 42
-0.0045034953311458
  0
VERTEX
  5
AB5
  8
0
 10
24.85377952620772
 20
76.573274988309336
 30
0.0
 42
-0.0050903896680648
 70
     1
  0
VERTEX
  5
AB6
  8
0
 10
25.001214265972521
 20
76.562173905799355
 30
0.0
 42
-0.0032348372410776
  0
VERTEX
  5
AB7
  8
0
 10
25.175109318365202
 20
76.546164744726653
 30
0.0
 42
-0.0045659730613441
 70
     1
  0
VERTEX
  5
AB8
  8
0
 10
25.29811741144681
 20
76.532902027390506
 30
0.0
 42
-0.0023084178608996
  0
VERTEX
  5
AB9
  8
0
 10
25.41952015357171
 20
76.518121250328718
 30
0.0
 42
-0.0028208973792824
 70
     1
  0
VERTEX
  5
ABA
  8
0
 10
25.518738306601339
 20
76.505007190133043
 30
0.0
 42
-0.0028255721674739
  0
VERTEX
  5
ABB
  8
0
 10
25.604676209879901
 20
76.492659472141213
 30
0.0
 42
-0.0019442901880701
 70
     1
  0
VERTEX
  5
ABC
  8
0
 10
25.729389512147691
 20
76.47352443957773
 30
0.0
 42
-0.00524504841971
  0
VERTEX
  5
ABD
  8
0
 10
25.891961293504639
 20
76.446182662747347
 30
0.0
 42
-0.0042076634475013
 70
     1
  0
VERTEX
  5
ABE
  8
0
 10
26.093932088296238
 20
76.408275338381614
 30
0.0
 42
-0.0045533248502219
  0
VERTEX
  5
ABF
  8
0
 10
26.308338959732708
 20
76.364131542164856
 30
0.0
 42
-0.0053349370919985
 70
     1
  0
VERTEX
  5
AC0
  8
0
 10
26.4905540295224
 20
76.32284349504927
 30
0.0
 42
-0.0017664361814052
  0
VERTEX
  5
AC1
  8
0
 10
26.667431779811949
 20
76.280115012180673
 30
0.0
 42
-0.0032397058706407
 70
     1
  0
VERTEX
  5
AC2
  8
0
 10
26.763636257853651
 20
76.255852888378243
 30
0.0
 42
-0.0009455932860744
  0
VERTEX
  5
AC3
  8
0
 10
26.769352838595729
 20
76.254360201749719
 30
0.0
 42
-0.0000370166642617
 70
     1
  0
VERTEX
  5
AC4
  8
0
 10
26.915307947075981
 20
76.215942543109705
 30
0.0
 42
-0.0036787700521096
  0
VERTEX
  5
AC5
  8
0
 10
27.0127194450383
 20
76.189526715431626
 30
0.0
 42
-0.0023207716322038
 70
     1
  0
VERTEX
  5
AC6
  8
0
 10
27.166616440966148
 20
76.145804300214721
 30
0.0
  0
SEQEND
  5
AC7
  8
0
  0
POLYLINE
  5
AC8
  8
0
 66
     1
 10
0.0
 20
0.0
 30
0.0
 70
     2
  0
VERTEX
  5
AC9
  8
0
 10
30.053354436586861
 20
76.145780114628906
 30
0.0
 42
0.0055878369037152
  0
VERTEX
  5
ACA
  8
0
 10
29.952535107835839
 20
76.202695375005817
 30
0.0
 42
0.0078062622105202
 70
     1
  0
VERTEX
  5
ACB
  8
0
 10
29.87929964657258
 20
76.241489701672393
 30
0.0
 42
0.0000554349413148
  0
VERTEX
  5
ACC
  8
0
 10
29.808917173635901
 20
76.277367179345276
 30
0.0
 42
0.0023881839832578
 70
     1
  0
VERTEX
  5
ACD
  8
0
 10
29.807279383593141
 20
76.278191983961051
 30
0.0
 42
0.0019754370848242
  0
VERTEX
  5
ACE
  8
0
 10
29.789410978194041
 20
76.286996019512628
 30
0.0
 42
0.0009363185942462
 70
     1
  0
VERTEX
  5
ACF
  8
0
 10
29.75160495145392
 20
76.305350792238784
 30
0.0
 42
0.0075496933033198
  0
VERTEX
  5
AD0
  8
0
 10
29.666838253221961
 20
76.344741527482654
 30
0.0
 42
0.0070145780893026
 70
     1
  0
VERTEX
  5
AD1
  8
0
 10
29.574409721339581
 20
76.384461869227195
 30
0.0
 42
0.0042184490399337
  0
VERTEX
  5
AD2
  8
0
 10
29.516105519546159
 20
76.407980416112025
 30
0.0
 42
0.0049414754677009
 70
     1
  0
VERTEX
  5
AD3
  8
0
 10
29.46597249642792
 20
76.427142754992829
 30
0.0
 42
0.0035573363387509
  0
VERTEX
  5
AD4
  8
0
 10
29.421328904018878
 20
76.443342705828002
 30
0.0
 42
0.0033519145979998
 70
     1
  0
VERTEX
  5
AD5
  8
0
 10
29.373716354982179
 20
76.459879112829086
 30
0.0
 42
0.0062741173640955
  0
VERTEX
  5
AD6
  8
0
 10
29.32078701022817
 20
76.477127646548468
 30
0.0
 42
0.0048436686716441
 70
     1
  0
VERTEX
  5
AD7
  8
0
 10
29.25174768688197
 20
76.497939879471232
 30
0.0
 42
0.0073460676392248
  0
VERTEX
  5
AD8
  8
0
 10
29.197664987294392
 20
76.512815272347098
 30
0.0
 42
0.0050461697321168
 70
     1
  0
VERTEX
  5
AD9
  8
0
 10
29.11842274922828
 20
76.532512121643265
 30
0.0
 42
0.0084988799386372
  0
VERTEX
  5
ADA
  8
0
 10
29.06746890768796
 20
76.543721311776608
 30
0.0
 42
0.0052819623778623
 70
     1
  0
VERTEX
  5
ADB
  8
0
 10
28.985019984865399
 20
76.559490416054274
 30
0.0
 42
0.0155081294155036
  0
VERTEX
  5
ADC
  8
0
 10
28.862880970672681
 20
76.577625142840716
 30
0.0
 42
0.0150630379024301
 70
     1
  0
VERTEX
  5
ADD
  8
0
 10
28.736228818353371
 20
76.588577551809863
 30
0.0
 42
0.006549160605729
  0
VERTEX
  5
ADE
  8
0
 10
28.666699054843608
 20
76.591571945696955
 30
0.0
 42
0.0080196629961456
 70
     1
  0
VERTEX
  5
ADF
  8
0
 10
28.609870059544249
 20
76.592362070186709
 30
0.0
 42
0.0098949841490022
  0
VERTEX
  5
AE0
  8
0
 10
28.517985322283039
 20
76.59034711419946
 30
0.0
 42
0.0102976315418111
 70
     1
  0
VERTEX
  5
AE1
  8
0
 10
28.429842805585199
 20
76.584847878178977
 30
0.0
 42
0.0084027423552106
  0
VERTEX
  5
AE2
  8
0
 10
28.357329619610368
 20
76.577593594522384
 30
0.0
 42
0.0078158975994526
 70
     1
  0
VERTEX
  5
AE3
  8
0
 10
28.279666565161278
 20
76.567270597083052
 30
0.0
 42
0.0096052866934475
  0
VERTEX
  5
AE4
  8
0
 10
28.20541311840077
 20
76.554754673512832
 30
0.0
 42
0.0076746730769322
 70
     1
  0
VERTEX
  5
AE5
  8
0
 10
28.113080545737152
 20
76.535889257611984
 30
0.0
 42
0.0128262281948982
  0
VERTEX
  5
AE6
  8
0
 10
27.996470227386801
 20
76.507037863370954
 30
0.0
 42
0.0126993165694337
 70
     1
  0
VERTEX
  5
AE7
  8
0
 10
27.880335242896479
 20
76.471926574913525
 30
0.0
 42
0.0077480780285462
  0
VERTEX
  5
AE8
  8
0
 10
27.75783593373842
 20
76.429352325747516
 30
0.0
 42
0.0109367658188911
 70
     1
  0
VERTEX
  5
AE9
  8
0
 10
27.672234435569241
 20
76.395967726826669
 30
0.0
 42
0.0026871090801293
  0
VERTEX
  5
AEA
  8
0
 10
27.589143540128479
 20
76.360925273422765
 30
0.0
 42
0.0058276553467624
 70
     1
  0
VERTEX
  5
AEB
  8
0
 10
27.55111033798158
 20
76.34411681531715
 30
0.0
 42
0.0026140224353831
  0
VERTEX
  5
AEC
  8
0
 10
27.488264413187949
 20
76.31506464814089
 30
0.0
 42
0.0040574144158406
 70
     1
  0
VERTEX
  5
AED
  8
0
 10
27.44802835995748
 20
76.295808811079041
 30
0.0
 42
0.0030131896731452
  0
VERTEX
  5
AEE
  8
0
 10
27.39209993238126
 20
76.268064327984632
 30
0.0
 42
0.0038336646914624
 70
     1
  0
VERTEX
  5
AEF
  8
0
 10
27.348443700380951
 20
76.245657658589806
 30
0.0
 42
0.0025666114031715
  0
VERTEX
  5
AF0
  8
0
 10
27.289354711624011
 20
76.214368098183115
 30
0.0
 42
0.0038627776319936
 70
     1
  0
VERTEX
  5
AF1
  8
0
 10
27.2503634541049
 20
76.193074542632658
 30
0.0
 42
0.0008797816458277
  0
VERTEX
  5
AF2
  8
0
 10
27.244297211402571
 20
76.189686610402134
 30
0.0
 42
0.0001015271037284
 70
     1
  0
VERTEX
  5
AF3
  8
0
 10
27.191788033141929
 20
76.160225443177154
 30
0.0
 42
0.0023139254105959
  0
VERTEX
  5
AF4
  8
0
 10
27.18573807246355
 20
76.156792477937927
 30
0.0
 42
0.0007290567129097
 70
     1
  0
VERTEX
  5
AF5
  8
0
 10
27.166603090640368
 20
76.145780114627996
 30
0.0
  0
SEQEND
  5
AF6
  8
0
  0
LINE
  5
AF7
  8
2
 10
20.779851744691658
 20
76.650097128932146
 30
0.0
 11
21.779851744691651
 21
75.650097128932146
 31
0.0
  0
LINE
  5
AF8
  8
0
 10
27.16660309063991
 20
45.154414143236338
 30
0.0
 11
27.16660309063991
 21
76.145780114627996
 31
0.0
  0
POLYLINE
  5
AF9
  8
0
 66
     1
 10
0.0
 20
0.0
 30
0.0
 70
     2
  0
VERTEX
  5
AFA
  8
0
 10
21.393113749069869
 20
45.15438995764945
 30
0.0
 42
0.0027688062870654
  0
VERTEX
  5
AFB
  8
0
 10
21.59086346013143
 20
45.098357848633881
 30
0.0
 42
0.0059198525249512
 70
     1
  0
VERTEX
  5
AFC
  8
0
 10
21.683798010545559
 20
45.073761194123833
 30
0.0
 42
0.0001934590926464
  0
VERTEX
  5
AFD
  8
0
 10
22.018634911032191
 20
44.989507845946697
 30
0.0
 42
0.0034975757123833
 70
     1
  0
VERTEX
  5
AFE
  8
0
 10
22.037189646609651
 20
44.984984386697413
 30
0.0
 42
0.003267774060175
  0
VERTEX
  5
AFF
  8
0
 10
22.187275551629199
 20
44.950539453498081
 30
0.0
 42
0.0031709589929438
 70
     1
  0
VERTEX
  5
B00
  8
0
 10
22.342388019981311
 20
44.917037492514837
 30
0.0
 42
0.0034852405250895
  0
VERTEX
  5
B01
  8
0
 10
22.48101401561005
 20
44.88902246394899
 30
0.0
 42
0.0031485435776206
 70
     1
  0
VERTEX
  5
B02
  8
0
 10
22.634861885934871
 20
44.860050221140717
 30
0.0
 42
0.0046543636282836
  0
VERTEX
  5
B03
  8
0
 10
22.80954898883871
 20
44.829968339828142
 30
0.0
 42
0.0045793205579008
 70
     1
  0
VERTEX
  5
B04
  8
0
 10
22.987632958436109
 20
44.802677394917097
 30
0.0
 42
0.0036243023158128
  0
VERTEX
  5
B05
  8
0
 10
23.134314100474938
 20
44.782656039481459
 30
0.0
 42
0.0038621826965245
 70
     1
  0
VERTEX
  5
B06
  8
0
 10
23.272226946139231
 20
44.765930813493732
 30
0.0
 42
0.0038297147845788
  0
VERTEX
  5
B07
  8
0
 10
23.419448339859141
 20
44.750370726869257
 30
0.0
 42
0.0039338310935285
 70
     1
  0
VERTEX
  5
B08
  8
0
 10
23.562991277046219
 20
44.737449601304313
 30
0.0
 42
0.0040559858914365
  0
VERTEX
  5
B09
  8
0
 10
23.716320227735618
 20
44.72611422271914
 30
0.0
 42
0.0045997153584209
 70
     1
  0
VERTEX
  5
B0A
  8
0
 10
23.85167766304329
 20
44.71846069351146
 30
0.0
 42
0.0034091303632464
  0
VERTEX
  5
B0B
  8
0
 10
24.000278006877551
 20
44.712444243126107
 30
0.0
 42
0.0039635563582348
 70
     1
  0
VERTEX
  5
B0C
  8
0
 10
24.128154924925131
 20
44.709154516604023
 30
0.0
 42
0.0022292895613009
  0
VERTEX
  5
B0D
  8
0
 10
24.189404661827641
 20
44.708337739099349
 30
0.0
 42
0.0015096145976517
 70
     1
  0
VERTEX
  5
B0E
  8
0
 10
24.279860086698019
 20
44.707807970787407
 30
0.0
 42
0.0067044848596599
  0
VERTEX
  5
B0F
  8
0
 10
24.4677580360935
 20
44.709794386256227
 30
0.0
 42
0.0057446575641276
 70
     1
  0
VERTEX
  5
B10
  8
0
 10
24.686921998058011
 20
44.717571249355309
 30
0.0
 42
0.0045034953311458
  0
VERTEX
  5
B11
  8
0
 10
24.85377952620772
 20
44.726919269554841
 30
0.0
 42
0.0050903896680648
 70
     1
  0
VERTEX
  5
B12
  8
0
 10
25.001214265972521
 20
44.738020352064822
 30
0.0
 42
0.0032348372410776
  0
VERTEX
  5
B13
  8
0
 10
25.175109318365202
 20
44.754029513137517
 30
0.0
 42
0.0045659730613441
 70
     1
  0
VERTEX
  5
B14
  8
0
 10
25.29811741144681
 20
44.767292230473657
 30
0.0
 42
0.0023084178608996
  0
VERTEX
  5
B15
  8
0
 10
25.41952015357171
 20
44.782073007535452
 30
0.0
 42
0.0028208973792824
 70
     1
  0
VERTEX
  5
B16
  8
0
 10
25.518738306601339
 20
44.795187067731128
 30
0.0
 42
0.0028255721674739
  0
VERTEX
  5
B17
  8
0
 10
25.604676209879901
 20
44.80753478572295
 30
0.0
 42
0.0019442901880701
 70
     1
  0
VERTEX
  5
B18
  8
0
 10
25.729389512147691
 20
44.826669818286447
 30
0.0
 42
0.00524504841971
  0
VERTEX
  5
B19
  8
0
 10
25.891961293504639
 20
44.85401159511683
 30
0.0
 42
0.0042076634475013
 70
     1
  0
VERTEX
  5
B1A
  8
0
 10
26.093932088296238
 20
44.891918919482563
 30
0.0
 42
0.0045533248502219
  0
VERTEX
  5
B1B
  8
0
 10
26.308338959732708
 20
44.936062715699322
 30
0.0
 42
0.0053349370919985
 70
     1
  0
VERTEX
  5
B1C
  8
0
 10
26.4905540295224
 20
44.977350762814901
 30
0.0
 42
0.0017664361814052
  0
VERTEX
  5
B1D
  8
0
 10
26.667431779811949
 20
45.020079245683498
 30
0.0
 42
0.0032397058706407
 70
     1
  0
VERTEX
  5
B1E
  8
0
 10
26.763636257853651
 20
45.044341369485927
 30
0.0
 42
0.0009455932860744
  0
VERTEX
  5
B1F
  8
0
 10
26.769352838595729
 20
45.045834056114451
 30
0.0
 42
0.0000370166642617
 70
     1
  0
VERTEX
  5
B20
  8
0
 10
26.915307947075981
 20
45.084251714754473
 30
0.0
 42
0.0036787700521096
  0
VERTEX
  5
B21
  8
0
 10
27.0127194450383
 20
45.110667542432537
 30
0.0
 42
0.0023207716322038
 70
     1
  0
VERTEX
  5
B22
  8
0
 10
27.166616440966148
 20
45.15438995764945
 30
0.0
  0
SEQEND
  5
B23
  8
0
  0
POLYLINE
  5
B24
  8
0
 66
     1
 10
0.0
 20
0.0
 30
0.0
 70
     2
  0
VERTEX
  5
B25
  8
0
 10
18.50634905279713
 20
45.154414143235257
 30
0.0
 42
0.0055878369037152
  0
VERTEX
  5
B26
  8
0
 10
18.607168381548149
 20
45.097498882858361
 30
0.0
 42
0.0078062622105202
 70
     1
  0
VERTEX
  5
B27
  8
0
 10
18.680403842811408
 20
45.058704556191778
 30
0.0
 42
0.0000554349413148
  0
VERTEX
  5
B28
  8
0
 10
18.75078631574808
 20
45.022827078518901
 30
0.0
 42
0.0023881839832578
 70
     1
  0
VERTEX
  5
B29
  8
0
 10
18.752424105790851
 20
45.022002273903126
 30
0.0
 42
0.0019754370848242
  0
VERTEX
  5
B2A
  8
0
 10
18.77029251118995
 20
45.013198238351549
 30
0.0
 42
0.0009363185942462
 70
     1
  0
VERTEX
  5
B2B
  8
0
 10
18.808098537930078
 20
44.994843465625387
 30
0.0
 42
0.0075496933033198
  0
VERTEX
  5
B2C
  8
0
 10
18.892865236162041
 20
44.955452730381523
 30
0.0
 42
0.0070145780893026
 70
     1
  0
VERTEX
  5
B2D
  8
0
 10
18.985293768044411
 20
44.915732388636982
 30
0.0
 42
0.0042184490399337
  0
VERTEX
  5
B2E
  8
0
 10
19.04359796983783
 20
44.892213841752152
 30
0.0
 42
0.0049414754677009
 70
     1
  0
VERTEX
  5
B2F
  8
0
 10
19.093730992956068
 20
44.873051502871341
 30
0.0
 42
0.0035573363387509
  0
VERTEX
  5
B30
  8
0
 10
19.13837458536511
 20
44.856851552036183
 30
0.0
 42
0.0033519145979998
 70
     1
  0
VERTEX
  5
B31
  8
0
 10
19.18598713440181
 20
44.840315145035092
 30
0.0
 42
0.0062741173640955
  0
VERTEX
  5
B32
  8
0
 10
19.238916479155819
 20
44.82306661131571
 30
0.0
 42
0.0048436686716441
 70
     1
  0
VERTEX
  5
B33
  8
0
 10
19.307955802502018
 20
44.802254378392938
 30
0.0
 42
0.0073460676392248
  0
VERTEX
  5
B34
  8
0
 10
19.3620385020896
 20
44.78737898551708
 30
0.0
 42
0.0050461697321168
 70
     1
  0
VERTEX
  5
B35
  8
0
 10
19.441280740155719
 20
44.767682136220891
 30
0.0
 42
0.0084988799386372
  0
VERTEX
  5
B36
  8
0
 10
19.492234581696039
 20
44.75647294608757
 30
0.0
 42
0.0052819623778623
 70
     1
  0
VERTEX
  5
B37
  8
0
 10
19.574683504518589
 20
44.740703841809889
 30
0.0
 42
0.0155081294155036
  0
VERTEX
  5
B38
  8
0
 10
19.696822518711311
 20
44.722569115023461
 30
0.0
 42
0.0150630379024301
 70
     1
  0
VERTEX
  5
B39
  8
0
 10
19.82347467103062
 20
44.711616706054322
 30
0.0
 42
0.006549160605729
  0
VERTEX
  5
B3A
  8
0
 10
19.893004434540391
 20
44.708622312167229
 30
0.0
 42
0.0080196629961456
 70
     1
  0
VERTEX
  5
B3B
  8
0
 10
19.949833429839739
 20
44.707832187677461
 30
0.0
 42
0.0098949841490022
  0
VERTEX
  5
B3C
  8
0
 10
20.041718167100949
 20
44.709847143664717
 30
0.0
 42
0.0102976315418111
 70
     1
  0
VERTEX
  5
B3D
  8
0
 10
20.1298606837988
 20
44.715346379685201
 30
0.0
 42
0.0084027423552106
  0
VERTEX
  5
B3E
  8
0
 10
20.20237386977362
 20
44.72260066334178
 30
0.0
 42
0.0078158975994526
 70
     1
  0
VERTEX
  5
B3F
  8
0
 10
20.28003692422271
 20
44.732923660781118
 30
0.0
 42
0.0096052866934475
  0
VERTEX
  5
B40
  8
0
 10
20.354290370983222
 20
44.745439584351338
 30
0.0
 42
0.0076746730769322
 70
     1
  0
VERTEX
  5
B41
  8
0
 10
20.44662294364684
 20
44.764305000252193
 30
0.0
 42
0.0128262281948982
  0
VERTEX
  5
B42
  8
0
 10
20.563233261997201
 20
44.793156394493217
 30
0.0
 42
0.0126993165694337
 70
     1
  0
VERTEX
  5
B43
  8
0
 10
20.67936824648751
 20
44.828267682950653
 30
0.0
 42
0.0077480780285462
  0
VERTEX
  5
B44
  8
0
 10
20.801867555645568
 20
44.870841932116662
 30
0.0
 42
0.0109367658188911
 70
     1
  0
VERTEX
  5
B45
  8
0
 10
20.887469053814758
 20
44.904226531037509
 30
0.0
 42
0.0026871090801293
  0
VERTEX
  5
B46
  8
0
 10
20.97055994925552
 20
44.939268984441412
 30
0.0
 42
0.0058276553467624
 70
     1
  0
VERTEX
  5
B47
  8
0
 10
21.008593151402408
 20
44.95607744254702
 30
0.0
 42
0.0026140224353831
  0
VERTEX
  5
B48
  8
0
 10
21.07143907619605
 20
44.985129609723288
 30
0.0
 42
0.0040574144158406
 70
     1
  0
VERTEX
  5
B49
  8
0
 10
21.111675129426509
 20
45.004385446785143
 30
0.0
 42
0.0030131896731452
  0
VERTEX
  5
B4A
  8
0
 10
21.167603557002732
 20
45.032129929879538
 30
0.0
 42
0.0038336646914624
 70
     1
  0
VERTEX
  5
B4B
  8
0
 10
21.211259789003041
 20
45.054536599274371
 30
0.0
 42
0.0025666114031715
  0
VERTEX
  5
B4C
  8
0
 10
21.270348777759981
 20
45.085826159681062
 30
0.0
 42
0.0038627776319936
 70
     1
  0
VERTEX
  5
B4D
  8
0
 10
21.309340035279089
 20
45.107119715231519
 30
0.0
 42
0.0008797816458277
  0
VERTEX
  5
B4E
  8
0
 10
21.315406277981431
 20
45.110507647462043
 30
0.0
 42
0.0001015271037284
 70
     1
  0
VERTEX
  5
B4F
  8
0
 10
21.367915456242059
 20
45.139968814687023
 30
0.0
 42
0.0023139254105959
  0
VERTEX
  5
B50
  8
0
 10
21.373965416920441
 20
45.143401779926243
 30
0.0
 42
0.0007290567129097
 70
     1
  0
VERTEX
  5
B51
  8
0
 10
21.393100398743631
 20
45.154414143236181
 30
0.0
  0
SEQEND
  5
B52
  8
0
  0
POLYLINE
  5
B53
  8
0
 66
     1
 10
0.0
 20
0.0
 30
0.0
 70
     2
  0
VERTEX
  5
B54
  8
0
 10
30.053354436586861
 20
45.154414143235257
 30
0.0
 42
-0.0055878369037152
  0
VERTEX
  5
B55
  8
0
 10
29.952535107835839
 20
45.097498882858361
 30
0.0
 42
-0.0078062622105202
 70
     1
  0
VERTEX
  5
B56
  8
0
 10
29.87929964657258
 20
45.058704556191778
 30
0.0
 42
-0.0000554349413148
  0
VERTEX
  5
B57
  8
0
 10
29.808917173635901
 20
45.022827078518901
 30
0.0
 42
-0.0023881839832578
 70
     1
  0
VERTEX
  5
B58
  8
0
 10
29.807279383593141
 20
45.022002273903126
 30
0.0
 42
-0.0019754370848242
  0
VERTEX
  5
B59
  8
0
 10
29.789410978194041
 20
45.013198238351549
 30
0.0
 42
-0.0009363185942462
 70
     1
  0
VERTEX
  5
B5A
  8
0
 10
29.75160495145392
 20
44.994843465625387
 30
0.0
 42
-0.0075496933033198
  0
VERTEX
  5
B5B
  8
0
 10
29.666838253221961
 20
44.955452730381523
 30
0.0
 42
-0.0070145780893026
 70
     1
  0
VERTEX
  5
B5C
  8
0
 10
29.574409721339581
 20
44.915732388636982
 30
0.0
 42
-0.0042184490399337
  0
VERTEX
  5
B5D
  8
0
 10
29.516105519546159
 20
44.892213841752152
 30
0.0
 42
-0.0049414754677009
 70
     1
  0
VERTEX
  5
B5E
  8
0
 10
29.46597249642792
 20
44.873051502871341
 30
0.0
 42
-0.0035573363387509
  0
VERTEX
  5
B5F
  8
0
 10
29.421328904018878
 20
44.856851552036183
 30
0.0
 42
-0.0033519145979998
 70
     1
  0
VERTEX
  5
B60
  8
0
 10
29.373716354982179
 20
44.840315145035092
 30
0.0
 42
-0.0062741173640955
  0
VERTEX
  5
B61
  8
0
 10
29.32078701022817
 20
44.82306661131571
 30
0.0
 42
-0.0048436686716441
 70
     1
  0
VERTEX
  5
B62
  8
0
 10
29.25174768688197
 20
44.802254378392938
 30
0.0
 42
-0.0073460676392248
  0
VERTEX
  5
B63
  8
0
 10
29.197664987294392
 20
44.78737898551708
 30
0.0
 42
-0.0050461697321168
 70
     1
  0
VERTEX
  5
B64
  8
0
 10
29.11842274922828
 20
44.767682136220891
 30
0.0
 42
-0.0084988799386372
  0
VERTEX
  5
B65
  8
0
 10
29.06746890768796
 20
44.75647294608757
 30
0.0
 42
-0.0052819623778623
 70
     1
  0
VERTEX
  5
B66
  8
0
 10
28.985019984865399
 20
44.740703841809889
 30
0.0
 42
-0.0155081294155036
  0
VERTEX
  5
B67
  8
0
 10
28.862880970672681
 20
44.722569115023461
 30
0.0
 42
-0.0150630379024301
 70
     1
  0
VERTEX
  5
B68
  8
0
 10
28.736228818353371
 20
44.711616706054322
 30
0.0
 42
-0.006549160605729
  0
VERTEX
  5
B69
  8
0
 10
28.666699054843608
 20
44.708622312167229
 30
0.0
 42
-0.0080196629961456
 70
     1
  0
VERTEX
  5
B6A
  8
0
 10
28.609870059544249
 20
44.707832187677461
 30
0.0
 42
-0.0098949841490022
  0
VERTEX
  5
B6B
  8
0
 10
28.517985322283039
 20
44.709847143664717
 30
0.0
 42
-0.0102976315418111
 70
     1
  0
VERTEX
  5
B6C
  8
0
 10
28.429842805585199
 20
44.715346379685201
 30
0.0
 42
-0.0084027423552106
  0
VERTEX
  5
B6D
  8
0
 10
28.357329619610368
 20
44.72260066334178
 30
0.0
 42
-0.0078158975994526
 70
     1
  0
VERTEX
  5
B6E
  8
0
 10
28.279666565161278
 20
44.732923660781118
 30
0.0
 42
-0.0096052866934475
  0
VERTEX
  5
B6F
  8
0
 10
28.20541311840077
 20
44.745439584351338
 30
0.0
 42
-0.0076746730769322
 70
     1
  0
VERTEX
  5
B70
  8
0
 10
28.113080545737152
 20
44.764305000252193
 30
0.0
 42
-0.0128262281948982
  0
VERTEX
  5
B71
  8
0
 10
27.996470227386801
 20
44.793156394493217
 30
0.0
 42
-0.0126993165694337
 70
     1
  0
VERTEX
  5
B72
  8
0
 10
27.880335242896479
 20
44.828267682950653
 30
0.0
 42
-0.0077480780285462
  0
VERTEX
  5
B73
  8
0
 10
27.75783593373842
 20
44.870841932116662
 30
0.0
 42
-0.0109367658188911
 70
     1
  0
VERTEX
  5
B74
  8
0
 10
27.672234435569241
 20
44.904226531037509
 30
0.0
 42
-0.0026871090801293
  0
VERTEX
  5
B75
  8
0
 10
27.589143540128479
 20
44.939268984441412
 30
0.0
 42
-0.0058276553467624
 70
     1
  0
VERTEX
  5
B76
  8
0
 10
27.55111033798158
 20
44.95607744254702
 30
0.0
 42
-0.0026140224353831
  0
VERTEX
  5
B77
  8
0
 10
27.488264413187949
 20
44.985129609723288
 30
0.0
 42
-0.0040574144158406
 70
     1
  0
VERTEX
  5
B78
  8
0
 10
27.44802835995748
 20
45.004385446785143
 30
0.0
 42
-0.0030131896731452
  0
VERTEX
  5
B79
  8
0
 10
27.39209993238126
 20
45.032129929879538
 30
0.0
 42
-0.0038336646914624
 70
     1
  0
VERTEX
  5
B7A
  8
0
 10
27.348443700380951
 20
45.054536599274371
 30
0.0
 42
-0.0025666114031715
  0
VERTEX
  5
B7B
  8
0
 10
27.289354711624011
 20
45.085826159681062
 30
0.0
 42
-0.0038627776319936
 70
     1
  0
VERTEX
  5
B7C
  8
0
 10
27.2503634541049
 20
45.107119715231519
 30
0.0
 42
-0.0008797816458277
  0
VERTEX
  5
B7D
  8
0
 10
27.244297211402571
 20
45.110507647462043
 30
0.0
 42
-0.0001015271037284
 70
     1
  0
VERTEX
  5
B7E
  8
0
 10
27.191788033141929
 20
45.139968814687023
 30
0.0
 42
-0.0023139254105959
  0
VERTEX
  5
B7F
  8
0
 10
27.18573807246355
 20
45.143401779926243
 30
0.0
 42
-0.0007290567129097
 70
     1
  0
VERTEX
  5
B80
  8
0
 10
27.166603090640368
 20
45.154414143236181
 30
0.0
  0
SEQEND
  5
B81
  8
0
  0
LINE
  5
B82
  8
2
 10
21.779851744691769
 20
61.650097128932153
 30
0.0
 11
24.279851744691769
 21
61.650097128932082
 31
0.0
  0
LINE
  5
B83
  8
2
 10
21.779851744691769
 20
61.650097128932153
 30
0.0
 11
24.279851744691769
 21
60.147945581363217
 31
0.0
  0
LINE
  5
B84
  8
2
 10
21.779851744691769
 20
75.650097128932146
 30
0.0
 11
21.779851744691769
 21
61.650097128932153
 31
0.0
  0
LINE
  5
B88
  8
1
 10
24.279851744691701
 20
31.650097128932149
 30
0.0
 11
24.279851744691701
 21
79.650097128932202
 31
0.0
  0
LINE
  5
B8A
  8
1
 10
33.053354436588037
 20
100.607521840755
 30
0.0
 11
15.5063490527955
 21
100.607521840755
 31
0.0
  0
LINE
  5
B8F
  8
1
 10
24.279851744691701
 20
92.607521840754941
 30
0.0
 11
24.279851744691701
 21
108.6075218407551
 31
0.0
  0
LINE
  5
B94
  8
1
 10
61.37484845547641
 20
31.650097128932149
 30
0.0
 11
61.37484845547641
 21
79.650097128932202
 31
0.0
  0
LINE
  5
B95
  8
2
 10
58.87484845547646
 20
75.650097128932146
 30
0.0
 11
58.87484845547646
 21
61.650097128932153
 31
0.0
  0
LINE
  5
B96
  8
2
 10
58.87484845547646
 20
61.650097128932153
 30
0.0
 11
61.37484845547646
 21
60.147945581363217
 31
0.0
  0
LINE
  5
B97
  8
2
 10
58.87484845547646
 20
61.650097128932153
 30
0.0
 11
61.37484845547646
 21
61.650097128932082
 31
0.0
  0
LINE
  5
C22
  8
2
 10
57.874848455476346
 20
76.650097128932146
 30
0.0
 11
58.874848455476361
 21
75.650097128932146
 31
0.0
  0
LINE
  5
CB2
  8
2
 10
58.37484845547646
 20
64.650097128932146
 30
0.0
 11
64.374848455476467
 21
64.650097128932146
 31
0.0
  0
LINE
  5
CB3
  8
2
 10
58.37484845547646
 20
76.150097128932146
 30
0.0
 11
58.37484845547646
 21
64.650097128932146
 31
0.0
  0
LINE
  5
CB4
  8
2
 10
64.374848455476467
 20
76.150097128932146
 30
0.0
 11
64.374848455476467
 21
64.650097128932146
 31
0.0
  0
LINE
  5
CB5
  8
0
 10
64.374848455476467
 20
42.650097128932138
 30
0.0
 11
58.37484845547646
 21
42.650097128932138
 31
0.0
  0
LINE
  5
CB6
  8
3
 10
63.864848455729081
 20
35.140097129184767
 30
0.0
 11
63.864848455729081
 21
42.650097128932138
 31
0.0
  0
LINE
  5
CB7
  8
3
 10
58.884848455223839
 20
35.140097129184767
 30
0.0
 11
58.884848455223839
 21
42.650097128932138
 31
0.0
  0
LINE
  5
CB8
  8
0
 10
63.724848455476462
 20
44.250097128932218
 30
0.0
 11
59.024848455476437
 21
44.250097128932111
 31
0.0
  0
LINE
  5
CB9
  8
0
 10
59.024848455476437
 20
43.050097128932123
 30
0.0
 11
63.724848455476462
 21
43.050097128932229
 31
0.0
  0
LINE
  5
CBA
  8
0
 10
64.374848455476467
 20
42.650097128932138
 30
0.0
 11
64.124848455476467
 21
42.650097128932138
 31
0.0
  0
LINE
  5
CBC
  8
0
 10
63.724848455476462
 20
43.050097128932123
 30
0.0
 11
63.724848455476462
 21
44.250097128932111
 31
0.0
  0
LINE
  5
CBD
  8
2
 10
63.87484845547646
 20
75.650097128932146
 30
0.0
 11
63.87484845547646
 21
61.650097128932153
 31
0.0
  0
LINE
  5
CBE
  8
2
 10
63.87484845547646
 20
61.650097128932153
 30
0.0
 11
61.37484845547646
 21
61.650097128932082
 31
0.0
  0
LINE
  5
CBF
  8
2
 10
63.87484845547646
 20
61.650097128932153
 30
0.0
 11
61.37484845547646
 21
60.147945581363217
 31
0.0
  0
ARC
  5
CC0
  8
0
 10
64.124848455476467
 20
44.250097128932062
 30
0.0
 40
0.4000000000000057
 50
89.999999999989825
 51
180.0
  0
ARC
  5
CC1
  8
0
 10
64.124848455476467
 20
43.05009712893208
 30
0.0
 40
0.4000000000000057
 50
180.0
 51
270.0
  0
LINE
  5
CC2
  8
0
 10
61.37484845547646
 20
42.650097128932138
 30
0.0
 11
58.37484845547646
 21
42.650097128932138
 31
0.0
  0
LINE
  5
CC3
  8
0
 10
64.374848455476467
 20
35.650097128932138
 30
0.0
 11
64.374848455476467
 21
42.650097128932138
 31
0.0
  0
LINE
  5
CC4
  8
0
 10
58.37484845547646
 20
35.650097128932138
 30
0.0
 11
64.374848455476425
 21
35.650097128932138
 31
0.0
  0
LINE
  5
CC5
  8
0
 10
64.374848455476467
 20
35.650097128932138
 30
0.0
 11
63.37484845547646
 21
34.650097128932153
 31
0.0
  0
LINE
  5
CC6
  8
0
 10
63.37484845547646
 20
34.650097128932153
 30
0.0
 11
59.374848455476467
 21
34.650097128932153
 31
0.0
  0
LINE
  5
CC7
  8
2
 10
63.87484845547646
 20
75.650097128932146
 30
0.0
 11
58.87484845547646
 21
75.650097128932032
 31
0.0
  0
LINE
  5
CC8
  8
2
 10
64.874848455476467
 20
76.650097128932146
 30
0.0
 11
63.87484845547646
 21
75.650097128932146
 31
0.0
  0
LINE
  5
CC9
  8
0
 10
56.474848455476462
 20
76.650097128932146
 30
0.0
 11
66.274848455476331
 21
76.650097128932259
 31
0.0
  0
LINE
  5
CCA
  8
0
 10
66.274848455476473
 20
76.650097128932146
 30
0.0
 11
66.374848455476453
 21
76.592362102013183
 31
0.0
  0
LINE
  5
CCF
  8
0
 10
59.024848455476437
 20
44.250097128932111
 30
0.0
 11
59.024848455476437
 21
43.050097128932123
 31
0.0
  0
ARC
  5
CD0
  8
0
 10
58.624848455476467
 20
44.250097128932062
 30
0.0
 40
0.4000000000000057
 50
0.0
 51
90.0
  0
ARC
  5
CD1
  8
0
 10
58.624848455476467
 20
43.05009712893208
 30
0.0
 40
0.4000000000000057
 50
270.0
 51
0.0
  0
LINE
  5
CD2
  8
0
 10
58.37484845547646
 20
42.650097128932138
 30
0.0
 11
58.37484845547646
 21
35.650097128932138
 31
0.0
  0
LINE
  5
CD3
  8
0
 10
58.37484845547646
 20
35.650097128932138
 30
0.0
 11
59.374848455476467
 21
34.650097128932153
 31
0.0
  0
LINE
  5
CD4
  8
0
 10
56.474848455476462
 20
76.650097128932146
 30
0.0
 11
56.37484845547641
 21
76.592362102013155
 31
0.0
  0
LINE
  5
CDB
  8
0
 10
56.37484845547641
 20
44.70783215585103
 30
0.0
 11
56.37484845547641
 21
76.592362102013155
 31
0.0
  0
ARC
  5
D35
  8
0
 10
63.87484845547646
 20
69.382671996538377
 30
0.0
 40
7.2103835832060117
 50
69.713039739017702
 51
110.2869602609823
  0
ARC
  5
D36
  8
0
 10
58.874848455476517
 20
69.382671996538321
 30
0.0
 40
7.2103835832060117
 50
69.713039739017702
 51
110.2869602609823
  0
LINE
  5
D39
  8
0
 10
61.374848455476318
 20
45.154414143236238
 30
0.0
 11
61.37484845547641
 21
76.145780114627939
 31
0.0
  0
LINE
  5
D3B
  8
0
 10
66.274848455476473
 20
44.650097128932053
 30
0.0
 11
66.374848455476453
 21
44.707832155851001
 31
0.0
  0
LINE
  5
D3C
  8
0
 10
56.474848455476462
 20
44.650097128932053
 30
0.0
 11
66.274848455476331
 21
44.650097128931932
 31
0.0
  0
LINE
  5
D3D
  8
0
 10
56.474848455476462
 20
44.650097128932053
 30
0.0
 11
56.37484845547641
 21
44.70783215585103
 31
0.0
  0
LINE
  5
D3F
  8
0
 10
66.374848455476325
 20
44.70783215585103
 30
0.0
 11
66.374848455476325
 21
76.592362102013155
 31
0.0
  0
ARC
  5
D40
  8
0
 10
63.87484845547646
 20
51.917522261325821
 30
0.0
 40
7.2103835832060117
 50
249.71303973901769
 51
290.2869602609822
  0
ARC
  5
D41
  8
0
 10
58.874848455476517
 20
51.917522261325871
 30
0.0
 40
7.2103835832060117
 50
249.71303973901769
 51
290.2869602609822
  0
TEXT
  5
1015
  8
0
 62
     3
 10
0.0
 20
0.0
 30
0.0
 40
10.0
  1
BJ610-06032
  7
STANDARD1
  0
ENDSEC
  0
EOF
