  0
SECTION
  2
HEADER
  9
$ACADVER
  1
AC1009
  9
$INSBASE
 10
0.0
 20
0.0
 30
0.0
  9
$EXTMIN
 10
0.0
 20
-2.960436562073669
 30
0.0
  9
$EXTMAX
 10
160.46982553251999
 20
304.85797454363677
 30
0.0
  9
$LIMMIN
 10
0.0
 20
0.0
  9
$LIMMAX
 10
390.0
 20
270.0
  9
$ORTHOMODE
 70
     1
  9
$REGENMODE
 70
     1
  9
$FILLMODE
 70
     1
  9
$QTEXTMODE
 70
     0
  9
$MIRRTEXT
 70
     0
  9
$DRAGMODE
 70
     2
  9
$LTSCALE
 40
5.0
  9
$OSMODE
 70
  3071
  9
$ATTMODE
 70
     1
  9
$TEXTSIZE
 40
2.5
  9
$TRACEWID
 40
1.0
  9
$TEXTSTYLE
  7
STANDARD
  9
$CLAYER
  8
4
  9
$CELTYPE
  6
BYLAYER
  9
$CECOLOR
 62
   256
  9
$DIMSCALE
 40
1.5
  9
$DIMASZ
 40
3.0
  9
$DIMEXO
 40
1.0
  9
$DIMDLI
 40
6.0
  9
$DIMRND
 40
0.0
  9
$DIMDLE
 40
0.0
  9
$DIMEXE
 40
1.0
  9
$DIMTP
 40
495.0
  9
$DIMTM
 40
0.0
  9
$DIMTXT
 40
3.2000000000000002
  9
$DIMCEN
 40
0.0
  9
$DIMTSZ
 40
0.0
  9
$DIMTOL
 70
     0
  9
$DIMLIM
 70
     0
  9
$DIMTIH
 70
     0
  9
$DIMTOH
 70
     0
  9
$DIMSE1
 70
     0
  9
$DIMSE2
 70
     0
  9
$DIMTAD
 70
     1
  9
$DIMZIN
 70
     8
  9
$DIMBLK
  1

  9
$DIMASO
 70
     0
  9
$DIMSHO
 70
     1
  9
$DIMPOST
  1

  9
$DIMAPOST
  1

  9
$DIMALT
 70
     0
  9
$DIMALTD
 70
     2
  9
$DIMALTF
 40
25.399999999999999
  9
$DIMLFAC
 40
1.0
  9
$DIMTOFL
 70
     1
  9
$DIMTVP
 40
0.0
  9
$DIMTIX
 70
     1
  9
$DIMSOXD
 70
     0
  9
$DIMSAH
 70
     0
  9
$DIMBLK1
  1

  9
$DIMBLK2
  1

  9
$DIMSTYLE
  2
ITM
  9
$DIMCLRD
 70
   256
  9
$DIMCLRE
 70
   256
  9
$DIMCLRT
 70
   256
  9
$DIMTFAC
 40
1.0
  9
$DIMGAP
 40
1.0
  9
$LUNITS
 70
     2
  9
$LUPREC
 70
     2
  9
$SKETCHINC
 40
1.0
  9
$FILLETRAD
 40
0.4
  9
$AUNITS
 70
     0
  9
$AUPREC
 70
     0
  9
$MENU
  1
.
  9
$ELEVATION
 40
0.0
  9
$PELEVATION
 40
0.0
  9
$THICKNESS
 40
0.0
  9
$LIMCHECK
 70
     0
  9
$BLIPMODE
 70
     0
  9
$CHAMFERA
 40
1.1999999999999991
  9
$CHAMFERB
 40
1.1999999999999991
  9
$SKPOLY
 70
     0
  9
$TDCREATE
 40
2453354.0921258219
  9
$TDUPDATE
 40
2456597.6804113081
  9
$TDINDWG
 40
513.62317545140002
  9
$TDUSRTIMER
 40
513.62289747689999
  9
$USRTIMER
 70
     1
  9
$ANGBASE
 50
0.0
  9
$ANGDIR
 70
     0
  9
$PDMODE
 70
     0
  9
$PDSIZE
 40
0.0
  9
$PLINEWID
 40
0.0
  9
$COORDS
 70
     1
  9
$SPLFRAME
 70
     0
  9
$SPLINETYPE
 70
     6
  9
$SPLINESEGS
 70
     8
  9
$ATTDIA
 70
     0
  9
$ATTREQ
 70
     1
  9
$HANDLING
 70
     1
  9
$HANDSEED
  5
3AC
  9
$SURFTAB1
 70
     6
  9
$SURFTAB2
 70
     6
  9
$SURFTYPE
 70
     6
  9
$SURFU
 70
     6
  9
$SURFV
 70
     6
  9
$UCSNAME
  2

  9
$UCSORG
 10
0.0
 20
0.0
 30
0.0
  9
$UCSXDIR
 10
1.0
 20
0.0
 30
0.0
  9
$UCSYDIR
 10
0.0
 20
1.0
 30
0.0
  9
$PUCSNAME
  2

  9
$PUCSORG
 10
0.0
 20
0.0
 30
0.0
  9
$PUCSXDIR
 10
1.0
 20
0.0
 30
0.0
  9
$PUCSYDIR
 10
0.0
 20
1.0
 30
0.0
  9
$USERI1
 70
     4
  9
$USERI2
 70
     1
  9
$USERI3
 70
     1
  9
$USERI4
 70
     0
  9
$USERI5
 70
     0
  9
$USERR1
 40
1.0
  9
$USERR2
 40
3.0
  9
$USERR3
 40
3.2000000000000002
  9
$USERR4
 40
3.0
  9
$USERR5
 40
10.0
  9
$WORLDVIEW
 70
     1
  9
$SHADEDGE
 70
     3
  9
$SHADEDIF
 70
    70
  9
$TILEMODE
 70
     1
  9
$MAXACTVP
 70
    16
  9
$PLIMCHECK
 70
     0
  9
$PEXTMIN
 10
0.0
 20
0.0
 30
0.0
  9
$PEXTMAX
 10
0.0
 20
0.0
 30
0.0
  9
$PLIMMIN
 10
0.0
 20
0.0
  9
$PLIMMAX
 10
12.0
 20
9.0
  9
$UNITMODE
 70
     0
  9
$VISRETAIN
 70
     0
  9
$PLINEGEN
 70
     0
  9
$PSLTSCALE
 70
     1
  0
ENDSEC
  0
SECTION
  2
TABLES
  0
TABLE
  2
VPORT
 70
     1
  0
VPORT
  2
*ACTIVE
 70
     0
 10
0.0
 20
0.0
 11
1.0
 21
1.0
 12
203.52369892029591
 22
150.95205305989441
 13
0.0
 23
0.0
 14
5.0
 24
5.0
 15
10.0
 25
10.0
 16
0.0
 26
0.0
 36
1.0
 17
0.0
 27
0.0
 37
0.0
 40
310.59126266491052
 41
1.831871345029239
 42
50.0
 43
0.0
 44
0.0
 50
0.0
 51
0.0
 71
    16
 72
   500
 73
     1
 74
     0
 75
     0
 76
     0
 77
     0
 78
     1
  0
ENDTAB
  0
TABLE
  2
LTYPE
 70
     4
  0
LTYPE
  2
CONTINUOUS
 70
     0
  3
Solid line
 72
    65
 73
     0
 40
0.0
  0
LTYPE
  2
CENTER
 70
     0
  3
____ _ ____ _ ____ _ ____ _ ____ _ ____ _ ____
 72
    65
 73
     4
 40
2.0
 49
1.25
 49
-0.25
 49
0.25
 49
-0.25
  0
LTYPE
  2
HIDDEN
 70
     0
  3
Hidden __ __ __ __ __ __ __ __ __ __ __ __ __ __
 72
    65
 73
     2
 40
1.905
 49
1.27
 49
-0.635
  0
LTYPE
  2
PHANTOM2
 70
     0
  3
___ _ _ ___ _ _ ___ _ _ ___ _ _
 72
    65
 73
     6
 40
1.25
 49
0.625
 49
-0.125
 49
0.125
 49
-0.125
 49
0.125
 49
-0.125
  0
ENDTAB
  0
TABLE
  2
LAYER
 70
     6
  0
LAYER
  2
0
 70
     0
 62
     7
  6
CONTINUOUS
  0
LAYER
  2
1
 70
     0
 62
     1
  6
CENTER
  0
LAYER
  2
WAKU
 70
     0
 62
     5
  6
CONTINUOUS
  0
LAYER
  2
4
 70
     0
 62
     4
  6
CONTINUOUS
  0
LAYER
  2
3
 70
     0
 62
     3
  6
CONTINUOUS
  0
LAYER
  2
2
 70
     0
 62
     2
  6
HIDDEN
  0
ENDTAB
  0
TABLE
  2
STYLE
 70
     3
  0
STYLE
  2
STANDARD
 70
     0
 40
0.0
 41
1.0
 50
0.0
 71
     0
 42
2.5
  3
ROMANS
  4
EXTFONT
  0
STYLE
  2
K
 70
     0
 40
0.0
 41
0.75
 50
0.0
 71
     0
 42
3.2000000000000002
  3
ROMANS.shx
  4
EXTFONT.shx
  0
STYLE
  2
STANDARD1
 70
     0
 40
0.0
 41
1.0
 50
0.0
 71
     0
 42
3.0
  3
txt
  4

  0
ENDTAB
  0
TABLE
  2
VIEW
 70
     0
  0
ENDTAB
  0
TABLE
  2
UCS
 70
     0
  0
ENDTAB
  0
TABLE
  2
APPID
 70
     4
  0
APPID
  2
ACAD
 70
     0
  0
APPID
  2
ACAD_MLEADERVER
 70
     0
  0
APPID
  2
ACAD_EXEMPT_FROM_CAD_STANDARDS
 70
     0
  0
APPID
  2
ACAD_NAV_VCDISPLAY
 70
     0
  0
ENDTAB
  0
TABLE
  2
DIMSTYLE
 70
     2
  0
DIMSTYLE
  2
ITM
 70
     0
  3

  4

  5

  6

  7

 40
0.0
 41
2.5
 42
1.0
 43
6.0
 44
1.0
 45
0.0
 46
0.0
 47
495.0
 48
0.0
140
3.0
141
0.0
142
0.0
143
25.399999999999999
144
1.0
145
0.0
146
1.0
147
1.0
 71
     0
 72
     0
 73
     0
 74
     0
 75
     0
 76
     0
 77
     3
 78
     8
170
     0
171
     2
172
     1
173
     0
174
     0
175
     0
176
     0
177
     0
178
     0
  0
DIMSTYLE
  2
STANDARD
 70
     0
  3

  4

  5

  6

  7

 40
1.0
 41
0.18
 42
0.0625
 43
0.38
 44
0.18
 45
0.0
 46
0.0
 47
0.0
 48
0.0
140
0.18
141
0.09
142
0.0
143
25.399999999999999
144
1.0
145
0.0
146
1.0
147
0.09
 71
     0
 72
     0
 73
     1
 74
     1
 75
     0
 76
     0
 77
     0
 78
     0
170
     0
171
     2
172
     0
173
     0
174
     0
175
     0
176
     0
177
     0
178
     0
  0
ENDTAB
  0
ENDSEC
  0
SECTION
  2
BLOCKS
  0
BLOCK
  8
0
  2
$MODEL_SPACE
 70
     0
 10
0.0
 20
0.0
 30
0.0
  3
$MODEL_SPACE
  1

  0
ENDBLK
  5
12
  8
0
  0
BLOCK
 67
     1
  8
0
  2
$PAPER_SPACE
 70
     0
 10
0.0
 20
0.0
 30
0.0
  3
$PAPER_SPACE
  1

  0
ENDBLK
  5
19
 67
     1
  8
0
  0
BLOCK
  8
0
  2
ARROW1
 70
     0
 10
0.0
 20
0.0
 30
0.0
  3
ARROW1
  1

  0
SOLID
  5
4B
  8
WAKU
  6
CONTINUOUS
 62
     4
 10
-1.0
 20
0.1666666666666714
 30
0.0
 11
-1.0
 21
-0.1666666666666714
 31
0.0
 12
0.0
 22
0.0
 32
0.0
 13
0.0
 23
0.0
 33
0.0
  0
ENDBLK
  5
4D
  8
0
  0
ENDSEC
  0
SECTION
  2
ENTITIES
  0
CIRCLE
  5
7D
  8
0
 10
139.18173138202619
 20
283.56988039314291
 30
0.0
 40
17.5
  0
LINE
  5
7E
  8
1
 10
139.18173138202619
 20
18.71759278435076
 30
0.0
 11
139.18173138202619
 21
227.76232781372141
 31
0.0
  0
LINE
  5
81
  8
0
 10
122.18173045815421
 20
217.69884766407071
 30
0.0
 11
156.18173230589809
 21
217.6988476640708
 31
0.0
  0
LINE
  5
82
  8
0
 10
156.68173145653191
 20
217.19884665079189
 30
0.0
 11
121.68173130752039
 21
217.19884665079169
 31
0.0
  0
LINE
  5
83
  8
0
 10
122.18173045815421
 20
217.69884766407071
 30
0.0
 11
121.68173130752039
 21
217.19884665079169
 31
0.0
  0
LINE
  5
84
  8
0
 10
156.68173145653199
 20
217.19884665079169
 30
0.0
 11
156.18173230589821
 21
217.69884766407071
 31
0.0
  0
LINE
  5
85
  8
0
 10
121.68173130752039
 20
217.19884665079169
 30
0.0
 11
121.68173130752039
 21
93.142224413824763
 31
0.0
  0
LINE
  5
86
  8
0
 10
156.68173145653199
 20
93.142224413824707
 30
0.0
 11
156.68173145653199
 21
217.19884665079169
 31
0.0
  0
LINE
  5
87
  8
1
 10
117.8936372315324
 20
283.56988039314291
 30
0.0
 11
160.46982553251999
 21
283.56988039314291
 31
0.0
  0
LINE
  5
88
  8
1
 10
139.18173138202619
 20
304.85797454363677
 30
0.0
 11
139.18173138202619
 21
262.2817862426491
 31
0.0
  0
LINE
  5
89
  8
2
 10
130.43173134477331
 20
215.19885004825659
 30
0.0
 11
127.93173093499129
 21
217.69884766407071
 31
0.0
  0
LINE
  5
8C
  8
2
 10
130.43173134477351
 20
157.69884527988501
 30
0.0
 11
130.43173134477331
 21
215.19885004825659
 31
0.0
  0
LINE
  5
8D
  8
2
 10
147.93173141927909
 20
215.19885004825659
 30
0.0
 11
130.43173134477331
 21
215.19885004825659
 31
0.0
  0
LINE
  5
8E
  8
2
 10
129.1817316055438
 20
167.69885064430289
 30
0.0
 11
129.1817316055436
 21
216.44884885616361
 31
0.0
  0
LINE
  5
8F
  8
2
 10
147.93173141927909
 20
215.19885004825659
 30
0.0
 11
147.93173141927929
 21
157.69884527988501
 31
0.0
  0
LINE
  5
90
  8
2
 10
150.43173182906099
 20
217.6988476640708
 30
0.0
 11
147.93173141927909
 21
215.19885004825659
 31
0.0
  0
LINE
  5
91
  8
2
 10
149.1817311585088
 20
216.44884885616369
 30
0.0
 11
149.18173115850891
 21
167.69885064430301
 31
0.0
  0
LINE
  5
92
  8
2
 10
139.18173138202641
 20
152.44131700463359
 30
0.0
 11
130.43173134477351
 21
157.69884527988501
 31
0.0
  0
LINE
  5
93
  8
2
 10
147.93173141927929
 20
157.69884527988501
 30
0.0
 11
139.18173138202641
 21
152.44131700463359
 31
0.0
  0
LINE
  5
94
  8
2
 10
147.93173141927929
 20
157.69884527988501
 30
0.0
 11
130.43173134477351
 21
157.69884527988501
 31
0.0
  0
LINE
  5
95
  8
2
 10
129.1817316055438
 20
167.69885064430301
 30
0.0
 11
149.18173115850891
 21
167.69885064430301
 31
0.0
  0
LINE
  5
177
  8
0
 10
129.1817316055436
 20
30.698846963716189
 30
0.0
 11
131.68173154966419
 21
28.198847485256831
 31
0.0
  0
LINE
  5
178
  8
0
 10
146.68173121438809
 20
28.198847485256771
 30
0.0
 11
149.18173115850871
 21
30.698846963716129
 31
0.0
  0
LINE
  5
179
  8
0
 10
129.1817316055436
 20
57.698847664070762
 30
0.0
 11
129.1817316055436
 21
30.698846963716189
 31
0.0
  0
LINE
  5
17A
  8
0
 10
149.18173115850871
 20
30.698846963716129
 30
0.0
 11
149.18173115850871
 21
57.698847664070698
 31
0.0
  0
LINE
  5
17B
  8
0
 10
121.68173130752039
 20
58.198847687819487
 30
0.0
 11
122.18173045815421
 21
57.698847664070762
 31
0.0
  0
LINE
  5
17C
  8
0
 10
156.18173230589809
 20
57.698847664070698
 30
0.0
 11
156.68173145653199
 21
58.198847687819431
 31
0.0
  0
LINE
  5
17D
  8
0
 10
156.68173145653199
 20
58.198847687819431
 30
0.0
 11
156.68173145653199
 21
74.255471987200366
 31
0.0
  0
LINE
  5
17E
  8
0
 10
121.68173130752039
 20
74.255471987200423
 30
0.0
 11
121.68173130752039
 21
58.198847687819487
 31
0.0
  0
LINE
  5
17F
  8
0
 10
129.1817316055436
 20
30.698846963716189
 30
0.0
 11
149.1817311585086
 21
30.698846963716068
 31
0.0
  0
LINE
  5
180
  8
0
 10
131.68173154966419
 20
28.198847485256831
 30
0.0
 11
146.68173121438801
 21
28.198847485256721
 31
0.0
  0
LINE
  5
181
  8
0
 10
121.68173130752039
 20
58.198847687819431
 30
0.0
 11
156.68173145653199
 21
58.198847687819431
 31
0.0
  0
LINE
  5
182
  8
0
 10
156.18173230589809
 20
57.698847664070698
 30
0.0
 11
122.18173045815421
 21
57.698847664070698
 31
0.0
  0
POLYLINE
  5
183
  8
0
 66
     1
 10
0.0
 20
0.0
 30
0.0
 70
   128
  0
VERTEX
  5
27A
  8
0
 10
154.18173104675
 20
91.698849511814757
 30
0.0
  0
VERTEX
  5
27B
  8
0
 10
154.9325754135985
 20
92.132346642685576
 30
0.0
  0
VERTEX
  5
27C
  8
0
 10
155.55540297330799
 20
92.491937739325166
 30
0.0
  0
VERTEX
  5
27D
  8
0
 10
156.04515385033079
 20
92.774694723559008
 30
0.0
  0
VERTEX
  5
27E
  8
0
 10
156.3978457093377
 20
92.978322816563235
 30
0.0
  0
VERTEX
  5
27F
  8
0
 10
156.6106156647343
 20
93.101164264155017
 30
0.0
  0
VERTEX
  5
280
  8
0
 10
156.68173145653199
 20
93.142224413824664
 30
0.0
  0
SEQEND
  5
281
  8
0
  0
LINE
  5
184
  8
0
 10
154.18173104675
 20
75.69884688921033
 30
0.0
 11
154.18173104675
 21
91.698849511814757
 31
0.0
  0
POLYLINE
  5
185
  8
0
 66
     1
 10
0.0
 20
0.0
 30
0.0
 70
   128
  0
VERTEX
  5
282
  8
0
 10
156.68173145653199
 20
74.255471987200366
 30
0.0
  0
VERTEX
  5
283
  8
0
 10
156.6106156647343
 20
74.296530274224864
 30
0.0
  0
VERTEX
  5
284
  8
0
 10
156.3978457093377
 20
74.419373584461795
 30
0.0
  0
VERTEX
  5
285
  8
0
 10
156.04515385033079
 20
74.622999814820872
 30
0.0
  0
VERTEX
  5
286
  8
0
 10
155.55540297330799
 20
74.905758661699863
 30
0.0
  0
VERTEX
  5
287
  8
0
 10
154.9325754135985
 20
75.265347895694362
 30
0.0
  0
VERTEX
  5
288
  8
0
 10
154.18173104675
 20
75.69884688921033
 30
0.0
  0
SEQEND
  5
289
  8
0
  0
LINE
  5
186
  8
0
 10
124.1817317173023
 20
91.698849511814814
 30
0.0
 11
124.1817317173023
 21
75.698846889210387
 31
0.0
  0
POLYLINE
  5
187
  8
0
 66
     1
 10
0.0
 20
0.0
 30
0.0
 70
   128
  0
VERTEX
  5
28A
  8
0
 10
121.68173130752039
 20
93.142224413824721
 30
0.0
  0
VERTEX
  5
28B
  8
0
 10
121.752847099318
 20
93.101164264155074
 30
0.0
  0
VERTEX
  5
28C
  8
0
 10
121.9656170547146
 20
92.978322816563292
 30
0.0
  0
VERTEX
  5
28D
  8
0
 10
122.31830891372149
 20
92.774694723559065
 30
0.0
  0
VERTEX
  5
28E
  8
0
 10
122.8080597907443
 20
92.491937739325209
 30
0.0
  0
VERTEX
  5
28F
  8
0
 10
123.4308873504538
 20
92.132346642685633
 30
0.0
  0
VERTEX
  5
290
  8
0
 10
124.1817317173023
 20
91.698849511814814
 30
0.0
  0
SEQEND
  5
291
  8
0
  0
POLYLINE
  5
188
  8
0
 66
     1
 10
0.0
 20
0.0
 30
0.0
 70
   128
  0
VERTEX
  5
292
  8
0
 10
124.1817317173023
 20
75.698846889210387
 30
0.0
  0
VERTEX
  5
293
  8
0
 10
123.4308873504538
 20
75.265347895694418
 30
0.0
  0
VERTEX
  5
294
  8
0
 10
122.8080597907443
 20
74.905758661699934
 30
0.0
  0
VERTEX
  5
295
  8
0
 10
122.31830891372149
 20
74.622999814820929
 30
0.0
  0
VERTEX
  5
296
  8
0
 10
121.9656170547146
 20
74.419373584461852
 30
0.0
  0
VERTEX
  5
297
  8
0
 10
121.752847099318
 20
74.296530274224921
 30
0.0
  0
VERTEX
  5
298
  8
0
 10
121.68173130752039
 20
74.255471987200423
 30
0.0
  0
SEQEND
  5
299
  8
0
  0
LINE
  5
189
  8
0
 10
148.19560956360289
 20
91.698849511814757
 30
0.0
 11
148.19560956360289
 21
75.69884688921033
 31
0.0
  0
POLYLINE
  5
18A
  8
0
 10
148.19560957068614
 20
91.698847664070811
 30
0.0
 66
     1
 70
     8
  0
VERTEX
  8
0
  5
2A8
 10
148.196
 20
91.6988
 30
0.000000
  70
    32
  0
VERTEX
  8
0
  5
2A9
 10
148.068
 20
91.7425
 30
0.000000
  70
    32
  0
VERTEX
  8
0
  5
2AA
 10
147.941
 20
91.7856
 30
0.000000
  70
    32
  0
VERTEX
  8
0
  5
2AB
 10
147.812
 20
91.8280
 30
0.000000
  70
    32
  0
VERTEX
  8
0
  5
2AC
 10
147.683
 20
91.8699
 30
0.000000
  70
    32
  0
VERTEX
  8
0
  5
2AD
 10
147.554
 20
91.9110
 30
0.000000
  70
    32
  0
VERTEX
  8
0
  5
2AE
 10
147.423
 20
91.9516
 30
0.000000
  70
    32
  0
VERTEX
  8
0
  5
2AF
 10
147.293
 20
91.9915
 30
0.000000
  70
    32
  0
VERTEX
  8
0
  5
2B0
 10
147.161
 20
92.0308
 30
0.000000
  70
    32
  0
VERTEX
  8
0
  5
2B1
 10
147.029
 20
92.0694
 30
0.000000
  70
    32
  0
VERTEX
  8
0
  5
2B2
 10
146.897
 20
92.1074
 30
0.000000
  70
    32
  0
VERTEX
  8
0
  5
2B3
 10
146.764
 20
92.1447
 30
0.000000
  70
    32
  0
VERTEX
  8
0
  5
2B4
 10
146.630
 20
92.1814
 30
0.000000
  70
    32
  0
VERTEX
  8
0
  5
2B5
 10
146.496
 20
92.2174
 30
0.000000
  70
    32
  0
VERTEX
  8
0
  5
2B6
 10
146.361
 20
92.2528
 30
0.000000
  70
    32
  0
VERTEX
  8
0
  5
2B7
 10
146.226
 20
92.2875
 30
0.000000
  70
    32
  0
VERTEX
  8
0
  5
2B8
 10
146.090
 20
92.3216
 30
0.000000
  70
    32
  0
VERTEX
  8
0
  5
2B9
 10
145.954
 20
92.3550
 30
0.000000
  70
    32
  0
VERTEX
  8
0
  5
2BA
 10
145.817
 20
92.3877
 30
0.000000
  70
    32
  0
VERTEX
  8
0
  5
2BB
 10
145.680
 20
92.4198
 30
0.000000
  70
    32
  0
VERTEX
  8
0
  5
2BC
 10
145.543
 20
92.4511
 30
0.000000
  70
    32
  0
VERTEX
  8
0
  5
2BD
 10
145.405
 20
92.4818
 30
0.000000
  70
    32
  0
VERTEX
  8
0
  5
2BE
 10
145.266
 20
92.5119
 30
0.000000
  70
    32
  0
VERTEX
  8
0
  5
2BF
 10
145.127
 20
92.5412
 30
0.000000
  70
    32
  0
VERTEX
  8
0
  5
2C0
 10
144.988
 20
92.5699
 30
0.000000
  70
    32
  0
VERTEX
  8
0
  5
2C1
 10
144.848
 20
92.5979
 30
0.000000
  70
    32
  0
VERTEX
  8
0
  5
2C2
 10
144.708
 20
92.6252
 30
0.000000
  70
    32
  0
VERTEX
  8
0
  5
2C3
 10
144.567
 20
92.6519
 30
0.000000
  70
    32
  0
VERTEX
  8
0
  5
2C4
 10
144.426
 20
92.6778
 30
0.000000
  70
    32
  0
VERTEX
  8
0
  5
2C5
 10
144.285
 20
92.7031
 30
0.000000
  70
    32
  0
VERTEX
  8
0
  5
2C6
 10
144.143
 20
92.7276
 30
0.000000
  70
    32
  0
VERTEX
  8
0
  5
2C7
 10
144.001
 20
92.7515
 30
0.000000
  70
    32
  0
VERTEX
  8
0
  5
2C8
 10
143.859
 20
92.7747
 30
0.000000
  70
    32
  0
VERTEX
  8
0
  5
2C9
 10
143.716
 20
92.7972
 30
0.000000
  70
    32
  0
VERTEX
  8
0
  5
2CA
 10
143.573
 20
92.8190
 30
0.000000
  70
    32
  0
VERTEX
  8
0
  5
2CB
 10
143.430
 20
92.8400
 30
0.000000
  70
    32
  0
VERTEX
  8
0
  5
2CC
 10
143.286
 20
92.8604
 30
0.000000
  70
    32
  0
VERTEX
  8
0
  5
2CD
 10
143.142
 20
92.8801
 30
0.000000
  70
    32
  0
VERTEX
  8
0
  5
2CE
 10
142.998
 20
92.8991
 30
0.000000
  70
    32
  0
VERTEX
  8
0
  5
2CF
 10
142.853
 20
92.9174
 30
0.000000
  70
    32
  0
VERTEX
  8
0
  5
2D0
 10
142.708
 20
92.9349
 30
0.000000
  70
    32
  0
VERTEX
  8
0
  5
2D1
 10
142.563
 20
92.9518
 30
0.000000
  70
    32
  0
VERTEX
  8
0
  5
2D2
 10
142.418
 20
92.9679
 30
0.000000
  70
    32
  0
VERTEX
  8
0
  5
2D3
 10
142.273
 20
92.9834
 30
0.000000
  70
    32
  0
VERTEX
  8
0
  5
2D4
 10
142.127
 20
92.9981
 30
0.000000
  70
    32
  0
VERTEX
  8
0
  5
2D5
 10
141.981
 20
93.0121
 30
0.000000
  70
    32
  0
VERTEX
  8
0
  5
2D6
 10
141.835
 20
93.0254
 30
0.000000
  70
    32
  0
VERTEX
  8
0
  5
2D7
 10
141.688
 20
93.0380
 30
0.000000
  70
    32
  0
VERTEX
  8
0
  5
2D8
 10
141.542
 20
93.0499
 30
0.000000
  70
    32
  0
VERTEX
  8
0
  5
2D9
 10
141.395
 20
93.0611
 30
0.000000
  70
    32
  0
VERTEX
  8
0
  5
2DA
 10
141.248
 20
93.0715
 30
0.000000
  70
    32
  0
VERTEX
  8
0
  5
2DB
 10
141.101
 20
93.0813
 30
0.000000
  70
    32
  0
VERTEX
  8
0
  5
2DC
 10
140.954
 20
93.0903
 30
0.000000
  70
    32
  0
VERTEX
  8
0
  5
2DD
 10
140.807
 20
93.0986
 30
0.000000
  70
    32
  0
VERTEX
  8
0
  5
2DE
 10
140.660
 20
93.1061
 30
0.000000
  70
    32
  0
VERTEX
  8
0
  5
2DF
 10
140.512
 20
93.1130
 30
0.000000
  70
    32
  0
VERTEX
  8
0
  5
2E0
 10
140.364
 20
93.1191
 30
0.000000
  70
    32
  0
VERTEX
  8
0
  5
2E1
 10
140.217
 20
93.1245
 30
0.000000
  70
    32
  0
VERTEX
  8
0
  5
2E2
 10
140.069
 20
93.1292
 30
0.000000
  70
    32
  0
VERTEX
  8
0
  5
2E3
 10
139.921
 20
93.1332
 30
0.000000
  70
    32
  0
VERTEX
  8
0
  5
2E4
 10
139.773
 20
93.1364
 30
0.000000
  70
    32
  0
VERTEX
  8
0
  5
2E5
 10
139.626
 20
93.1390
 30
0.000000
  70
    32
  0
VERTEX
  8
0
  5
2E6
 10
139.478
 20
93.1408
 30
0.000000
  70
    32
  0
VERTEX
  8
0
  5
2E7
 10
139.330
 20
93.1419
 30
0.000000
  70
    32
  0
VERTEX
  8
0
  5
2E8
 10
139.182
 20
93.1422
 30
0.000000
  70
    32
  0
VERTEX
  8
0
  5
2E9
 10
139.034
 20
93.1419
 30
0.000000
  70
    32
  0
VERTEX
  8
0
  5
2EA
 10
138.886
 20
93.1408
 30
0.000000
  70
    32
  0
VERTEX
  8
0
  5
2EB
 10
138.738
 20
93.1390
 30
0.000000
  70
    32
  0
VERTEX
  8
0
  5
2EC
 10
138.590
 20
93.1364
 30
0.000000
  70
    32
  0
VERTEX
  8
0
  5
2ED
 10
138.442
 20
93.1332
 30
0.000000
  70
    32
  0
VERTEX
  8
0
  5
2EE
 10
138.294
 20
93.1292
 30
0.000000
  70
    32
  0
VERTEX
  8
0
  5
2EF
 10
138.147
 20
93.1245
 30
0.000000
  70
    32
  0
VERTEX
  8
0
  5
2F0
 10
137.999
 20
93.1191
 30
0.000000
  70
    32
  0
VERTEX
  8
0
  5
2F1
 10
137.851
 20
93.1130
 30
0.000000
  70
    32
  0
VERTEX
  8
0
  5
2F2
 10
137.704
 20
93.1061
 30
0.000000
  70
    32
  0
VERTEX
  8
0
  5
2F3
 10
137.557
 20
93.0986
 30
0.000000
  70
    32
  0
VERTEX
  8
0
  5
2F4
 10
137.409
 20
93.0903
 30
0.000000
  70
    32
  0
VERTEX
  8
0
  5
2F5
 10
137.262
 20
93.0813
 30
0.000000
  70
    32
  0
VERTEX
  8
0
  5
2F6
 10
137.115
 20
93.0715
 30
0.000000
  70
    32
  0
VERTEX
  8
0
  5
2F7
 10
136.968
 20
93.0611
 30
0.000000
  70
    32
  0
VERTEX
  8
0
  5
2F8
 10
136.822
 20
93.0499
 30
0.000000
  70
    32
  0
VERTEX
  8
0
  5
2F9
 10
136.675
 20
93.0380
 30
0.000000
  70
    32
  0
VERTEX
  8
0
  5
2FA
 10
136.529
 20
93.0254
 30
0.000000
  70
    32
  0
VERTEX
  8
0
  5
2FB
 10
136.383
 20
93.0121
 30
0.000000
  70
    32
  0
VERTEX
  8
0
  5
2FC
 10
136.237
 20
92.9981
 30
0.000000
  70
    32
  0
VERTEX
  8
0
  5
2FD
 10
136.091
 20
92.9834
 30
0.000000
  70
    32
  0
VERTEX
  8
0
  5
2FE
 10
135.945
 20
92.9679
 30
0.000000
  70
    32
  0
VERTEX
  8
0
  5
2FF
 10
135.800
 20
92.9518
 30
0.000000
  70
    32
  0
VERTEX
  8
0
  5
300
 10
135.655
 20
92.9349
 30
0.000000
  70
    32
  0
VERTEX
  8
0
  5
301
 10
135.510
 20
92.9174
 30
0.000000
  70
    32
  0
VERTEX
  8
0
  5
302
 10
135.366
 20
92.8991
 30
0.000000
  70
    32
  0
VERTEX
  8
0
  5
303
 10
135.221
 20
92.8801
 30
0.000000
  70
    32
  0
VERTEX
  8
0
  5
304
 10
135.078
 20
92.8604
 30
0.000000
  70
    32
  0
VERTEX
  8
0
  5
305
 10
134.934
 20
92.8400
 30
0.000000
  70
    32
  0
VERTEX
  8
0
  5
306
 10
134.790
 20
92.8190
 30
0.000000
  70
    32
  0
VERTEX
  8
0
  5
307
 10
134.647
 20
92.7972
 30
0.000000
  70
    32
  0
VERTEX
  8
0
  5
308
 10
134.505
 20
92.7747
 30
0.000000
  70
    32
  0
VERTEX
  8
0
  5
309
 10
134.362
 20
92.7515
 30
0.000000
  70
    32
  0
VERTEX
  8
0
  5
30A
 10
134.220
 20
92.7276
 30
0.000000
  70
    32
  0
VERTEX
  8
0
  5
30B
 10
134.078
 20
92.7031
 30
0.000000
  70
    32
  0
VERTEX
  8
0
  5
30C
 10
133.937
 20
92.6778
 30
0.000000
  70
    32
  0
VERTEX
  8
0
  5
30D
 10
133.796
 20
92.6519
 30
0.000000
  70
    32
  0
VERTEX
  8
0
  5
30E
 10
133.656
 20
92.6252
 30
0.000000
  70
    32
  0
VERTEX
  8
0
  5
30F
 10
133.515
 20
92.5979
 30
0.000000
  70
    32
  0
VERTEX
  8
0
  5
310
 10
133.376
 20
92.5699
 30
0.000000
  70
    32
  0
VERTEX
  8
0
  5
311
 10
133.236
 20
92.5412
 30
0.000000
  70
    32
  0
VERTEX
  8
0
  5
312
 10
133.097
 20
92.5119
 30
0.000000
  70
    32
  0
VERTEX
  8
0
  5
313
 10
132.959
 20
92.4818
 30
0.000000
  70
    32
  0
VERTEX
  8
0
  5
314
 10
132.821
 20
92.4511
 30
0.000000
  70
    32
  0
VERTEX
  8
0
  5
315
 10
132.683
 20
92.4198
 30
0.000000
  70
    32
  0
VERTEX
  8
0
  5
316
 10
132.546
 20
92.3877
 30
0.000000
  70
    32
  0
VERTEX
  8
0
  5
317
 10
132.409
 20
92.3550
 30
0.000000
  70
    32
  0
VERTEX
  8
0
  5
318
 10
132.273
 20
92.3216
 30
0.000000
  70
    32
  0
VERTEX
  8
0
  5
319
 10
132.137
 20
92.2875
 30
0.000000
  70
    32
  0
VERTEX
  8
0
  5
31A
 10
132.002
 20
92.2528
 30
0.000000
  70
    32
  0
VERTEX
  8
0
  5
31B
 10
131.868
 20
92.2174
 30
0.000000
  70
    32
  0
VERTEX
  8
0
  5
31C
 10
131.733
 20
92.1814
 30
0.000000
  70
    32
  0
VERTEX
  8
0
  5
31D
 10
131.600
 20
92.1447
 30
0.000000
  70
    32
  0
VERTEX
  8
0
  5
31E
 10
131.467
 20
92.1074
 30
0.000000
  70
    32
  0
VERTEX
  8
0
  5
31F
 10
131.334
 20
92.0694
 30
0.000000
  70
    32
  0
VERTEX
  8
0
  5
320
 10
131.202
 20
92.0308
 30
0.000000
  70
    32
  0
VERTEX
  8
0
  5
321
 10
131.071
 20
91.9915
 30
0.000000
  70
    32
  0
VERTEX
  8
0
  5
322
 10
130.940
 20
91.9516
 30
0.000000
  70
    32
  0
VERTEX
  8
0
  5
323
 10
130.810
 20
91.9110
 30
0.000000
  70
    32
  0
VERTEX
  8
0
  5
324
 10
130.680
 20
91.8699
 30
0.000000
  70
    32
  0
VERTEX
  8
0
  5
325
 10
130.551
 20
91.8280
 30
0.000000
  70
    32
  0
VERTEX
  8
0
  5
326
 10
130.423
 20
91.7856
 30
0.000000
  70
    32
  0
VERTEX
  8
0
  5
327
 10
130.295
 20
91.7425
 30
0.000000
  70
    32
  0
VERTEX
  8
0
  5
328
 10
130.168
 20
91.6988
 30
0.000000
  70
    32
  0
SEQEND
  8
0
  5
329
  0
LINE
  5
18B
  8
0
 10
130.1678532004494
 20
75.698846889210387
 30
0.0
 11
130.1678532004494
 21
91.698849511814814
 31
0.0
  0
POLYLINE
  5
18C
  8
0
 10
130.16785319336628
 20
75.698847664070712
 30
0.0
 66
     1
 70
     8
  0
VERTEX
  8
0
  5
32A
 10
130.168
 20
75.6988
 30
0.000000
  70
    32
  0
VERTEX
  8
0
  5
32B
 10
130.295
 20
75.6552
 30
0.000000
  70
    32
  0
VERTEX
  8
0
  5
32C
 10
130.423
 20
75.6121
 30
0.000000
  70
    32
  0
VERTEX
  8
0
  5
32D
 10
130.551
 20
75.5696
 30
0.000000
  70
    32
  0
VERTEX
  8
0
  5
32E
 10
130.680
 20
75.5278
 30
0.000000
  70
    32
  0
VERTEX
  8
0
  5
32F
 10
130.810
 20
75.4867
 30
0.000000
  70
    32
  0
VERTEX
  8
0
  5
330
 10
130.940
 20
75.4461
 30
0.000000
  70
    32
  0
VERTEX
  8
0
  5
331
 10
131.071
 20
75.4062
 30
0.000000
  70
    32
  0
VERTEX
  8
0
  5
332
 10
131.202
 20
75.3669
 30
0.000000
  70
    32
  0
VERTEX
  8
0
  5
333
 10
131.334
 20
75.3283
 30
0.000000
  70
    32
  0
VERTEX
  8
0
  5
334
 10
131.467
 20
75.2903
 30
0.000000
  70
    32
  0
VERTEX
  8
0
  5
335
 10
131.600
 20
75.2530
 30
0.000000
  70
    32
  0
VERTEX
  8
0
  5
336
 10
131.733
 20
75.2163
 30
0.000000
  70
    32
  0
VERTEX
  8
0
  5
337
 10
131.868
 20
75.1803
 30
0.000000
  70
    32
  0
VERTEX
  8
0
  5
338
 10
132.002
 20
75.1449
 30
0.000000
  70
    32
  0
VERTEX
  8
0
  5
339
 10
132.137
 20
75.1102
 30
0.000000
  70
    32
  0
VERTEX
  8
0
  5
33A
 10
132.273
 20
75.0761
 30
0.000000
  70
    32
  0
VERTEX
  8
0
  5
33B
 10
132.409
 20
75.0427
 30
0.000000
  70
    32
  0
VERTEX
  8
0
  5
33C
 10
132.546
 20
75.0100
 30
0.000000
  70
    32
  0
VERTEX
  8
0
  5
33D
 10
132.683
 20
74.9779
 30
0.000000
  70
    32
  0
VERTEX
  8
0
  5
33E
 10
132.821
 20
74.9466
 30
0.000000
  70
    32
  0
VERTEX
  8
0
  5
33F
 10
132.959
 20
74.9158
 30
0.000000
  70
    32
  0
VERTEX
  8
0
  5
340
 10
133.097
 20
74.8858
 30
0.000000
  70
    32
  0
VERTEX
  8
0
  5
341
 10
133.236
 20
74.8564
 30
0.000000
  70
    32
  0
VERTEX
  8
0
  5
342
 10
133.376
 20
74.8278
 30
0.000000
  70
    32
  0
VERTEX
  8
0
  5
343
 10
133.515
 20
74.7998
 30
0.000000
  70
    32
  0
VERTEX
  8
0
  5
344
 10
133.656
 20
74.7724
 30
0.000000
  70
    32
  0
VERTEX
  8
0
  5
345
 10
133.796
 20
74.7458
 30
0.000000
  70
    32
  0
VERTEX
  8
0
  5
346
 10
133.937
 20
74.7199
 30
0.000000
  70
    32
  0
VERTEX
  8
0
  5
347
 10
134.078
 20
74.6946
 30
0.000000
  70
    32
  0
VERTEX
  8
0
  5
348
 10
134.220
 20
74.6701
 30
0.000000
  70
    32
  0
VERTEX
  8
0
  5
349
 10
134.362
 20
74.6462
 30
0.000000
  70
    32
  0
VERTEX
  8
0
  5
34A
 10
134.505
 20
74.6230
 30
0.000000
  70
    32
  0
VERTEX
  8
0
  5
34B
 10
134.647
 20
74.6005
 30
0.000000
  70
    32
  0
VERTEX
  8
0
  5
34C
 10
134.790
 20
74.5787
 30
0.000000
  70
    32
  0
VERTEX
  8
0
  5
34D
 10
134.934
 20
74.5576
 30
0.000000
  70
    32
  0
VERTEX
  8
0
  5
34E
 10
135.078
 20
74.5373
 30
0.000000
  70
    32
  0
VERTEX
  8
0
  5
34F
 10
135.221
 20
74.5176
 30
0.000000
  70
    32
  0
VERTEX
  8
0
  5
350
 10
135.366
 20
74.4986
 30
0.000000
  70
    32
  0
VERTEX
  8
0
  5
351
 10
135.510
 20
74.4803
 30
0.000000
  70
    32
  0
VERTEX
  8
0
  5
352
 10
135.655
 20
74.4628
 30
0.000000
  70
    32
  0
VERTEX
  8
0
  5
353
 10
135.800
 20
74.4459
 30
0.000000
  70
    32
  0
VERTEX
  8
0
  5
354
 10
135.945
 20
74.4297
 30
0.000000
  70
    32
  0
VERTEX
  8
0
  5
355
 10
136.091
 20
74.4143
 30
0.000000
  70
    32
  0
VERTEX
  8
0
  5
356
 10
136.237
 20
74.3996
 30
0.000000
  70
    32
  0
VERTEX
  8
0
  5
357
 10
136.383
 20
74.3856
 30
0.000000
  70
    32
  0
VERTEX
  8
0
  5
358
 10
136.529
 20
74.3722
 30
0.000000
  70
    32
  0
VERTEX
  8
0
  5
359
 10
136.675
 20
74.3597
 30
0.000000
  70
    32
  0
VERTEX
  8
0
  5
35A
 10
136.822
 20
74.3478
 30
0.000000
  70
    32
  0
VERTEX
  8
0
  5
35B
 10
136.968
 20
74.3366
 30
0.000000
  70
    32
  0
VERTEX
  8
0
  5
35C
 10
137.115
 20
74.3262
 30
0.000000
  70
    32
  0
VERTEX
  8
0
  5
35D
 10
137.262
 20
74.3164
 30
0.000000
  70
    32
  0
VERTEX
  8
0
  5
35E
 10
137.409
 20
74.3074
 30
0.000000
  70
    32
  0
VERTEX
  8
0
  5
35F
 10
137.557
 20
74.2991
 30
0.000000
  70
    32
  0
VERTEX
  8
0
  5
360
 10
137.704
 20
74.2916
 30
0.000000
  70
    32
  0
VERTEX
  8
0
  5
361
 10
137.851
 20
74.2847
 30
0.000000
  70
    32
  0
VERTEX
  8
0
  5
362
 10
137.999
 20
74.2786
 30
0.000000
  70
    32
  0
VERTEX
  8
0
  5
363
 10
138.147
 20
74.2732
 30
0.000000
  70
    32
  0
VERTEX
  8
0
  5
364
 10
138.294
 20
74.2685
 30
0.000000
  70
    32
  0
VERTEX
  8
0
  5
365
 10
138.442
 20
74.2645
 30
0.000000
  70
    32
  0
VERTEX
  8
0
  5
366
 10
138.590
 20
74.2612
 30
0.000000
  70
    32
  0
VERTEX
  8
0
  5
367
 10
138.738
 20
74.2587
 30
0.000000
  70
    32
  0
VERTEX
  8
0
  5
368
 10
138.886
 20
74.2569
 30
0.000000
  70
    32
  0
VERTEX
  8
0
  5
369
 10
139.034
 20
74.2558
 30
0.000000
  70
    32
  0
VERTEX
  8
0
  5
36A
 10
139.182
 20
74.2555
 30
0.000000
  70
    32
  0
VERTEX
  8
0
  5
36B
 10
139.330
 20
74.2558
 30
0.000000
  70
    32
  0
VERTEX
  8
0
  5
36C
 10
139.478
 20
74.2569
 30
0.000000
  70
    32
  0
VERTEX
  8
0
  5
36D
 10
139.626
 20
74.2587
 30
0.000000
  70
    32
  0
VERTEX
  8
0
  5
36E
 10
139.773
 20
74.2612
 30
0.000000
  70
    32
  0
VERTEX
  8
0
  5
36F
 10
139.921
 20
74.2645
 30
0.000000
  70
    32
  0
VERTEX
  8
0
  5
370
 10
140.069
 20
74.2685
 30
0.000000
  70
    32
  0
VERTEX
  8
0
  5
371
 10
140.217
 20
74.2732
 30
0.000000
  70
    32
  0
VERTEX
  8
0
  5
372
 10
140.364
 20
74.2786
 30
0.000000
  70
    32
  0
VERTEX
  8
0
  5
373
 10
140.512
 20
74.2847
 30
0.000000
  70
    32
  0
VERTEX
  8
0
  5
374
 10
140.660
 20
74.2916
 30
0.000000
  70
    32
  0
VERTEX
  8
0
  5
375
 10
140.807
 20
74.2991
 30
0.000000
  70
    32
  0
VERTEX
  8
0
  5
376
 10
140.954
 20
74.3074
 30
0.000000
  70
    32
  0
VERTEX
  8
0
  5
377
 10
141.101
 20
74.3164
 30
0.000000
  70
    32
  0
VERTEX
  8
0
  5
378
 10
141.248
 20
74.3262
 30
0.000000
  70
    32
  0
VERTEX
  8
0
  5
379
 10
141.395
 20
74.3366
 30
0.000000
  70
    32
  0
VERTEX
  8
0
  5
37A
 10
141.542
 20
74.3478
 30
0.000000
  70
    32
  0
VERTEX
  8
0
  5
37B
 10
141.688
 20
74.3597
 30
0.000000
  70
    32
  0
VERTEX
  8
0
  5
37C
 10
141.835
 20
74.3722
 30
0.000000
  70
    32
  0
VERTEX
  8
0
  5
37D
 10
141.981
 20
74.3856
 30
0.000000
  70
    32
  0
VERTEX
  8
0
  5
37E
 10
142.127
 20
74.3996
 30
0.000000
  70
    32
  0
VERTEX
  8
0
  5
37F
 10
142.273
 20
74.4143
 30
0.000000
  70
    32
  0
VERTEX
  8
0
  5
380
 10
142.418
 20
74.4297
 30
0.000000
  70
    32
  0
VERTEX
  8
0
  5
381
 10
142.563
 20
74.4459
 30
0.000000
  70
    32
  0
VERTEX
  8
0
  5
382
 10
142.708
 20
74.4628
 30
0.000000
  70
    32
  0
VERTEX
  8
0
  5
383
 10
142.853
 20
74.4803
 30
0.000000
  70
    32
  0
VERTEX
  8
0
  5
384
 10
142.998
 20
74.4986
 30
0.000000
  70
    32
  0
VERTEX
  8
0
  5
385
 10
143.142
 20
74.5176
 30
0.000000
  70
    32
  0
VERTEX
  8
0
  5
386
 10
143.286
 20
74.5373
 30
0.000000
  70
    32
  0
VERTEX
  8
0
  5
387
 10
143.430
 20
74.5576
 30
0.000000
  70
    32
  0
VERTEX
  8
0
  5
388
 10
143.573
 20
74.5787
 30
0.000000
  70
    32
  0
VERTEX
  8
0
  5
389
 10
143.716
 20
74.6005
 30
0.000000
  70
    32
  0
VERTEX
  8
0
  5
38A
 10
143.859
 20
74.6230
 30
0.000000
  70
    32
  0
VERTEX
  8
0
  5
38B
 10
144.001
 20
74.6462
 30
0.000000
  70
    32
  0
VERTEX
  8
0
  5
38C
 10
144.143
 20
74.6701
 30
0.000000
  70
    32
  0
VERTEX
  8
0
  5
38D
 10
144.285
 20
74.6946
 30
0.000000
  70
    32
  0
VERTEX
  8
0
  5
38E
 10
144.426
 20
74.7199
 30
0.000000
  70
    32
  0
VERTEX
  8
0
  5
38F
 10
144.567
 20
74.7458
 30
0.000000
  70
    32
  0
VERTEX
  8
0
  5
390
 10
144.708
 20
74.7724
 30
0.000000
  70
    32
  0
VERTEX
  8
0
  5
391
 10
144.848
 20
74.7998
 30
0.000000
  70
    32
  0
VERTEX
  8
0
  5
392
 10
144.988
 20
74.8278
 30
0.000000
  70
    32
  0
VERTEX
  8
0
  5
393
 10
145.127
 20
74.8564
 30
0.000000
  70
    32
  0
VERTEX
  8
0
  5
394
 10
145.266
 20
74.8858
 30
0.000000
  70
    32
  0
VERTEX
  8
0
  5
395
 10
145.405
 20
74.9158
 30
0.000000
  70
    32
  0
VERTEX
  8
0
  5
396
 10
145.543
 20
74.9466
 30
0.000000
  70
    32
  0
VERTEX
  8
0
  5
397
 10
145.680
 20
74.9779
 30
0.000000
  70
    32
  0
VERTEX
  8
0
  5
398
 10
145.817
 20
75.0100
 30
0.000000
  70
    32
  0
VERTEX
  8
0
  5
399
 10
145.954
 20
75.0427
 30
0.000000
  70
    32
  0
VERTEX
  8
0
  5
39A
 10
146.090
 20
75.0761
 30
0.000000
  70
    32
  0
VERTEX
  8
0
  5
39B
 10
146.226
 20
75.1102
 30
0.000000
  70
    32
  0
VERTEX
  8
0
  5
39C
 10
146.361
 20
75.1449
 30
0.000000
  70
    32
  0
VERTEX
  8
0
  5
39D
 10
146.496
 20
75.1803
 30
0.000000
  70
    32
  0
VERTEX
  8
0
  5
39E
 10
146.630
 20
75.2163
 30
0.000000
  70
    32
  0
VERTEX
  8
0
  5
39F
 10
146.764
 20
75.2530
 30
0.000000
  70
    32
  0
VERTEX
  8
0
  5
3A0
 10
146.897
 20
75.2903
 30
0.000000
  70
    32
  0
VERTEX
  8
0
  5
3A1
 10
147.029
 20
75.3283
 30
0.000000
  70
    32
  0
VERTEX
  8
0
  5
3A2
 10
147.161
 20
75.3669
 30
0.000000
  70
    32
  0
VERTEX
  8
0
  5
3A3
 10
147.293
 20
75.4062
 30
0.000000
  70
    32
  0
VERTEX
  8
0
  5
3A4
 10
147.423
 20
75.4461
 30
0.000000
  70
    32
  0
VERTEX
  8
0
  5
3A5
 10
147.554
 20
75.4867
 30
0.000000
  70
    32
  0
VERTEX
  8
0
  5
3A6
 10
147.683
 20
75.5278
 30
0.000000
  70
    32
  0
VERTEX
  8
0
  5
3A7
 10
147.812
 20
75.5696
 30
0.000000
  70
    32
  0
VERTEX
  8
0
  5
3A8
 10
147.941
 20
75.6121
 30
0.000000
  70
    32
  0
VERTEX
  8
0
  5
3A9
 10
148.068
 20
75.6552
 30
0.000000
  70
    32
  0
VERTEX
  8
0
  5
3AA
 10
148.196
 20
75.6988
 30
0.000000
  70
    32
  0
SEQEND
  8
0
  5
3AB
  0
LINE
  5
18D
  8
0
 10
148.19560956360289
 20
75.69884688921033
 30
0.0
 11
130.1678532004494
 21
75.698846889210387
 31
0.0
  0
LINE
  5
18E
  8
0
 10
148.19560956360289
 20
91.698849511814757
 30
0.0
 11
130.1678532004494
 21
91.698849511814814
 31
0.0
  0
LINE
  5
18F
  8
0
 10
148.195609570686
 20
75.698847664070826
 30
0.0
 11
130.16785319336611
 21
91.698847664070883
 31
0.0
  0
LINE
  5
190
  8
0
 10
148.195609570686
 20
91.698847664070826
 30
0.0
 11
130.16785319336611
 21
75.698847664070883
 31
0.0
  0
LINE
  5
191
  8
3
 10
130.43173134477331
 20
57.698847664070762
 30
0.0
 11
130.43173134477331
 21
29.448848155809081
 31
0.0
  0
LINE
  5
192
  8
3
 10
147.93173141927909
 20
29.448848155809021
 30
0.0
 11
147.93173141927909
 21
57.698847664070698
 31
0.0
  0
CIRCLE
  5
1BF
  8
3
 10
139.18173138202619
 20
283.56988039314291
 30
0.0
 40
10.0
  0
CIRCLE
  5
1C0
  8
0
 10
139.18173138202619
 20
283.56988039314291
 30
0.0
 40
8.7499999999999911
  0
TEXT
  5
228
  8
0
 62
     3
 10
0.0
 20
0.0
 30
0.0
 40
10.0
  1
BJ601-20160
  7
STANDARD1
  0
ENDSEC
  0
EOF
