  0
SECTION
  2
HEADER
  9
$ACADVER
  1
AC1009
  9
$INSBASE
 10
0.0
 20
0.0
 30
0.0
  9
$EXTMIN
 10
0.0
 20
-2.960436562073669
 30
0.0
  9
$EXTMAX
 10
137.5006450879591
 20
179.1927112499433
 30
0.0
  9
$LIMMIN
 10
0.0
 20
0.0
  9
$LIMMAX
 10
0.0
 20
0.0
  9
$ORTHOMODE
 70
     0
  9
$REGENMODE
 70
     1
  9
$FILLMODE
 70
     1
  9
$QTEXTMODE
 70
     0
  9
$MIRRTEXT
 70
     0
  9
$DRAGMODE
 70
     2
  9
$LTSCALE
 40
1.0
  9
$OSMODE
 70
  3071
  9
$ATTMODE
 70
     1
  9
$TEXTSIZE
 40
0.0
  9
$TRACEWID
 40
0.05
  9
$TEXTSTYLE
  7
STANDARD
  9
$CLAYER
  8
0
  9
$CELTYPE
  6
BYLAYER
  9
$CECOLOR
 62
   256
  9
$DIMSCALE
 40
1.0
  9
$DIMASZ
 40
6.0
  9
$DIMEXO
 40
1.0
  9
$DIMDLI
 40
0.38
  9
$DIMRND
 40
0.0
  9
$DIMDLE
 40
1.0
  9
$DIMEXE
 40
0.18
  9
$DIMTP
 40
0.0
  9
$DIMTM
 40
0.0
  9
$DIMTXT
 40
3.5
  9
$DIMCEN
 40
0.09
  9
$DIMTSZ
 40
0.0
  9
$DIMTOL
 70
     0
  9
$DIMLIM
 70
     0
  9
$DIMTIH
 70
     1
  9
$DIMTOH
 70
     1
  9
$DIMSE1
 70
     0
  9
$DIMSE2
 70
     0
  9
$DIMTAD
 70
     1
  9
$DIMZIN
 70
     0
  9
$DIMBLK
  1

  9
$DIMASO
 70
     1
  9
$DIMSHO
 70
     1
  9
$DIMPOST
  1

  9
$DIMAPOST
  1

  9
$DIMALT
 70
     0
  9
$DIMALTD
 70
     2
  9
$DIMALTF
 40
0.0394
  9
$DIMLFAC
 40
1.0
  9
$DIMTOFL
 70
     0
  9
$DIMTVP
 40
0.0
  9
$DIMTIX
 70
     0
  9
$DIMSOXD
 70
     0
  9
$DIMSAH
 70
     0
  9
$DIMBLK1
  1

  9
$DIMBLK2
  1

  9
$DIMSTYLE
  2
STANDARD
  9
$DIMCLRD
 70
     0
  9
$DIMCLRE
 70
     0
  9
$DIMCLRT
 70
     0
  9
$DIMTFAC
 40
1.0
  9
$DIMGAP
 40
1.0
  9
$LUNITS
 70
     2
  9
$LUPREC
 70
     2
  9
$SKETCHINC
 40
0.1
  9
$FILLETRAD
 40
0.0
  9
$AUNITS
 70
     0
  9
$AUPREC
 70
     2
  9
$MENU
  1
acad
  9
$ELEVATION
 40
0.0
  9
$PELEVATION
 40
0.0
  9
$THICKNESS
 40
0.0
  9
$LIMCHECK
 70
     0
  9
$BLIPMODE
 70
     0
  9
$CHAMFERA
 40
0.0
  9
$CHAMFERB
 40
0.0
  9
$SKPOLY
 70
     0
  9
$TDCREATE
 40
2444972.375
  9
$TDUPDATE
 40
2456597.6800920488
  9
$TDINDWG
 40
0.0112515046
  9
$TDUSRTIMER
 40
0.0112515046
  9
$USRTIMER
 70
     1
  9
$ANGBASE
 50
0.0
  9
$ANGDIR
 70
     0
  9
$PDMODE
 70
     0
  9
$PDSIZE
 40
-1.0
  9
$PLINEWID
 40
0.0
  9
$COORDS
 70
     1
  9
$SPLFRAME
 70
     0
  9
$SPLINETYPE
 70
     6
  9
$SPLINESEGS
 70
     8
  9
$ATTDIA
 70
     0
  9
$ATTREQ
 70
     1
  9
$HANDLING
 70
     1
  9
$HANDSEED
  5
223
  9
$SURFTAB1
 70
     6
  9
$SURFTAB2
 70
     6
  9
$SURFTYPE
 70
     6
  9
$SURFU
 70
     6
  9
$SURFV
 70
     6
  9
$UCSNAME
  2

  9
$UCSORG
 10
0.0
 20
0.0
 30
0.0
  9
$UCSXDIR
 10
1.0
 20
0.0
 30
0.0
  9
$UCSYDIR
 10
0.0
 20
1.0
 30
0.0
  9
$PUCSNAME
  2

  9
$PUCSORG
 10
0.0
 20
0.0
 30
0.0
  9
$PUCSXDIR
 10
1.0
 20
0.0
 30
0.0
  9
$PUCSYDIR
 10
0.0
 20
1.0
 30
0.0
  9
$USERI1
 70
     0
  9
$USERI2
 70
     1
  9
$USERI3
 70
     0
  9
$USERI4
 70
     0
  9
$USERI5
 70
     0
  9
$USERR1
 40
0.0
  9
$USERR2
 40
0.0
  9
$USERR3
 40
0.0
  9
$USERR4
 40
0.0
  9
$USERR5
 40
0.0
  9
$WORLDVIEW
 70
     1
  9
$SHADEDGE
 70
     3
  9
$SHADEDIF
 70
    70
  9
$TILEMODE
 70
     1
  9
$MAXACTVP
 70
    16
  9
$PLIMCHECK
 70
     0
  9
$PEXTMIN
 10
1.0000000000000000E+020
 20
1.0000000000000000E+020
 30
1.0000000000000000E+020
  9
$PEXTMAX
 10
-1.0000000000000000E+020
 20
-1.0000000000000000E+020
 30
-1.0000000000000000E+020
  9
$PLIMMIN
 10
0.0
 20
0.0
  9
$PLIMMAX
 10
12.0
 20
9.0
  9
$UNITMODE
 70
     0
  9
$VISRETAIN
 70
     0
  9
$PLINEGEN
 70
     1
  9
$PSLTSCALE
 70
     1
  0
ENDSEC
  0
SECTION
  2
TABLES
  0
TABLE
  2
VPORT
 70
     1
  0
VPORT
  2
*ACTIVE
 70
     0
 10
0.0
 20
0.0
 11
1.0
 21
1.0
 12
73.798065836956241
 22
88.113017938453893
 13
0.0
 23
0.0
 14
1.0
 24
1.0
 15
0.0
 25
0.0
 16
0.0
 26
0.0
 36
1.0
 17
0.0
 27
0.0
 37
0.0
 40
183.80413908217179
 41
1.831871345029239
 42
50.0
 43
0.0
 44
0.0
 50
0.0
 51
0.0
 71
     0
 72
  2000
 73
     1
 74
     0
 75
     0
 76
     0
 77
     0
 78
     0
  0
ENDTAB
  0
TABLE
  2
LTYPE
 70
     4
  0
LTYPE
  2
CONTINUOUS
 70
     0
  3
Solid Line
 72
    65
 73
     0
 40
0.0
  0
LTYPE
  2
HIDDEN
 70
     0
  3
Hidden __ __ __ __ __ __ __ __ __ __ __ __ __ __
 72
    65
 73
     2
 40
1.905
 49
1.27
 49
-0.635
  0
LTYPE
  2
CENTER
 70
     0
  3
Center ____ _ ____ _ ____ _ ____ _ ____ _ ____
 72
    65
 73
     4
 40
10.16
 49
6.3499999999999988
 49
-1.27
 49
1.27
 49
-1.27
  0
LTYPE
  2
PHANTOM2
 70
     0
  3
___ _ _ ___ _ _ ___ _ _ ___ _ _
 72
    65
 73
     6
 40
1.25
 49
0.625
 49
-0.125
 49
0.125
 49
-0.125
 49
0.125
 49
-0.125
  0
ENDTAB
  0
TABLE
  2
LAYER
 70
     5
  0
LAYER
  2
0
 70
     0
 62
     7
  6
CONTINUOUS
  0
LAYER
  2
DEFPOINTS
 70
     0
 62
     7
  6
CONTINUOUS
  0
LAYER
  2
1
 70
     0
 62
     1
  6
CENTER
  0
LAYER
  2
2
 70
     0
 62
     2
  6
HIDDEN
  0
LAYER
  2
3
 70
     0
 62
     3
  6
CONTINUOUS
  0
ENDTAB
  0
TABLE
  2
STYLE
 70
     2
  0
STYLE
  2
STANDARD
 70
     0
 40
0.0
 41
1.0
 50
0.0
 71
     0
 42
0.0
  3
txt
  4
bigfont
  0
STYLE
  2
STANDARD1
 70
     0
 40
0.0
 41
1.0
 50
0.0
 71
     0
 42
3.0
  3
txt
  4

  0
ENDTAB
  0
TABLE
  2
VIEW
 70
     0
  0
ENDTAB
  0
TABLE
  2
UCS
 70
     0
  0
ENDTAB
  0
TABLE
  2
APPID
 70
     3
  0
APPID
  2
ACAD
 70
     0
  0
APPID
  2
ACAD_MLEADERVER
 70
     0
  0
APPID
  2
ACAD_NAV_VCDISPLAY
 70
     0
  0
ENDTAB
  0
TABLE
  2
DIMSTYLE
 70
     1
  0
DIMSTYLE
  2
STANDARD
 70
     0
  3

  4

  5

  6

  7

 40
1.0
 41
0.18
 42
0.0625
 43
0.38
 44
0.18
 45
0.0
 46
0.0
 47
0.0
 48
0.0
140
0.18
141
0.09
142
0.0
143
25.399999999999999
144
1.0
145
0.0
146
1.0
147
0.09
 71
     0
 72
     0
 73
     1
 74
     1
 75
     0
 76
     0
 77
     0
 78
     0
170
     0
171
     2
172
     0
173
     0
174
     0
175
     0
176
     0
177
     0
178
     0
  0
ENDTAB
  0
ENDSEC
  0
SECTION
  2
BLOCKS
  0
BLOCK
  8
0
  2
$MODEL_SPACE
 70
     0
 10
0.0
 20
0.0
 30
0.0
  3
$MODEL_SPACE
  1

  0
ENDBLK
  5
E
  8
0
  0
BLOCK
 67
     1
  8
0
  2
$PAPER_SPACE
 70
     0
 10
0.0
 20
0.0
 30
0.0
  3
$PAPER_SPACE
  1

  0
ENDBLK
  5
10
 67
     1
  8
0
  0
ENDSEC
  0
SECTION
  2
ENTITIES
  0
CIRCLE
  5
AB
  8
0
 10
116.5006450879591
 20
158.1927112499433
 30
0.0
 40
6.9174999999994853
  0
LINE
  5
AC
  8
1
 10
116.5006450879591
 20
123.1927112499433
 30
0.0
 11
116.5006450879591
 21
38.692711079536281
 31
0.0
  0
LINE
  5
AD
  8
1
 10
116.5006450879591
 20
137.1927112499433
 30
0.0
 11
116.5006450879591
 21
179.1927112499433
 31
0.0
  0
LINE
  5
AE
  8
1
 10
95.500645087959157
 20
158.1927112499433
 30
0.0
 11
137.5006450879591
 21
158.1927112499433
 31
0.0
  0
LINE
  5
AF
  8
2
 10
124.5006450879593
 20
86.192711249943457
 30
0.0
 11
108.5006450879593
 21
86.192711249943301
 31
0.0
  0
LINE
  5
B0
  8
2
 10
124.5006450879593
 20
86.192711249943457
 30
0.0
 11
124.5006450879591
 21
118.1927112499434
 31
0.0
  0
LINE
  5
B1
  8
2
 10
123.4181450879593
 20
86.192711249943429
 30
0.0
 11
123.4181450879591
 21
118.1927112499433
 31
0.0
  0
LINE
  5
B2
  8
2
 10
108.5006450879591
 20
118.1927112499433
 30
0.0
 11
108.5006450879593
 21
86.192711249943301
 31
0.0
  0
LINE
  5
B3
  8
2
 10
109.58314508795929
 20
86.192711249943315
 30
0.0
 11
109.5831450879591
 21
118.1927112499433
 31
0.0
  0
LINE
  5
B4
  8
0
 10
124.5006450879596
 20
45.692711249943372
 30
0.0
 11
108.5006450879596
 21
45.692711249943251
 31
0.0
  0
LINE
  5
B5
  8
3
 10
109.58314508795971
 20
44.610211249943241
 30
0.0
 11
109.58314508795949
 21
68.192711249943329
 31
0.0
  0
LINE
  5
B6
  8
3
 10
123.4181450879597
 20
44.610211249943383
 30
0.0
 11
123.4181450879595
 21
68.192711249943329
 31
0.0
  0
LINE
  5
B7
  8
0
 10
122.5006450879597
 20
43.692711249943358
 30
0.0
 11
124.5006450879596
 21
45.692711249943372
 31
0.0
  0
LINE
  5
B8
  8
0
 10
110.5006450879596
 20
43.692711249943272
 30
0.0
 11
108.5006450879596
 21
45.692711249943251
 31
0.0
  0
CIRCLE
  5
B9
  8
0
 10
116.5006450879591
 20
158.1927112499433
 30
0.0
 40
16.0
  0
CIRCLE
  5
BA
  8
3
 10
116.5006450879591
 20
158.1927112499433
 30
0.0
 40
8.0
  0
LINE
  5
BB
  8
0
 10
132.50064508795921
 20
101.6360869229175
 30
0.0
 11
132.5006450879591
 21
118.1927112499434
 31
0.0
  0
LINE
  5
BC
  8
0
 10
132.5006450879595
 20
68.192711249943443
 30
0.0
 11
132.50064508795941
 21
84.749335576969457
 31
0.0
  0
LINE
  5
BD
  8
0
 10
100.5006450879594
 20
84.749335576969173
 30
0.0
 11
100.5006450879595
 21
68.192711249943216
 31
0.0
  0
LINE
  5
BE
  8
0
 10
100.5006450879591
 20
118.1927112499432
 30
0.0
 11
100.5006450879592
 21
101.6360869229173
 31
0.0
  0
LINE
  5
BF
  8
0
 10
108.5006450879595
 20
68.192711249943272
 30
0.0
 11
108.5006450879596
 21
45.692711249943251
 31
0.0
  0
LINE
  5
C0
  8
0
 10
124.5006450879596
 20
45.692711249943372
 30
0.0
 11
124.5006450879595
 21
68.192711249943386
 31
0.0
  0
LINE
  5
C1
  8
0
 10
100.5006450879595
 20
68.192711249943216
 30
0.0
 11
132.5006450879595
 21
68.192711249943443
 31
0.0
  0
LINE
  5
C2
  8
0
 10
100.5006450879591
 20
118.1927112499432
 30
0.0
 11
132.5006450879591
 21
118.1927112499434
 31
0.0
  0
LINE
  5
C3
  8
0
 10
103.0006450879592
 20
100.1927112499432
 30
0.0
 11
103.0006450879594
 21
86.192711249943244
 31
0.0
  0
LINE
  5
C4
  8
0
 10
100.5006450879592
 20
101.6360869229173
 30
0.0
 11
103.0006450879594
 21
100.1927112499432
 31
0.0
  0
LINE
  5
C5
  8
0
 10
103.0006450879594
 20
86.192711249943301
 30
0.0
 11
100.5006450879594
 21
84.749335576969173
 31
0.0
  0
LINE
  5
C6
  8
0
 10
132.50064508795941
 20
84.749335576969457
 30
0.0
 11
130.00064508795941
 21
86.192711249943528
 31
0.0
  0
LINE
  5
C7
  8
0
 10
130.00064508795921
 20
100.1927112499435
 30
0.0
 11
132.50064508795921
 21
101.6360869229175
 31
0.0
  0
LINE
  5
C8
  8
0
 10
130.00064508795941
 20
86.192711249943443
 30
0.0
 11
130.00064508795921
 21
100.1927112499434
 31
0.0
  0
LINE
  5
C9
  8
0
 10
125.0884271066182
 20
100.1927112499434
 30
0.0
 11
125.0884271066182
 21
86.192711249943443
 31
0.0
  0
POLYLINE
  5
CA
  8
0
 66
     1
 10
0.0
 20
0.0
 30
0.0
 70
   128
  0
VERTEX
  5
1C7
  8
0
 10
107.9128630693004
 20
100.1927112499433
 30
0.0
  0
VERTEX
  5
1C8
  8
0
 10
108.88966859009609
 20
100.52401924942281
 30
0.0
  0
VERTEX
  5
1C9
  8
0
 10
109.9046313847106
 20
100.81459025196941
 30
0.0
  0
VERTEX
  5
1CA
  8
0
 10
110.9526629847611
 20
101.0629674934856
 30
0.0
  0
VERTEX
  5
1CB
  8
0
 10
112.0285091329598
 20
101.2679057463168
 30
0.0
  0
VERTEX
  5
1CC
  8
0
 10
113.1267761250852
 20
101.42837756214119
 30
0.0
  0
VERTEX
  5
1CD
  8
0
 10
114.2419578510666
 20
101.54357842303421
 30
0.0
  0
VERTEX
  5
1CE
  8
0
 10
115.3684633996079
 20
101.61293077488099
 30
0.0
  0
VERTEX
  5
1CF
  8
0
 10
116.5006450879594
 20
101.6360869229175
 30
0.0
  0
VERTEX
  5
1D0
  8
0
 10
117.63282677631101
 20
101.61293077488099
 30
0.0
  0
VERTEX
  5
1D1
  8
0
 10
118.7593323248522
 20
101.54357842303421
 30
0.0
  0
VERTEX
  5
1D2
  8
0
 10
119.8745140508336
 20
101.42837756214119
 30
0.0
  0
VERTEX
  5
1D3
  8
0
 10
120.9727810429591
 20
101.2679057463168
 30
0.0
  0
VERTEX
  5
1D4
  8
0
 10
122.04862719115771
 20
101.0629674934856
 30
0.0
  0
VERTEX
  5
1D5
  8
0
 10
123.0966587912083
 20
100.81459025196941
 30
0.0
  0
VERTEX
  5
1D6
  8
0
 10
124.1116215858227
 20
100.52401924942291
 30
0.0
  0
VERTEX
  5
1D7
  8
0
 10
125.0884271066184
 20
100.1927112499434
 30
0.0
  0
SEQEND
  5
1D8
  8
0
  0
LINE
  5
CB
  8
0
 10
107.9128630693006
 20
86.192711249943301
 30
0.0
 11
107.9128630693005
 21
100.1927112499433
 31
0.0
  0
POLYLINE
  5
CC
  8
0
 66
     1
 10
0.0
 20
0.0
 30
0.0
 70
   128
  0
VERTEX
  5
1D9
  8
0
 10
125.0884271066182
 20
86.192711249943457
 30
0.0
  0
VERTEX
  5
1DA
  8
0
 10
124.1116215858225
 20
85.861403250463951
 30
0.0
  0
VERTEX
  5
1DB
  8
0
 10
123.0966587912081
 20
85.570832247917423
 30
0.0
  0
VERTEX
  5
1DC
  8
0
 10
122.04862719115761
 20
85.322455006401185
 30
0.0
  0
VERTEX
  5
1DD
  8
0
 10
120.972781042959
 20
85.117516753570015
 30
0.0
  0
VERTEX
  5
1DE
  8
0
 10
119.8745140508335
 20
84.957044937745621
 30
0.0
  0
VERTEX
  5
1DF
  8
0
 10
118.7593323248522
 20
84.841844076852624
 30
0.0
  0
VERTEX
  5
1E0
  8
0
 10
117.63282677631091
 20
84.772491725005807
 30
0.0
  0
VERTEX
  5
1E1
  8
0
 10
116.5006450879594
 20
84.749335576969344
 30
0.0
  0
VERTEX
  5
1E2
  8
0
 10
115.3684633996079
 20
84.772491725005764
 30
0.0
  0
VERTEX
  5
1E3
  8
0
 10
114.2419578510666
 20
84.841844076852624
 30
0.0
  0
VERTEX
  5
1E4
  8
0
 10
113.1267761250853
 20
84.957044937745565
 30
0.0
  0
VERTEX
  5
1E5
  8
0
 10
112.0285091329598
 20
85.117516753569944
 30
0.0
  0
VERTEX
  5
1E6
  8
0
 10
110.9526629847612
 20
85.3224550064011
 30
0.0
  0
VERTEX
  5
1E7
  8
0
 10
109.9046313847107
 20
85.570832247917338
 30
0.0
  0
VERTEX
  5
1E8
  8
0
 10
108.88966859009621
 20
85.861403250463866
 30
0.0
  0
VERTEX
  5
1E9
  8
0
 10
107.9128630693006
 20
86.192711249943358
 30
0.0
  0
SEQEND
  5
1EA
  8
0
  0
LINE
  5
CD
  8
0
 10
107.9128630693006
 20
86.192711249943301
 30
0.0
 11
125.0884271066182
 21
86.192711249943443
 31
0.0
  0
LINE
  5
CE
  8
0
 10
107.9128630693005
 20
100.1927112499433
 30
0.0
 11
125.0884271066182
 21
100.1927112499434
 31
0.0
  0
LINE
  5
CF
  8
0
 10
122.5006450879597
 20
43.692711249943358
 30
0.0
 11
110.5006450879596
 21
43.692711249943272
 31
0.0
  0
LINE
  5
12E
  8
0
 10
107.9128630693003
 20
100.1927112499433
 30
0.0
 11
125.0884271066182
 21
86.1927112499435
 31
0.0
  0
LINE
  5
12F
  8
0
 10
125.0884271066182
 20
100.1927112499434
 30
0.0
 11
107.9128630693006
 21
86.192711249943301
 31
0.0
  0
TEXT
  5
199
  8
0
 62
     3
 10
0.0
 20
0.0
 30
0.0
 40
10.0
  1
BJ601-16050
  7
STANDARD1
  0
ENDSEC
  0
EOF
