  0
SECTION
  2
HEADER
  9
$ACADVER
  1
AC1009
  9
$INSBASE
 10
0.0
 20
0.0
 30
0.0
  9
$EXTMIN
 10
0.0
 20
-2.960436562073669
 30
0.0
  9
$EXTMAX
 10
486.4996362686731
 20
339.0000025928021
 30
0.0
  9
$LIMMIN
 10
0.0
 20
0.0
  9
$LIMMAX
 10
770.0
 20
540.0
  9
$ORTHOMODE
 70
     1
  9
$REGENMODE
 70
     1
  9
$FILLMODE
 70
     1
  9
$QTEXTMODE
 70
     0
  9
$MIRRTEXT
 70
     0
  9
$DRAGMODE
 70
     2
  9
$LTSCALE
 40
5.0
  9
$OSMODE
 70
    37
  9
$ATTMODE
 70
     1
  9
$TEXTSIZE
 40
4.000000000000048
  9
$TRACEWID
 40
0.05
  9
$TEXTSTYLE
  7
STANDARD
  9
$CLAYER
  8
0
  9
$CELTYPE
  6
BYLAYER
  9
$CECOLOR
 62
   256
  9
$DIMSCALE
 40
2.0
  9
$DIMASZ
 40
3.0
  9
$DIMEXO
 40
2.0
  9
$DIMDLI
 40
0.38
  9
$DIMRND
 40
0.0
  9
$DIMDLE
 40
0.0
  9
$DIMEXE
 40
2.0
  9
$DIMTP
 40
0.0
  9
$DIMTM
 40
0.0
  9
$DIMTXT
 40
3.0
  9
$DIMCEN
 40
0.0
  9
$DIMTSZ
 40
0.0
  9
$DIMTOL
 70
     0
  9
$DIMLIM
 70
     0
  9
$DIMTIH
 70
     0
  9
$DIMTOH
 70
     0
  9
$DIMSE1
 70
     0
  9
$DIMSE2
 70
     0
  9
$DIMTAD
 70
     1
  9
$DIMZIN
 70
     0
  9
$DIMBLK
  1

  9
$DIMASO
 70
     0
  9
$DIMSHO
 70
     0
  9
$DIMPOST
  1

  9
$DIMAPOST
  1

  9
$DIMALT
 70
     0
  9
$DIMALTD
 70
     2
  9
$DIMALTF
 40
25.399999999999999
  9
$DIMLFAC
 40
1.0
  9
$DIMTOFL
 70
     0
  9
$DIMTVP
 40
1.6000000000000001
  9
$DIMTIX
 70
     1
  9
$DIMSOXD
 70
     0
  9
$DIMSAH
 70
     0
  9
$DIMBLK1
  1

  9
$DIMBLK2
  1

  9
$DIMSTYLE
  2
STANDARD
  9
$DIMCLRD
 70
     4
  9
$DIMCLRE
 70
     4
  9
$DIMCLRT
 70
     4
  9
$DIMTFAC
 40
1.0
  9
$DIMGAP
 40
0.09
  9
$LUNITS
 70
     2
  9
$LUPREC
 70
     1
  9
$SKETCHINC
 40
0.1
  9
$FILLETRAD
 40
0.0
  9
$AUNITS
 70
     0
  9
$AUPREC
 70
     0
  9
$MENU
  1
E:\r13\win\SUPPORT\ACAD
  9
$ELEVATION
 40
0.0
  9
$PELEVATION
 40
0.0
  9
$THICKNESS
 40
0.0
  9
$LIMCHECK
 70
     0
  9
$BLIPMODE
 70
     0
  9
$CHAMFERA
 40
1.1999999999999991
  9
$CHAMFERB
 40
1.1999999999999991
  9
$SKPOLY
 70
     0
  9
$TDCREATE
 40
2450158.583426042
  9
$TDUPDATE
 40
2456969.4104712731
  9
$TDINDWG
 40
0.3326953472
  9
$TDUSRTIMER
 40
0.3326953472
  9
$USRTIMER
 70
     1
  9
$ANGBASE
 50
0.0
  9
$ANGDIR
 70
     0
  9
$PDMODE
 70
     0
  9
$PDSIZE
 40
0.0
  9
$PLINEWID
 40
0.0
  9
$COORDS
 70
     1
  9
$SPLFRAME
 70
     0
  9
$SPLINETYPE
 70
     6
  9
$SPLINESEGS
 70
     8
  9
$ATTDIA
 70
     0
  9
$ATTREQ
 70
     1
  9
$HANDLING
 70
     1
  9
$HANDSEED
  5
30E8
  9
$SURFTAB1
 70
     6
  9
$SURFTAB2
 70
     6
  9
$SURFTYPE
 70
     6
  9
$SURFU
 70
     6
  9
$SURFV
 70
     6
  9
$UCSNAME
  2

  9
$UCSORG
 10
0.0
 20
0.0
 30
0.0
  9
$UCSXDIR
 10
1.0
 20
0.0
 30
0.0
  9
$UCSYDIR
 10
0.0
 20
1.0
 30
0.0
  9
$PUCSNAME
  2

  9
$PUCSORG
 10
0.0
 20
0.0
 30
0.0
  9
$PUCSXDIR
 10
1.0
 20
0.0
 30
0.0
  9
$PUCSYDIR
 10
0.0
 20
1.0
 30
0.0
  9
$USERI1
 70
     3
  9
$USERI2
 70
     1
  9
$USERI3
 70
     0
  9
$USERI4
 70
     0
  9
$USERI5
 70
     0
  9
$USERR1
 40
2.0
  9
$USERR2
 40
3.0
  9
$USERR3
 40
3.0
  9
$USERR4
 40
3.0
  9
$USERR5
 40
10.0
  9
$WORLDVIEW
 70
     1
  9
$SHADEDGE
 70
     3
  9
$SHADEDIF
 70
    70
  9
$TILEMODE
 70
     1
  9
$MAXACTVP
 70
    16
  9
$PLIMCHECK
 70
     0
  9
$PEXTMIN
 10
1.0000000000000000E+020
 20
1.0000000000000000E+020
 30
1.0000000000000000E+020
  9
$PEXTMAX
 10
-1.0000000000000000E+020
 20
-1.0000000000000000E+020
 30
-1.0000000000000000E+020
  9
$PLIMMIN
 10
0.0
 20
0.0
  9
$PLIMMAX
 10
12.0
 20
9.0
  9
$UNITMODE
 70
     0
  9
$VISRETAIN
 70
     0
  9
$PLINEGEN
 70
     0
  9
$PSLTSCALE
 70
     0
  0
ENDSEC
  0
SECTION
  2
TABLES
  0
TABLE
  2
VPORT
 70
     1
  0
VPORT
  2
*ACTIVE
 70
     0
 10
0.0
 20
0.0
 11
1.0
 21
1.0
 12
314.18636995827541
 22
180.0
 13
0.0
 23
0.0
 14
10.0
 24
10.0
 15
10.0
 25
10.0
 16
0.0
 26
0.0
 36
1.0
 17
0.0
 27
0.0
 37
0.0
 40
360.0
 41
1.7454798331015291
 42
50.0
 43
0.0
 44
0.0
 50
0.0
 51
0.0
 71
     0
 72
   500
 73
     1
 74
     0
 75
     0
 76
     0
 77
     0
 78
     2
  0
ENDTAB
  0
TABLE
  2
LTYPE
 70
     4
  0
LTYPE
  2
CONTINUOUS
 70
     0
  3
Solid Line
 72
    65
 73
     0
 40
0.0
  0
LTYPE
  2
CENTER
 70
     0
  3
____ _ ____ _ ____ _ ____ _ ____ _ ____ _ ____
 72
    65
 73
     4
 40
2.0
 49
1.25
 49
-0.25
 49
0.25
 49
-0.25
  0
LTYPE
  2
HIDDEN
 70
     0
  3
_ _ _ _ _ _ _ _ _ _ _ _ _ _ _ _ _ _ _ _ _ _ _
 72
    65
 73
     2
 40
0.375
 49
0.25
 49
-0.125
  0
LTYPE
  2
PHANTOM2
 70
     0
  3
___ _ _ ___ _ _ ___ _ _ ___ _ _
 72
    65
 73
     6
 40
1.25
 49
0.625
 49
-0.125
 49
0.125
 49
-0.125
 49
0.125
 49
-0.125
  0
ENDTAB
  0
TABLE
  2
LAYER
 70
     4
  0
LAYER
  2
0
 70
     0
 62
     7
  6
CONTINUOUS
  0
LAYER
  2
1
 70
     0
 62
     1
  6
CENTER
  0
LAYER
  2
2
 70
     0
 62
     2
  6
HIDDEN
  0
LAYER
  2
3
 70
     0
 62
     3
  6
CONTINUOUS
  0
ENDTAB
  0
TABLE
  2
STYLE
 70
     2
  0
STYLE
  2
STANDARD
 70
     0
 40
0.0
 41
1.0
 50
0.0
 71
     0
 42
4.000000000000048
  3
SIMPLEX
  4
BIGFONT
  0
STYLE
  2
STANDARD1
 70
     0
 40
0.0
 41
1.0
 50
0.0
 71
     0
 42
3.0
  3
txt
  4

  0
ENDTAB
  0
TABLE
  2
VIEW
 70
     1
  0
VIEW
  2
ALL
 70
     0
 40
179.5384664489153
 10
146.94997169852391
 20
89.769233224457665
 41
0.0
 11
0.0
 21
0.0
 31
1.0
 12
0.0
 22
0.0
 32
0.0
 42
50.0
 43
0.0
 44
0.0
 50
0.0
 71
     0
  0
ENDTAB
  0
TABLE
  2
UCS
 70
     0
  0
ENDTAB
  0
TABLE
  2
APPID
 70
     4
  0
APPID
  2
ACAD
 70
     0
  0
APPID
  2
ACAD_MLEADERVER
 70
     0
  0
APPID
  2
ACAD_NAV_VCDISPLAY
 70
     0
  0
APPID
  2
ACAD_EXEMPT_FROM_CAD_STANDARDS
 70
     0
  0
ENDTAB
  0
TABLE
  2
DIMSTYLE
 70
     1
  0
DIMSTYLE
  2
STANDARD
 70
     0
  3

  4

  5

  6

  7

 40
1.0
 41
0.18
 42
0.0625
 43
0.38
 44
0.18
 45
0.0
 46
0.0
 47
0.0
 48
0.0
140
0.18
141
0.09
142
0.0
143
25.399999999999999
144
1.0
145
0.0
146
1.0
147
0.09
 71
     0
 72
     0
 73
     1
 74
     1
 75
     0
 76
     0
 77
     0
 78
     0
170
     0
171
     2
172
     0
173
     0
174
     0
175
     0
176
     0
177
     0
178
     0
  0
ENDTAB
  0
ENDSEC
  0
SECTION
  2
BLOCKS
  0
BLOCK
  8
0
  2
$MODEL_SPACE
 70
     0
 10
0.0
 20
0.0
 30
0.0
  3
$MODEL_SPACE
  1

  0
ENDBLK
  5
644
  8
0
  0
BLOCK
 67
     1
  8
0
  2
$PAPER_SPACE
 70
     0
 10
0.0
 20
0.0
 30
0.0
  3
$PAPER_SPACE
  1

  0
ENDBLK
  5
642
 67
     1
  8
0
  0
ENDSEC
  0
SECTION
  2
ENTITIES
  0
TEXT
  5
1213
  8
0
 62
     3
 10
0.0
 20
0.0
 30
0.0
 40
10.0
  1
BJ352-08001
  7
STANDARD1
  0
LINE
  5
1A3A
  8
0
 10
355.99993744391799
 20
191.7500013113023
 30
0.0
 11
355.99993744391799
 21
198.2499995827676
 31
0.0
  0
LINE
  5
1A3B
  8
0
 10
343.9999373396098
 20
198.2499995827676
 30
0.0
 11
343.9999373396098
 21
191.7500013113023
 31
0.0
  0
LINE
  5
1A3C
  8
0
 10
337.69993686575287
 20
201.25000007450589
 30
0.0
 11
337.49993720549941
 21
201.23053357005131
 31
0.0
  0
LINE
  5
1A3D
  8
0
 10
337.49993720549941
 20
188.76946732401859
 30
0.0
 11
337.69993686575287
 21
188.75000081956401
 31
0.0
  0
LINE
  5
1A3E
  8
0
 10
337.69993686575287
 20
188.75000081956401
 30
0.0
 11
337.99993728745579
 21
191.83218680322179
 31
0.0
  0
LINE
  5
1A3F
  8
0
 10
337.99993728745579
 20
198.16781409084811
 30
0.0
 11
337.69993686575287
 21
201.25000007450589
 31
0.0
  0
LINE
  5
1A40
  8
0
 10
338.19993694770932
 20
189.0000013262034
 30
0.0
 11
340.79993718761801
 21
189.0000013262034
 31
0.0
  0
LINE
  5
1A41
  8
0
 10
340.79993718761801
 20
200.99999956786641
 30
0.0
 11
338.19993694770932
 21
200.99999956786641
 31
0.0
  0
LINE
  5
1A42
  8
0
 10
338.19993694770932
 20
200.99999956786641
 30
0.0
 11
337.99993728745579
 21
200.79999990761289
 31
0.0
  0
LINE
  5
1A43
  8
0
 10
337.99993728745579
 20
189.20000098645701
 30
0.0
 11
338.19993694770932
 21
189.0000013262034
 31
0.0
  0
LINE
  5
1A44
  8
0
 10
340.79993718761801
 20
189.0000013262034
 30
0.0
 11
340.9782295813024
 21
189.17829371988779
 31
0.0
  0
LINE
  5
1A45
  8
0
 10
340.9782295813024
 20
200.82170717418211
 30
0.0
 11
340.79993718761801
 21
200.99999956786641
 31
0.0
  0
LINE
  5
1A46
  8
0
 10
306.9999368627727
 20
216.5000011771919
 30
0.0
 11
306.49993771213889
 21
217.00000219047081
 31
0.0
  0
LINE
  5
1A47
  8
0
 10
291.49993711609238
 20
217.00000219047081
 30
0.0
 11
290.99993610281342
 21
216.5000011771919
 31
0.0
  0
LINE
  5
1A48
  8
0
 10
306.9999368627727
 20
209.0000008791686
 30
0.0
 11
306.9999368627727
 21
216.5000011771919
 31
0.0
  0
LINE
  5
1A49
  8
0
 10
290.99993610281342
 20
216.5000011771919
 30
0.0
 11
290.99993610281342
 21
209.0000008791686
 31
0.0
  0
LINE
  5
1A4A
  8
0
 10
360.99475079674119
 20
198.2499995827676
 30
0.0
 11
360.99475079674119
 21
201.5000005811454
 31
0.0
  0
ARC
  5
1A4C
  8
0
 10
341.4782358687134
 20
201.49999923315099
 30
0.0
 40
0.5000004987602091
 50
89.998683381628169
 51
180.66153414515981
  0
ARC
  5
1A4D
  8
0
 10
360.49473711215421
 20
201.5000009412253
 30
0.0
 40
0.4999987913552557
 50
0.0102040463666258
 51
90.00324373794713
  0
LINE
  5
1A4E
  8
0
 10
360.99475079674119
 20
188.5000003129245
 30
0.0
 11
360.99475079674119
 21
191.7500013113023
 31
0.0
  0
LINE
  5
1A4F
  8
0
 10
340.97826869685048
 20
201.49422638118281
 30
0.0
 11
340.9782295813024
 21
188.5000003129245
 31
0.0
  0
ARC
  5
1A50
  8
0
 10
341.47823591388737
 20
188.5000013508525
 30
0.0
 40
0.5000001886929179
 50
180.37343396758939
 51
270.00131144263122
  0
ARC
  5
1A51
  8
0
 10
360.49473644672929
 20
188.5000014077817
 30
0.0
 40
0.500000246255002
 50
269.99683252352412
 51
0.1023273801640209
  0
POLYLINE
  5
1A52
  8
0
 66
     1
 10
0.0
 20
0.0
 30
0.0
 70
   128
  0
VERTEX
  5
29F7
  8
0
 10
338.40527960557341
 20
188.2706882059575
 30
0.0
  0
VERTEX
  5
29F8
  8
0
 10
338.49695434320569
 20
188.2298254966737
 30
0.0
  0
VERTEX
  5
29F9
  8
0
 10
338.50467966396212
 20
188.22215698659431
 30
0.0
  0
VERTEX
  5
29FA
  8
0
 10
338.50467966396212
 20
188.22215698659431
 30
0.0
  0
SEQEND
  5
29FB
  8
0
  0
POLYLINE
  5
1A53
  8
0
 66
     1
 10
0.0
 20
0.0
 30
0.0
 70
   128
  0
VERTEX
  5
29FC
  8
0
 10
338.50458657860122
 20
201.77728530200221
 30
0.0
  0
VERTEX
  5
29FD
  8
0
 10
338.50458657860122
 20
201.77728530200221
 30
0.0
  0
VERTEX
  5
29FE
  8
0
 10
338.50458657860122
 20
201.77728530200221
 30
0.0
  0
VERTEX
  5
29FF
  8
0
 10
338.42995127189749
 20
201.73424497246751
 30
0.0
  0
VERTEX
  5
2A00
  8
0
 10
338.39518257600662
 20
201.72507424390449
 30
0.0
  0
SEQEND
  5
2A01
  8
0
  0
ARC
  5
1A54
  8
0
 10
339.45196417722258
 20
189.7279966745331
 30
0.0
 40
1.6658287781660881
 50
150.65145768816359
 51
166.29992680255529
  0
ARC
  5
1A55
  8
0
 10
338.83289028190359
 20
189.13037903261051
 30
0.0
 40
1.0459737021536979
 50
168.90711582320051
 51
226.02037286933921
  0
ARC
  5
1A56
  8
0
 10
338.64940657947091
 20
189.45663846104659
 30
0.0
 40
1.210816248210371
 50
244.2257628143214
 51
258.36818539095862
  0
ARC
  5
1A57
  8
0
 10
339.13432107301088
 20
200.74435936962209
 30
0.0
 40
1.3544055569382301
 50
139.2439210342057
 51
190.6892496075852
  0
ARC
  5
1A59
  8
0
 10
338.62762905619292
 20
200.5597550293962
 30
0.0
 40
1.1882761622843161
 50
101.28074281686671
 51
115.91196700682821
  0
LINE
  5
1A5A
  8
0
 10
338.2499368627727
 20
201.99999973177921
 30
0.0
 11
338.2499368627727
 21
201.68640479445469
 31
0.0
  0
LINE
  5
1A5B
  8
0
 10
338.2499368627727
 20
188.31359609961521
 30
0.0
 11
338.2499368627727
 21
188.00000116229069
 31
0.0
  0
LINE
  5
1A5C
  8
0
 10
342.10322999853491
 20
191.9999999552966
 30
0.0
 11
342.60322914916873
 21
192.50000096857559
 31
0.0
  0
LINE
  5
1A5D
  8
0
 10
342.60322914916873
 20
197.49999992549431
 30
0.0
 11
342.10322999853491
 21
198.00000093877321
 31
0.0
  0
LINE
  5
1A5E
  8
0
 10
340.97824011708991
 20
191.9999999552966
 30
0.0
 11
342.10322999853491
 21
191.9999999552966
 31
0.0
  0
LINE
  5
1A5F
  8
0
 10
342.10322999853491
 20
198.00000093877321
 30
0.0
 11
340.97825817844461
 21
198.00000093877321
 31
0.0
  0
LINE
  5
1A60
  8
0
 10
337.69993686575287
 20
188.75000081956401
 30
0.0
 11
337.69993686575287
 21
201.25000007450589
 31
0.0
  0
LINE
  5
1A63
  8
0
 10
337.99993728745579
 20
189.20000098645701
 30
0.0
 11
337.99993728745579
 21
200.79999990761289
 31
0.0
  0
LINE
  5
1A66
  8
0
 10
291.49993711609238
 20
217.00000219047081
 30
0.0
 11
306.49993771213889
 21
217.0000021904707
 31
0.0
  0
LINE
  5
1A67
  8
0
 10
306.9999368627727
 20
216.50000117719171
 30
0.0
 11
290.99993610281342
 21
216.5000011771919
 31
0.0
  0
LINE
  5
1A69
  8
0
 10
340.97825893099679
 20
198.24999958276749
 30
0.0
 11
360.976936458534
 21
198.2499995827676
 31
0.0
  0
LINE
  5
1A6A
  8
0
 10
340.97823936453761
 20
191.7500013113023
 30
0.0
 11
360.976936458534
 21
191.7500013113023
 31
0.0
  0
POLYLINE
  5
1A6B
  8
0
 66
     1
 10
0.0
 20
0.0
 30
0.0
 70
   128
  0
VERTEX
  5
2A02
  8
0
 10
337.80328852582568
 20
189.5000004768373
 30
0.0
  0
VERTEX
  5
2A03
  8
0
 10
337.8066887845456
 20
189.31941889226451
 30
0.0
  0
VERTEX
  5
2A04
  8
0
 10
337.82569242168069
 20
189.0508161485196
 30
0.0
  0
VERTEX
  5
2A05
  8
0
 10
337.8592451800763
 20
188.83262403309351
 30
0.0
  0
VERTEX
  5
2A06
  8
0
 10
337.90312537450188
 20
188.6901186406613
 30
0.0
  0
VERTEX
  5
2A07
  8
0
 10
337.9523886134088
 20
188.63837435841569
 30
0.0
  0
VERTEX
  5
2A08
  8
0
 10
338.00137338686579
 20
188.68361242115509
 30
0.0
  0
VERTEX
  5
2A09
  8
0
 10
338.04463797706961
 20
188.82099181413659
 30
0.0
  0
VERTEX
  5
2A0A
  8
0
 10
338.0774801363408
 20
189.03518855571761
 30
0.0
  0
VERTEX
  5
2A0B
  8
0
 10
338.08326085556149
 20
189.11667555570611
 30
0.0
  0
SEQEND
  5
2A0C
  8
0
  0
POLYLINE
  5
1A6C
  8
0
 66
     1
 10
0.0
 20
0.0
 30
0.0
 70
   128
  0
VERTEX
  5
2A0D
  8
0
 10
337.99993728745579
 20
190.31014680862441
 30
0.0
  0
VERTEX
  5
2A0E
  8
0
 10
337.98975048113459
 20
190.33629275858411
 30
0.0
  0
VERTEX
  5
2A0F
  8
0
 10
337.94019760090703
 20
190.3579087555409
 30
0.0
  0
VERTEX
  5
2A10
  8
0
 10
337.89166451889872
 20
190.28288513422021
 30
0.0
  0
VERTEX
  5
2A11
  8
0
 10
337.84975686568612
 20
190.1194249838592
 30
0.0
  0
VERTEX
  5
2A12
  8
0
 10
337.81947584349513
 20
189.88586418330681
 30
0.0
  0
VERTEX
  5
2A13
  8
0
 10
337.80451228368872
 20
189.6086932718755
 30
0.0
  0
VERTEX
  5
2A14
  8
0
 10
337.80328852582568
 20
189.5000004768373
 30
0.0
  0
SEQEND
  5
2A15
  8
0
  0
POLYLINE
  5
1A6D
  8
0
 66
     1
 10
0.0
 20
0.0
 30
0.0
 70
   128
  0
VERTEX
  5
2A16
  8
0
 10
337.80328852582568
 20
200.5000004172326
 30
0.0
  0
VERTEX
  5
2A17
  8
0
 10
337.8066887845456
 20
200.31941883265981
 30
0.0
  0
VERTEX
  5
2A18
  8
0
 10
337.82569242168069
 20
200.05081608891501
 30
0.0
  0
VERTEX
  5
2A19
  8
0
 10
337.8592451800763
 20
199.83262397348889
 30
0.0
  0
VERTEX
  5
2A1A
  8
0
 10
337.90312537450188
 20
199.69011858105671
 30
0.0
  0
VERTEX
  5
2A1B
  8
0
 10
337.9523886134088
 20
199.6383742988111
 30
0.0
  0
VERTEX
  5
2A1C
  8
0
 10
337.99993728745579
 20
199.68228429555899
 30
0.0
  0
SEQEND
  5
2A1D
  8
0
  0
POLYLINE
  5
1A6E
  8
0
 66
     1
 10
0.0
 20
0.0
 30
0.0
 70
   128
  0
VERTEX
  5
2A1E
  8
0
 10
338.08296283233761
 20
200.88302545249471
 30
0.0
  0
VERTEX
  5
2A1F
  8
0
 10
338.0705147748053
 20
201.0239569097759
 30
0.0
  0
VERTEX
  5
2A20
  8
0
 10
338.03480693597191
 20
201.22065223753461
 30
0.0
  0
VERTEX
  5
2A21
  8
0
 10
337.98975048113459
 20
201.33629269897949
 30
0.0
  0
VERTEX
  5
2A22
  8
0
 10
337.94019760090703
 20
201.35790869593629
 30
0.0
  0
VERTEX
  5
2A23
  8
0
 10
337.89166451889872
 20
201.28288507461559
 30
0.0
  0
VERTEX
  5
2A24
  8
0
 10
337.84975686568612
 20
201.1194249242545
 30
0.0
  0
VERTEX
  5
2A25
  8
0
 10
337.81947584349513
 20
200.88586412370219
 30
0.0
  0
VERTEX
  5
2A26
  8
0
 10
337.80451228368872
 20
200.60869321227091
 30
0.0
  0
VERTEX
  5
2A27
  8
0
 10
337.80328852582568
 20
200.5000004172326
 30
0.0
  0
SEQEND
  5
2A28
  8
0
  0
LINE
  5
1A6F
  8
0
 10
342.60322914916873
 20
197.49999992549431
 30
0.0
 11
342.60322914916873
 21
192.50000096857559
 31
0.0
  0
LINE
  5
1A72
  8
0
 10
342.10322999853491
 20
191.9999999552966
 30
0.0
 11
342.10322999853491
 21
198.00000093877321
 31
0.0
  0
LINE
  5
1A73
  8
0
 10
356.99993574518561
 20
172.00000040233141
 30
0.0
 11
356.99993574518561
 21
188.00000116229069
 31
0.0
  0
LINE
  5
1A74
  8
0
 10
361.99993842739462
 20
188.00000116229069
 30
0.0
 11
361.99993842739462
 21
172.00000040233141
 31
0.0
  0
LINE
  5
1A75
  8
0
 10
361.99993842739462
 20
172.00000040233141
 30
0.0
 11
286.99993544716227
 21
172.00000040233141
 31
0.0
  0
LINE
  5
1A77
  8
0
 10
356.99993574518561
 20
201.99999973177921
 30
0.0
 11
356.99993574518561
 21
209.0000008791686
 31
0.0
  0
LINE
  5
1A78
  8
0
 10
337.49993720549941
 20
201.99999973177921
 30
0.0
 11
361.99993842739462
 21
201.99999973177921
 31
0.0
  0
LINE
  5
1A7A
  8
0
 10
291.99993812937129
 20
209.0000008791686
 30
0.0
 11
291.99993812937129
 21
172.00000040233141
 31
0.0
  0
LINE
  5
1A7C
  8
0
 10
337.49993720549941
 20
188.00000116229069
 30
0.0
 11
337.49993720549941
 21
201.99999973177921
 31
0.0
  0
LINE
  5
1A7D
  8
0
 10
361.99993842739462
 20
188.00000116229069
 30
0.0
 11
337.49993720549941
 21
188.00000116229069
 31
0.0
  0
LINE
  5
1A7E
  8
0
 10
286.99993544716227
 20
209.0000008791686
 30
0.0
 11
361.99993842739462
 21
209.0000008791686
 31
0.0
  0
LINE
  5
1A7F
  8
0
 10
361.99993842739462
 20
209.0000008791686
 30
0.0
 11
361.99993842739462
 21
201.99999973177921
 31
0.0
  0
LINE
  5
1A81
  8
0
 10
286.99993544716227
 20
172.00000040233141
 30
0.0
 11
286.99993544716227
 21
209.0000008791686
 31
0.0
  0
LINE
  5
1A86
  8
0
 10
343.9999373396098
 20
197.2500012815
 30
0.0
 11
342.60322914916873
 21
197.2500012815
 31
0.0
  0
LINE
  5
1A87
  8
0
 10
342.60322914916873
 20
192.74999961256989
 30
0.0
 11
343.9999373396098
 21
192.74999961256989
 31
0.0
  0
POLYLINE
  5
1A88
  8
0
 66
     1
 10
0.0
 20
0.0
 30
0.0
 70
   128
  0
VERTEX
  5
2A29
  8
0
 10
338.88546486843222
 20
189.0000013262034
 30
0.0
  0
VERTEX
  5
2A2A
  8
0
 10
338.88536801088452
 20
188.99653680622589
 30
0.0
  0
VERTEX
  5
2A2B
  8
0
 10
338.84452392805213
 20
188.549509420991
 30
0.0
  0
VERTEX
  5
2A2C
  8
0
 10
338.78084195304513
 20
188.2099454849959
 30
0.0
  0
VERTEX
  5
2A2D
  8
0
 10
338.70077615130538
 20
188.0161372572185
 30
0.0
  0
VERTEX
  5
2A2E
  8
0
 10
338.61249475424393
 20
188.0000011622906
 30
0.0
  0
VERTEX
  5
2A2F
  8
0
 10
338.52684141594762
 20
188.13313372433191
 30
0.0
  0
VERTEX
  5
2A30
  8
0
 10
338.50467966396212
 20
188.22215698659431
 30
0.0
  0
SEQEND
  5
2A31
  8
0
  0
POLYLINE
  5
1A89
  8
0
 66
     1
 10
0.0
 20
0.0
 30
0.0
 70
   128
  0
VERTEX
  5
2A32
  8
0
 10
338.5045865317046
 20
201.77728511393079
 30
0.0
  0
VERTEX
  5
2A33
  8
0
 10
338.52710311759108
 20
201.86758428812041
 30
0.0
  0
VERTEX
  5
2A34
  8
0
 10
338.61359616304583
 20
201.99999973177921
 30
0.0
  0
VERTEX
  5
2A35
  8
0
 10
338.70111980933541
 20
201.98341101408019
 30
0.0
  0
VERTEX
  5
2A36
  8
0
 10
338.7810375307858
 20
201.78932525217539
 30
0.0
  0
VERTEX
  5
2A37
  8
0
 10
338.84456863153571
 20
201.4501543343068
 30
0.0
  0
VERTEX
  5
2A38
  8
0
 10
338.8853484531104
 20
201.00380867719659
 30
0.0
  0
VERTEX
  5
2A39
  8
0
 10
338.8854546238839
 20
200.99999956786641
 30
0.0
  0
SEQEND
  5
2A3A
  8
0
  0
POLYLINE
  5
1A92
  8
0
 66
     1
 10
0.0
 20
0.0
 30
0.0
 70
   128
  0
VERTEX
  5
2A3B
  8
0
 10
338.29575425100029
 20
189.0000013262034
 30
0.0
  0
VERTEX
  5
2A3C
  8
0
 10
338.28782213378543
 20
188.88840653002271
 30
0.0
  0
VERTEX
  5
2A3D
  8
0
 10
338.2445268099367
 20
188.60656782984739
 30
0.0
  0
VERTEX
  5
2A3E
  8
0
 10
338.18748982149953
 20
188.42580556869521
 30
0.0
  0
VERTEX
  5
2A3F
  8
0
 10
338.12291191417569
 20
188.36628101766121
 30
0.0
  0
VERTEX
  5
2A40
  8
0
 10
338.10656347770089
 20
188.37771020829689
 30
0.0
  0
SEQEND
  5
2A41
  8
0
  0
POLYLINE
  5
1A93
  8
0
 66
     1
 10
0.0
 20
0.0
 30
0.0
 70
   128
  0
VERTEX
  5
2A42
  8
0
 10
338.10836465560129
 20
201.6285696625911
 30
0.0
  0
VERTEX
  5
2A43
  8
0
 10
338.1721658398568
 20
201.6003841161729
 30
0.0
  0
VERTEX
  5
2A44
  8
0
 10
338.23156559366578
 20
201.4482264965774
 30
0.0
  0
VERTEX
  5
2A45
  8
0
 10
338.27864022452229
 20
201.18941754102721
 30
0.0
  0
VERTEX
  5
2A46
  8
0
 10
338.29540299459632
 20
200.99999956786641
 30
0.0
  0
SEQEND
  5
2A47
  8
0
  0
ARC
  5
1A95
  8
0
 10
346.74673421407772
 20
331.00054939377878
 30
0.0
 40
8.4969503215170992
 50
112.0369041215659
 51
190.48251086373861
  0
ARC
  5
1A97
  8
0
 10
345.75289435124142
 20
333.99954253317759
 30
0.0
 40
5.4972818835734056
 50
326.42963875297352
 51
60.034269382993983
  0
LINE
  5
1AA1
  8
0
 10
347.56281243163937
 20
339.0000025928021
 30
0.0
 11
344.23619525033831
 21
339.0000025928021
 31
0.0
  0
ARC
  5
1AA2
  8
0
 10
344.24477904603549
 20
337.02912702127259
 30
0.0
 40
1.970894264033443
 50
90.249539931936255
 51
110.3731266516663
  0
ARC
  5
1AA3
  8
0
 10
347.55687880307357
 20
337.017852588854
 30
0.0
 40
1.9821588851802989
 50
61.631352359038921
 51
89.828483788903554
  0
POLYLINE
  5
1AA5
  8
0
 66
     1
 10
0.0
 20
0.0
 30
0.0
 70
   128
  0
VERTEX
  5
2A48
  8
0
 10
348.26899456765562
 20
326.61791786234761
 30
0.0
  0
VERTEX
  5
2A49
  8
0
 10
348.26946088570952
 20
326.61932811141031
 30
0.0
  0
VERTEX
  5
2A4A
  8
0
 10
348.27049465376729
 20
326.6223716735841
 30
0.0
  0
VERTEX
  5
2A4B
  8
0
 10
348.27439689535493
 20
326.63300737738621
 30
0.0
  0
VERTEX
  5
2A4C
  8
0
 10
348.31641816992158
 20
326.70750573277479
 30
0.0
  0
VERTEX
  5
2A4D
  8
0
 10
348.37332011658549
 20
326.76383212208759
 30
0.0
  0
VERTEX
  5
2A4E
  8
0
 10
348.45772960681319
 20
326.8084946274758
 30
0.0
  0
VERTEX
  5
2A4F
  8
0
 10
348.5590556402862
 20
326.82433083653461
 30
0.0
  0
VERTEX
  5
2A50
  8
0
 10
348.60194525716099
 20
326.82041950523279
 30
0.0
  0
SEQEND
  5
2A51
  8
0
  0
ARC
  5
1AA6
  8
0
 10
349.70085629762389
 20
329.30820477554278
 30
0.0
 40
0.2965219497314497
 50
157.3442041926393
 51
213.05597625962079
  0
ARC
  5
1AA7
  8
0
 10
338.60343449426972
 20
326.50685729490249
 30
0.0
 40
0.3000000000000275
 50
10.091250302297739
 51
88.462972451604259
  0
ARC
  5
1AA8
  8
0
 10
338.64316380490669
 20
328.05127617701243
 30
0.0
 40
1.244930033017122
 50
254.47523461314921
 51
268.54171333597537
  0
ARC
  5
1AA9
  8
0
 10
338.64359657990838
 20
328.05627050800092
 30
0.0
 40
1.2500738900818811
 50
111.4237107897679
 51
125.0143906883783
  0
ARC
  5
1AAA
  8
0
 10
348.78904479035259
 20
328.05633769212039
 30
0.0
 40
1.250000000000028
 50
261.39163908861082
 51
270.0000000000008
  0
ARC
  5
1AAB
  8
0
 10
346.81022888074131
 20
326.12356307275053
 30
0.0
 40
4.014801485198892
 50
43.344860898362022
 51
48.84562543753205
  0
ARC
  5
1AAC
  8
0
 10
348.78909356250352
 20
328.05356744839821
 30
0.0
 40
1.2472297572313631
 50
269.99775948385809
 51
273.98609795701458
  0
ARC
  5
1AAD
  8
0
 10
349.50403989892573
 20
328.6818630666894
 30
0.0
 40
0.3000000000000158
 50
334.52863335410831
 51
41.150419771363488
  0
ARC
  5
1AAE
  8
0
 10
348.85375027206061
 20
327.10854383242207
 30
0.0
 40
0.3000000000000261
 50
274.21384412666981
 51
340.46815697585231
  0
ARC
  5
1AAF
  8
0
 10
338.39602478476189
 20
327.13915855622071
 30
0.0
 40
0.3000034136867558
 50
189.63880585469551
 51
253.32722984484619
  0
ARC
  5
1AB0
  8
0
 10
338.09848680426148
 20
328.8344014808286
 30
0.0
 40
0.3000041689497559
 50
125.01981986269389
 51
190.27033437157931
  0
ARC
  5
1AB1
  8
0
 10
338.91956438807091
 20
324.51707596044952
 30
0.0
 40
0.3000207871390332
 50
289.11255322069923
 51
7.46139054318781
  0
ARC
  5
1AB2
  8
0
 10
339.34777667477078
 20
321.50896549260221
 30
0.0
 40
0.2999990095646196
 50
9.0871706146209412
 51
86.720868660317606
  0
ARC
  5
1AB3
  8
0
 10
338.07647435644958
 20
329.50118145375569
 30
0.0
 40
0.3021488294391796
 50
291.4551181673541
 51
8.0384117033683822
  0
POLYLINE
  5
1AB4
  8
0
 66
     1
 10
0.0
 20
0.0
 30
0.0
 70
   128
  0
VERTEX
  5
2A52
  8
0
 10
338.06821765002968
 20
331.88417495390718
 30
0.0
  0
VERTEX
  5
2A53
  8
0
 10
338.11709394205212
 20
331.86232775449758
 30
0.0
  0
VERTEX
  5
2A54
  8
0
 10
338.184163137263
 20
331.81114599108707
 30
0.0
  0
VERTEX
  5
2A55
  8
0
 10
338.22759815949792
 20
331.75511017441761
 30
0.0
  0
VERTEX
  5
2A56
  8
0
 10
338.25305586207509
 20
331.70124992728239
 30
0.0
  0
VERTEX
  5
2A57
  8
0
 10
338.26552906531691
 20
331.65465772151958
 30
0.0
  0
VERTEX
  5
2A58
  8
0
 10
338.26988579232091
 20
331.6187831759454
 30
0.0
  0
VERTEX
  5
2A59
  8
0
 10
338.27039336312407
 20
331.59553363919269
 30
0.0
  0
VERTEX
  5
2A5A
  8
0
 10
338.27022123946938
 20
331.58952524865413
 30
0.0
  0
SEQEND
  5
2A5B
  8
0
  0
ARC
  5
1AB5
  8
0
 10
338.71523506462103
 20
334.59338717805213
 30
0.0
 40
0.3017135854867154
 50
262.2864150647826
 51
333.99832480693709
  0
ARC
  5
1AB7
  8
0
 10
339.43763958486022
 20
323.052749143987
 30
0.0
 40
1.2463980235137899
 50
252.6719838767379
 51
266.65601838817219
  0
ARC
  5
1AB8
  8
0
 10
339.43800008619633
 20
323.0563386302349
 30
0.0
 40
1.249998982497498
 50
109.6431778738458
 51
123.1554169260089
  0
ARC
  5
1AB9
  8
0
 10
338.91836701841891
 20
323.85162447099549
 30
0.0
 40
0.2999999999999959
 50
123.1400725104497
 51
188.4172154957223
  0
ARC
  5
1ABA
  8
0
 10
339.16092099095499
 20
322.1476424989317
 30
0.0
 40
0.3000000000000172
 50
187.78474159866309
 51
251.637032729976
  0
ARC
  5
1ABB
  8
0
 10
338.502423187597
 20
333.05633752273133
 30
0.0
 40
1.249999814642571
 50
233.9732946478405
 51
249.67380049313661
  0
ARC
  5
1ABC
  8
0
 10
338.50248449795782
 20
333.05723593342537
 30
0.0
 40
1.2491018947374311
 50
82.073511250434123
 51
98.209571292077143
  0
ARC
  5
1ABD
  8
0
 10
337.94363704324923
 20
332.2880552183218
 30
0.0
 40
0.3000000000000493
 50
171.8215290212342
 51
233.98087439592831
  0
ARC
  5
1ABE
  8
0
 10
338.3697310890488
 20
333.9970250931612
 30
0.0
 40
0.2999999999999959
 50
98.745009535671286
 51
160.3213623448286
  0
ARC
  5
1ABF
  8
0
 10
348.06456742315851
 20
324.52385599102439
 30
0.0
 40
0.2999983124765717
 50
171.06274274153401
 51
251.25204442340731
  0
POLYLINE
  5
1AC0
  8
0
 66
     1
 10
0.0
 20
0.0
 30
0.0
 70
   128
  0
VERTEX
  5
2A5C
  8
0
 10
351.45808927412247
 20
334.2723011397178
 30
0.0
  0
VERTEX
  5
2A5D
  8
0
 10
351.4120729406535
 20
334.2862474918366
 30
0.0
  0
VERTEX
  5
2A5E
  8
0
 10
351.34000719982981
 20
334.32702451944351
 30
0.0
  0
VERTEX
  5
2A5F
  8
0
 10
351.28992253441209
 20
334.37557995319372
 30
0.0
  0
VERTEX
  5
2A60
  8
0
 10
351.2575404484927
 20
334.42428067326551
 30
0.0
  0
VERTEX
  5
2A61
  8
0
 10
351.23874635893702
 20
334.46746051311499
 30
0.0
  0
VERTEX
  5
2A62
  8
0
 10
351.22930647332072
 20
334.50107008218771
 30
0.0
  0
VERTEX
  5
2A63
  8
0
 10
351.22540050644272
 20
334.5226581394673
 30
0.0
  0
VERTEX
  5
2A64
  8
0
 10
351.2246237834155
 20
334.52848821878439
 30
0.0
  0
VERTEX
  5
2A65
  8
0
 10
351.22432762283682
 20
334.53096926212311
 30
0.0
  0
VERTEX
  5
2A66
  8
0
 10
351.22408899218021
 20
334.53259831234732
 30
0.0
  0
VERTEX
  5
2A67
  8
0
 10
351.22408899218021
 20
334.53259831234732
 30
0.0
  0
VERTEX
  5
2A68
  8
0
 10
351.22408899218021
 20
334.53259831234732
 30
0.0
  0
VERTEX
  5
2A69
  8
0
 10
351.22408899218021
 20
334.53259831234732
 30
0.0
  0
VERTEX
  5
2A6A
  8
0
 10
351.22408899218021
 20
334.53259831234732
 30
0.0
  0
SEQEND
  5
2A6B
  8
0
  0
POLYLINE
  5
1AC1
  8
0
 66
     1
 10
0.0
 20
0.0
 30
0.0
 70
   128
  0
VERTEX
  5
2A6C
  8
0
 10
350.72266454200269
 20
331.65011218442112
 30
0.0
  0
VERTEX
  5
2A6D
  8
0
 10
350.72266454200269
 20
331.65011218442112
 30
0.0
  0
VERTEX
  5
2A6E
  8
0
 10
350.72336362201571
 20
331.65135711431509
 30
0.0
  0
VERTEX
  5
2A6F
  8
0
 10
350.7247252156198
 20
331.65402814745909
 30
0.0
  0
VERTEX
  5
2A70
  8
0
 10
350.7270144065082
 20
331.65838301181799
 30
0.0
  0
VERTEX
  5
2A71
  8
0
 10
350.73458792168492
 20
331.67166739702242
 30
0.0
  0
VERTEX
  5
2A72
  8
0
 10
350.76094621319169
 20
331.70864835381519
 30
0.0
  0
VERTEX
  5
2A73
  8
0
 10
350.80065408248299
 20
331.7481103539468
 30
0.0
  0
VERTEX
  5
2A74
  8
0
 10
350.86029784280652
 20
331.7863839864732
 30
0.0
  0
VERTEX
  5
2A75
  8
0
 10
350.97323746878499
 20
331.81597769260418
 30
0.0
  0
VERTEX
  5
2A76
  8
0
 10
351.02574209663169
 20
331.81450230332513
 30
0.0
  0
SEQEND
  5
2A77
  8
0
  0
ARC
  5
1AC2
  8
0
 10
351.16837753099281
 20
333.05633769212051
 30
0.0
 40
1.25
 50
263.44780141902532
 51
270.0000000000008
  0
ARC
  5
1AC3
  8
0
 10
351.16837753099281
 20
333.05633769212051
 30
0.0
 40
1.2500000000000271
 50
59.636048467946338
 51
76.59873419210642
  0
ARC
  5
1AC4
  8
0
 10
351.16849118553989
 20
333.0539204325363
 30
0.0
 40
1.2475827455928039
 50
269.99478036554922
 51
280.81259156228742
  0
ARC
  5
1AC5
  8
0
 10
347.56571617976812
 20
323.05641760607659
 30
0.0
 40
1.2499139779678641
 50
58.602652989454413
 51
71.218124520360007
  0
ARC
  5
1AC6
  8
0
 10
347.60851100861322
 20
322.85298221789299
 30
0.0
 40
1.0425723845060739
 50
278.05486824792558
 51
293.46419975445139
  0
ARC
  5
1AC7
  8
0
 10
348.06068243741271
 20
323.86718707281062
 30
0.0
 40
0.299998887435438
 50
352.03799937520768
 51
58.622539811141863
  0
ARC
  5
1AC8
  8
0
 10
347.91405692354101
 20
322.172832625144
 30
0.0
 40
0.2971546096781666
 50
291.63971011741501
 51
358.89594998916903
  0
ARC
  5
1AC9
  8
0
 10
351.64863378526599
 20
333.87600463561222
 30
0.0
 40
0.3000000214997458
 50
359.00546814465082
 51
59.644860841609137
  0
ARC
  5
1ACA
  8
0
 10
351.34325998150121
 20
332.1225731992734
 30
0.0
 40
0.2999999999999854
 50
281.39552068127108
 51
341.44540112250547
  0
ARC
  5
1ACB
  8
0
 10
347.79993693727852
 20
321.52414137388922
 30
0.0
 40
0.3000000000000087
 50
98.692471429053853
 51
180.0
  0
LINE
  5
1ACC
  8
0
 10
310.25040259111518
 20
276.43381975474767
 30
0.0
 11
310.24947219986319
 21
275.56779485428711
 31
0.0
  0
LINE
  5
1ACD
  8
0
 10
310.24947219986319
 20
275.56779485428711
 30
0.0
 11
310.99900619584912
 21
275.1339766499587
 31
0.0
  0
LINE
  5
1ACE
  8
0
 10
310.99900619584912
 20
275.1339766499587
 30
0.0
 11
311.74947151440972
 21
275.5661834042985
 31
0.0
  0
LINE
  5
1ACF
  8
0
 10
311.74947151440972
 20
275.5661834042985
 30
0.0
 11
311.75040190566182
 21
276.43220830475911
 31
0.0
  0
LINE
  5
1AD0
  8
0
 10
311.75040190566182
 20
276.43220830475911
 30
0.0
 11
311.0008669783532
 21
276.86602650908759
 31
0.0
  0
LINE
  5
1AD1
  8
0
 10
311.0008669783532
 20
276.86602650908759
 30
0.0
 11
310.25040259111518
 21
276.43381975474767
 31
0.0
  0
CIRCLE
  5
1AD4
  8
0
 10
298.99993693727839
 20
276.00000157952309
 30
0.0
 40
8.0000000000000284
  0
ARC
  5
1AD7
  8
0
 10
184.42342678088451
 20
300.99300484819253
 30
0.0
 40
156.57675629912751
 50
2.5325598680733421
 51
9.7247534937295814
  0
ARC
  5
1ADB
  8
0
 10
343.4999372576533
 20
326.49973101678017
 30
0.0
 40
1.5098782692718939
 50
147.0858803706023
 51
32.914119629393788
  0
ARC
  5
1AE1
  8
0
 10
364.50513114173651
 20
321.56178314028062
 30
0.0
 40
17.005194182363841
 50
160.905218913575
 51
179.99704545770771
  0
POLYLINE
  5
1AE4
  8
0
 66
     1
 10
0.0
 20
0.0
 30
0.0
 70
   128
  0
VERTEX
  5
2A78
  8
0
 10
341.4999378611505
 20
330.75378566980368
 30
0.0
  0
VERTEX
  5
2A79
  8
0
 10
341.7835348983466
 20
330.80392435193068
 30
0.0
  0
VERTEX
  5
2A7A
  8
0
 10
342.03904324669242
 20
330.95146074891102
 30
0.0
  0
VERTEX
  5
2A7B
  8
0
 10
342.23403611678481
 20
331.18122920393949
 30
0.0
  0
VERTEX
  5
2A7C
  8
0
 10
342.34317594665879
 20
331.46468281745922
 30
0.0
  0
VERTEX
  5
2A7D
  8
0
 10
342.35388801891202
 20
331.76564529538172
 30
0.0
  0
VERTEX
  5
2A7E
  8
0
 10
342.26772950488919
 20
332.0477131009103
 30
0.0
  0
VERTEX
  5
2A7F
  8
0
 10
342.09803508121371
 20
332.28044688701641
 30
0.0
  0
VERTEX
  5
2A80
  8
0
 10
341.86373294789189
 20
332.44289934635162
 30
0.0
  0
VERTEX
  5
2A81
  8
0
 10
341.5881974389016
 20
332.51944288611412
 30
0.0
  0
VERTEX
  5
2A82
  8
0
 10
341.40677580136651
 20
332.51892134547239
 30
0.0
  0
VERTEX
  5
2A83
  8
0
 10
341.1286325891673
 20
332.439334243536
 30
0.0
  0
VERTEX
  5
2A84
  8
0
 10
340.88941307265162
 20
332.26806774735462
 30
0.0
  0
VERTEX
  5
2A85
  8
0
 10
340.72007255155438
 20
332.02258601784717
 30
0.0
  0
VERTEX
  5
2A86
  8
0
 10
340.64222143489712
 20
331.73223316669481
 30
0.0
  0
VERTEX
  5
2A87
  8
0
 10
340.66379459101552
 20
331.4327682554723
 30
0.0
  0
VERTEX
  5
2A88
  8
0
 10
340.7790010561406
 20
331.15969702601438
 30
0.0
  0
VERTEX
  5
2A89
  8
0
 10
340.97166189450621
 20
330.94256103038799
 30
0.0
  0
VERTEX
  5
2A8A
  8
0
 10
341.2200772901237
 20
330.80257579684269
 30
0.0
  0
VERTEX
  5
2A8B
  8
0
 10
341.4999378611505
 20
330.75378566980368
 30
0.0
  0
SEQEND
  5
2A8C
  8
0
  0
CIRCLE
  5
1AE5
  8
0
 10
341.49763001149029
 20
331.60235296709379
 30
0.0
 40
1.1327385175643081
  0
POLYLINE
  5
1AE6
  8
0
 66
     1
 10
0.0
 20
0.0
 30
0.0
 70
   128
  0
VERTEX
  5
2A8D
  8
0
 10
346.49993681806922
 20
330.75378566980368
 30
0.0
  0
VERTEX
  5
2A8E
  8
0
 10
346.78353385526532
 20
330.80392435193068
 30
0.0
  0
VERTEX
  5
2A8F
  8
0
 10
347.03904220361107
 20
330.95146074891102
 30
0.0
  0
VERTEX
  5
2A90
  8
0
 10
347.23403693634862
 20
331.18122920393949
 30
0.0
  0
VERTEX
  5
2A91
  8
0
 10
347.34317676622271
 20
331.46468281745922
 30
0.0
  0
VERTEX
  5
2A92
  8
0
 10
347.35388883847588
 20
331.76564529538172
 30
0.0
  0
VERTEX
  5
2A93
  8
0
 10
347.26773032445311
 20
332.0477131009103
 30
0.0
  0
VERTEX
  5
2A94
  8
0
 10
347.09803590077752
 20
332.28044688701641
 30
0.0
  0
VERTEX
  5
2A95
  8
0
 10
346.86373376745581
 20
332.44289934635162
 30
0.0
  0
VERTEX
  5
2A96
  8
0
 10
346.58819639582032
 20
332.51944288611412
 30
0.0
  0
VERTEX
  5
2A97
  8
0
 10
346.40677662093037
 20
332.51892134547239
 30
0.0
  0
VERTEX
  5
2A98
  8
0
 10
346.12863340873122
 20
332.439334243536
 30
0.0
  0
VERTEX
  5
2A99
  8
0
 10
345.88941202957028
 20
332.26806774735462
 30
0.0
  0
VERTEX
  5
2A9A
  8
0
 10
345.7200715084731
 20
332.02258601784717
 30
0.0
  0
VERTEX
  5
2A9B
  8
0
 10
345.64222225446099
 20
331.73223316669481
 30
0.0
  0
VERTEX
  5
2A9C
  8
0
 10
345.66379541057938
 20
331.4327682554723
 30
0.0
  0
VERTEX
  5
2A9D
  8
0
 10
345.77900001305932
 20
331.15969702601438
 30
0.0
  0
VERTEX
  5
2A9E
  8
0
 10
345.97166271407002
 20
330.94256103038799
 30
0.0
  0
VERTEX
  5
2A9F
  8
0
 10
346.22007810968751
 20
330.80257579684269
 30
0.0
  0
VERTEX
  5
2AA0
  8
0
 10
346.49993681806922
 20
330.75378566980368
 30
0.0
  0
SEQEND
  5
2AA1
  8
0
  0
CIRCLE
  5
1AE7
  8
0
 10
346.49762879761198
 20
331.60235396240438
 30
0.0
 40
1.132739513220852
  0
POLYLINE
  5
1AEA
  8
0
 66
     1
 10
0.0
 20
0.0
 30
0.0
 70
   128
  0
VERTEX
  5
2AA2
  8
0
 10
343.69346515733599
 20
327.15955480933189
 30
0.0
  0
VERTEX
  5
2AA3
  8
0
 10
343.59591098029011
 20
327.17622175812721
 30
0.0
  0
VERTEX
  5
2AA4
  8
0
 10
343.30640935797089
 20
327.15955480933189
 30
0.0
  0
SEQEND
  5
2AA5
  8
0
  0
POLYLINE
  5
1AEC
  8
0
 66
     1
 10
0.0
 20
0.0
 30
0.0
 70
   128
  0
VERTEX
  5
2AA6
  8
0
 10
343.24529410797948
 20
327.4584087729454
 30
0.0
  0
VERTEX
  5
2AA7
  8
0
 10
343.6262199421584
 20
327.47969508171082
 30
0.0
  0
VERTEX
  5
2AA8
  8
0
 10
343.7545785446822
 20
327.4584087729454
 30
0.0
  0
SEQEND
  5
2AA9
  8
0
  0
POLYLINE
  5
1AEF
  8
0
 66
     1
 10
0.0
 20
0.0
 30
0.0
 70
   128
  0
VERTEX
  5
2AAA
  8
0
 10
343.7545785446822
 20
327.4584087729454
 30
0.0
  0
VERTEX
  5
2AAB
  8
0
 10
344.10622359711522
 20
327.31588289141672
 30
0.0
  0
VERTEX
  5
2AAC
  8
0
 10
344.38957476515168
 20
327.06793874502188
 30
0.0
  0
VERTEX
  5
2AAD
  8
0
 10
344.57221643525952
 20
326.74275815486919
 30
0.0
  0
VERTEX
  5
2AAE
  8
0
 10
344.63370980221629
 20
326.37752324342739
 30
0.0
  0
VERTEX
  5
2AAF
  8
0
 10
344.56776285070771
 20
326.01331278681761
 30
0.0
  0
VERTEX
  5
2AB0
  8
0
 10
344.38209065694213
 20
325.69067284464842
 30
0.0
  0
VERTEX
  5
2AB1
  8
0
 10
344.09728290039891
 20
325.44555991888052
 30
0.0
  0
VERTEX
  5
2AB2
  8
0
 10
343.74480897087449
 20
325.30574232339859
 30
0.0
  0
VERTEX
  5
2AB3
  8
0
 10
343.36407685179108
 20
325.28761133551598
 30
0.0
  0
VERTEX
  5
2AB4
  8
0
 10
342.99828500944972
 20
325.3937746584416
 30
0.0
  0
VERTEX
  5
2AB5
  8
0
 10
342.68930011886948
 20
325.61226293444639
 30
0.0
  0
VERTEX
  5
2AB6
  8
0
 10
342.47235411304831
 20
325.91782614588737
 30
0.0
  0
VERTEX
  5
2AB7
  8
0
 10
342.37169118124842
 20
326.27530127763748
 30
0.0
  0
VERTEX
  5
2AB8
  8
0
 10
342.39803643423909
 20
326.644175797701
 30
0.0
  0
VERTEX
  5
2AB9
  8
0
 10
342.54796819288129
 20
326.98333740234392
 30
0.0
  0
VERTEX
  5
2ABA
  8
0
 10
342.80474313992852
 20
327.2552500665189
 30
0.0
  0
VERTEX
  5
2ABB
  8
0
 10
343.14001926679009
 20
327.4295899271965
 30
0.0
  0
VERTEX
  5
2ABC
  8
0
 10
343.24529410797948
 20
327.4584087729454
 30
0.0
  0
SEQEND
  5
2ABD
  8
0
  0
POLYLINE
  5
1AF0
  8
0
 66
     1
 10
0.0
 20
0.0
 30
0.0
 70
   128
  0
VERTEX
  5
2ABE
  8
0
 10
343.30640935797089
 20
327.15955480933189
 30
0.0
  0
VERTEX
  5
2ABF
  8
0
 10
343.22639943558568
 20
327.13772833347321
 30
0.0
  0
VERTEX
  5
2AC0
  8
0
 10
342.97158957917088
 20
327.00570777058601
 30
0.0
  0
VERTEX
  5
2AC1
  8
0
 10
342.77644024688601
 20
326.79979234933859
 30
0.0
  0
VERTEX
  5
2AC2
  8
0
 10
342.6624910672366
 20
326.54295220971119
 30
0.0
  0
VERTEX
  5
2AC3
  8
0
 10
342.64247135717272
 20
326.26361131668091
 30
0.0
  0
VERTEX
  5
2AC4
  8
0
 10
342.71897391874188
 20
325.99290192127228
 30
0.0
  0
VERTEX
  5
2AC5
  8
0
 10
342.88385340470671
 20
325.76150551438332
 30
0.0
  0
VERTEX
  5
2AC6
  8
0
 10
343.1186808039605
 20
325.59605047106737
 30
0.0
  0
VERTEX
  5
2AC7
  8
0
 10
343.39668245512843
 20
325.51565498113632
 30
0.0
  0
VERTEX
  5
2AC8
  8
0
 10
343.68621387976998
 20
325.52942365407949
 30
0.0
  0
VERTEX
  5
2AC9
  8
0
 10
343.9539188285529
 20
325.63526660203939
 30
0.0
  0
VERTEX
  5
2ACA
  8
0
 10
344.17037309605479
 20
325.8208829164505
 30
0.0
  0
VERTEX
  5
2ACB
  8
0
 10
344.31148522991532
 20
326.06521353125572
 30
0.0
  0
VERTEX
  5
2ACC
  8
0
 10
344.36160528559083
 20
326.34102284908312
 30
0.0
  0
VERTEX
  5
2ACD
  8
0
 10
344.31486965615147
 20
326.61760702729231
 30
0.0
  0
VERTEX
  5
2ACE
  8
0
 10
344.17606161434048
 20
326.86385989189148
 30
0.0
  0
VERTEX
  5
2ACF
  8
0
 10
343.9607137580573
 20
327.05162197351461
 30
0.0
  0
VERTEX
  5
2AD0
  8
0
 10
343.69346515733599
 20
327.15955480933189
 30
0.0
  0
SEQEND
  5
2AD1
  8
0
  0
ARC
  5
1AF3
  8
0
 10
341.5934247056378
 20
331.48909383859791
 30
0.0
 40
1.57597027853649
 50
145.37481862186559
 51
213.4986818311281
  0
POLYLINE
  5
1AF4
  8
0
 66
     1
 10
0.0
 20
0.0
 30
0.0
 70
   128
  0
VERTEX
  5
2AD2
  8
0
 10
340.29657968778008
 20
332.38456875085831
 30
0.0
  0
VERTEX
  5
2AD3
  8
0
 10
340.29804745215768
 20
332.38634943962097
 30
0.0
  0
VERTEX
  5
2AD4
  8
0
 10
340.6774068017661
 20
332.71081104874611
 30
0.0
  0
VERTEX
  5
2AD5
  8
0
 10
341.14867278832787
 20
332.89639011025429
 30
0.0
  0
VERTEX
  5
2AD6
  8
0
 10
341.4999378611505
 20
332.9342874884606
 30
0.0
  0
VERTEX
  5
2AD7
  8
0
 10
341.65380166370272
 20
332.92710140347481
 30
0.0
  0
VERTEX
  5
2AD8
  8
0
 10
342.13700720567101
 20
332.80515775084501
 30
0.0
  0
VERTEX
  5
2AD9
  8
0
 10
342.5508608807981
 20
332.5432176887989
 30
0.0
  0
VERTEX
  5
2ADA
  8
0
 10
342.85271184045672
 20
332.16296613216412
 30
0.0
  0
VERTEX
  5
2ADB
  8
0
 10
343.0061751743018
 20
331.70083269476902
 30
0.0
  0
VERTEX
  5
2ADC
  8
0
 10
342.9903110255658
 20
331.2082487344743
 30
0.0
  0
VERTEX
  5
2ADD
  8
0
 10
342.80507469076508
 20
330.74287801980978
 30
0.0
  0
VERTEX
  5
2ADE
  8
0
 10
342.47030706602931
 20
330.3604024648667
 30
0.0
  0
VERTEX
  5
2ADF
  8
0
 10
342.02533790368432
 20
330.10834559798252
 30
0.0
  0
VERTEX
  5
2AE0
  8
0
 10
341.67250448364609
 20
330.02572238445288
 30
0.0
  0
VERTEX
  5
2AE1
  8
0
 10
341.17059984702462
 20
330.05162060260778
 30
0.0
  0
VERTEX
  5
2AE2
  8
0
 10
340.70585125584
 20
330.23648813366901
 30
0.0
  0
VERTEX
  5
2AE3
  8
0
 10
340.32703207332492
 20
330.55951923131948
 30
0.0
  0
VERTEX
  5
2AE4
  8
0
 10
340.2792254229247
 20
330.61928778886812
 30
0.0
  0
SEQEND
  5
2AE5
  8
0
  0
POLYLINE
  5
1AF5
  8
0
 66
     1
 10
0.0
 20
0.0
 30
0.0
 70
   128
  0
VERTEX
  5
2AE6
  8
0
 10
347.62474724549651
 20
330.505129992962
 30
0.0
  0
VERTEX
  5
2AE7
  8
0
 10
347.91766123372912
 20
330.99889487028128
 30
0.0
  0
VERTEX
  5
2AE8
  8
0
 10
348.0183409293353
 20
331.4196850359441
 30
0.0
  0
SEQEND
  5
2AE9
  8
0
  0
POLYLINE
  5
1AF6
  8
0
 66
     1
 10
0.0
 20
0.0
 30
0.0
 70
   128
  0
VERTEX
  5
2AEA
  8
0
 10
347.62474724549651
 20
330.505129992962
 30
0.0
  0
VERTEX
  5
2AEB
  8
0
 10
347.47030602294802
 20
330.3604024648667
 30
0.0
  0
VERTEX
  5
2AEC
  8
0
 10
347.02533686060309
 20
330.10834559798252
 30
0.0
  0
VERTEX
  5
2AED
  8
0
 10
346.67250344056481
 20
330.02572238445288
 30
0.0
  0
VERTEX
  5
2AEE
  8
0
 10
346.17059880394339
 20
330.05162060260778
 30
0.0
  0
VERTEX
  5
2AEF
  8
0
 10
345.70585021275872
 20
330.23648813366901
 30
0.0
  0
VERTEX
  5
2AF0
  8
0
 10
345.32703103024357
 20
330.55951923131948
 30
0.0
  0
VERTEX
  5
2AF1
  8
0
 10
345.0742365558803
 20
330.98798349499708
 30
0.0
  0
VERTEX
  5
2AF2
  8
0
 10
344.97949869830012
 20
331.47334784269339
 30
0.0
  0
VERTEX
  5
2AF3
  8
0
 10
345.05650231141442
 20
331.95799693465239
 30
0.0
  0
VERTEX
  5
2AF4
  8
0
 10
345.29804640907639
 20
332.38634943962097
 30
0.0
  0
VERTEX
  5
2AF5
  8
0
 10
345.67740762133002
 20
332.71081104874611
 30
0.0
  0
VERTEX
  5
2AF6
  8
0
 10
346.14867360789179
 20
332.89639011025429
 30
0.0
  0
VERTEX
  5
2AF7
  8
0
 10
346.49993681806922
 20
332.9342874884606
 30
0.0
  0
VERTEX
  5
2AF8
  8
0
 10
346.65380062062138
 20
332.92710140347481
 30
0.0
  0
VERTEX
  5
2AF9
  8
0
 10
347.13700802523488
 20
332.80515775084501
 30
0.0
  0
VERTEX
  5
2AFA
  8
0
 10
347.55086170036191
 20
332.5432176887989
 30
0.0
  0
VERTEX
  5
2AFB
  8
0
 10
347.85271266002059
 20
332.16296613216412
 30
0.0
  0
VERTEX
  5
2AFC
  8
0
 10
348.00617599386572
 20
331.70083269476902
 30
0.0
  0
VERTEX
  5
2AFD
  8
0
 10
348.0183409293353
 20
331.4196850359441
 30
0.0
  0
SEQEND
  5
2AFE
  8
0
  0
ARC
  5
1AF8
  8
0
 10
343.4999372576533
 20
326.41623744015828
 30
0.0
 40
1.5568257617850281
 50
35.494572699249687
 51
144.50542730074659
  0
LINE
  5
1AFA
  8
0
 10
349.75324587423199
 20
330.02049952745449
 30
0.0
 11
349.40108300644749
 21
329.37448576092731
 31
0.0
  0
POLYLINE
  5
1B09
  8
0
 66
     1
 10
0.0
 20
0.0
 30
0.0
 70
   128
  0
VERTEX
  5
2AFF
  8
0
 10
349.40108300644749
 20
329.37448576092731
 30
0.0
  0
VERTEX
  5
2B00
  8
0
 10
349.06664693254822
 20
328.6910216510297
 30
0.0
  0
VERTEX
  5
2B01
  8
0
 10
348.43558461863392
 20
327.12472334504139
 30
0.0
  0
SEQEND
  5
2B02
  8
0
  0
POLYLINE
  5
1B0A
  8
0
 66
     1
 10
0.0
 20
0.0
 30
0.0
 70
   128
  0
VERTEX
  5
2B03
  8
0
 10
338.7502666329205
 20
327.44120165705692
 30
0.0
  0
VERTEX
  5
2B04
  8
0
 10
338.57707323033208
 20
328.43248650431639
 30
0.0
  0
VERTEX
  5
2B05
  8
0
 10
338.39159382033938
 20
329.45465400815021
 30
0.0
  0
SEQEND
  5
2B06
  8
0
  0
LINE
  5
1B0B
  8
0
 10
350.33326984841221
 20
330.95976069569599
 30
0.0
 11
349.75324587423199
 21
330.02049952745449
 31
0.0
  0
ARC
  5
1B12
  8
0
 10
184.486966735679
 20
300.99998309840828
 30
0.0
 40
156.5129701121935
 50
0.0000069018830454
 51
2.531035601927099
  0
ARC
  5
1B13
  8
0
 10
356.34174020079291
 20
296.3625515300397
 30
0.0
 40
8.8419743529804187
 50
179.64352254306189
 51
188.8646181190386
  0
LINE
  5
1B15
  8
0
 10
347.49993698198108
 20
321.5626600383946
 30
0.0
 11
347.49993698198199
 21
296.41756333410751
 31
0.0
  0
LINE
  5
1B16
  8
0
 10
340.99993684787148
 20
295.00000096857559
 30
0.0
 11
340.99993684787148
 21
301.00000195205217
 31
0.0
  0
ARC
  5
1B17
  8
0
 10
364.2444271992137
 20
321.6682650839528
 30
0.0
 40
16.02389584147911
 50
154.55499362519481
 51
160.53378193613591
  0
ARC
  5
1B18
  8
0
 10
184.45745050464129
 20
300.99452696021052
 30
0.0
 40
155.8429644481032
 50
9.6390286467279225
 51
10.27060033265578
  0
ARC
  5
1B19
  8
0
 10
184.44184293148751
 20
300.99334972388419
 30
0.0
 40
155.85856434533071
 50
7.7856121534201543
 51
8.4171198420596465
  0
ARC
  5
1B1A
  8
0
 10
346.74972418026448
 20
331.00005931472219
 30
0.0
 40
9.1997802268340951
 50
160.32125466056809
 51
171.68346133951931
  0
ARC
  5
1B1C
  8
0
 10
364.49645346597413
 20
321.5630411915123
 30
0.0
 40
16.296496467458869
 50
172.01932360602069
 51
177.87571807716151
  0
ARC
  5
1B1D
  8
0
 10
345.75014017627251
 20
333.99995977215178
 30
0.0
 40
6.1997940217973033
 50
341.4451696391385
 51
358.80625288849598
  0
CIRCLE
  5
1B1E
  8
0
 10
310.99993693727851
 20
276.00000157952309
 30
0.0
 40
1.75
  0
LINE
  5
1B1F
  8
0
 10
361.99993842739462
 20
262.00000114738941
 30
0.0
 11
361.99993842739462
 21
290.00000201165682
 31
0.0
  0
LINE
  5
1B20
  8
0
 10
356.99993574518561
 20
257.0000021904707
 30
0.0
 11
361.99993842739462
 21
262.00000114738941
 31
0.0
  0
LINE
  5
1B21
  8
0
 10
291.99993812937129
 20
257.0000021904707
 30
0.0
 11
356.99993574518561
 21
257.0000021904707
 31
0.0
  0
LINE
  5
1B22
  8
0
 10
286.99993544716227
 20
262.00000114738941
 30
0.0
 11
291.99993812937129
 21
257.0000021904707
 31
0.0
  0
LINE
  5
1B23
  8
0
 10
286.99993544716227
 20
262.00000114738941
 30
0.0
 11
286.99993544716227
 21
290.00000201165682
 31
0.0
  0
LINE
  5
1B24
  8
0
 10
291.99993812937129
 20
295.00000096857548
 30
0.0
 11
286.99993544716227
 21
290.00000201165682
 31
0.0
  0
LINE
  5
1B25
  8
0
 10
291.99993812937129
 20
295.00000096857548
 30
0.0
 11
356.99993574518561
 21
295.00000096857548
 31
0.0
  0
LINE
  5
1B29
  8
0
 10
361.99993842739462
 20
290.00000201165682
 30
0.0
 11
356.99993574518561
 21
295.00000096857548
 31
0.0
  0
CIRCLE
  5
1B2A
  8
0
 10
310.99993693727851
 20
288.00000157952309
 30
0.0
 40
5.4999999999999707
  0
CIRCLE
  5
1B2B
  8
0
 10
349.99993693727851
 20
276.00000157952309
 30
0.0
 40
6.0
  0
CIRCLE
  5
1B2C
  8
0
 10
310.99993693727851
 20
276.00000157952309
 30
0.0
 40
1.25
  0
CIRCLE
  5
1B2D
  8
0
 10
310.99993693727851
 20
264.00000157952309
 30
0.0
 40
5.4999999999999707
  0
CIRCLE
  5
1B2E
  8
0
 10
310.99993693727851
 20
288.0000015795232
 30
0.0
 40
3.3000000000000389
  0
CIRCLE
  5
1B2F
  8
0
 10
310.99993693727851
 20
264.00000157952309
 30
0.0
 40
3.3000000000000389
  0
ARC
  5
1B47
  8
0
 10
346.74631953994492
 20
57.999382270508249
 30
0.0
 40
8.4965554737404965
 50
169.5165100692785
 51
247.96531937091771
  0
ARC
  5
1B53
  8
0
 10
344.23714363747359
 20
51.947327452581249
 30
0.0
 40
1.945987084912522
 50
249.5955732411862
 51
269.95013981566819
  0
LINE
  5
1B54
  8
0
 10
344.23619525033831
 20
50.0
 30
0.0
 11
347.56281243163937
 21
50.0
 31
0.0
  0
ARC
  5
1B55
  8
0
 10
347.57090893462032
 20
51.935142575472923
 30
0.0
 40
1.935159513003643
 50
269.760279811597
 51
302.17084760500802
  0
ARC
  5
1B56
  8
0
 10
349.67382124197769
 20
59.702596632350541
 30
0.0
 40
0.2704503750305538
 50
122.52478547846999
 51
187.69264085887571
  0
POLYLINE
  5
1B57
  8
0
 66
     1
 10
0.0
 20
0.0
 30
0.0
 70
   128
  0
VERTEX
  5
2B07
  8
0
 10
348.6007265940525
 20
62.17939798551128
 30
0.0
  0
VERTEX
  5
2B08
  8
0
 10
348.5291583229959
 20
62.176662683486931
 30
0.0
  0
VERTEX
  5
2B09
  8
0
 10
348.44405406612748
 20
62.19651848077774
 30
0.0
  0
VERTEX
  5
2B0A
  8
0
 10
348.3799362321555
 20
62.231316417455673
 30
0.0
  0
VERTEX
  5
2B0B
  8
0
 10
348.33377057213181
 20
62.271955609321587
 30
0.0
  0
VERTEX
  5
2B0C
  8
0
 10
348.30287301439643
 20
62.311566621065133
 30
0.0
  0
VERTEX
  5
2B0D
  8
0
 10
348.2840174575507
 20
62.34490051865577
 30
0.0
  0
VERTEX
  5
2B0E
  8
0
 10
348.2738585909068
 20
62.368388473987572
 30
0.0
  0
VERTEX
  5
2B0F
  8
0
 10
348.2702301581561
 20
62.378398329019539
 30
0.0
  0
VERTEX
  5
2B10
  8
0
 10
348.26934353906512
 20
62.381024658679962
 30
0.0
  0
VERTEX
  5
2B11
  8
0
 10
348.2690765589507
 20
62.38183700842967
 30
0.0
  0
SEQEND
  5
2B12
  8
0
  0
ARC
  5
1B58
  8
0
 10
338.60343449426972
 20
62.493145297899673
 30
0.0
 40
0.3000000000000264
 50
271.43498707352302
 51
349.90942929233978
  0
ARC
  5
1B59
  8
0
 10
348.78892580753052
 20
60.944902188351527
 30
0.0
 40
1.248758910742493
 50
85.925384087808368
 51
98.668016685722833
  0
ARC
  5
1B5A
  8
0
 10
348.45955698210378
 20
61.265636500875182
 30
0.0
 40
1.7101726262086709
 50
308.68196557051061
 51
317.96446835032839
  0
ARC
  5
1B5B
  8
0
 10
338.64355788997437
 20
60.943648425523463
 30
0.0
 40
1.2499818793694311
 50
234.995660950006
 51
248.57965039986141
  0
ARC
  5
1B5C
  8
0
 10
338.6431574222687
 20
60.948372964618393
 30
0.0
 40
1.2452830568982369
 50
91.482161700524344
 51
105.4801500349292
  0
ARC
  5
1B5D
  8
0
 10
338.39601408030768
 20
61.86085055457022
 30
0.0
 40
0.2999917690352371
 50
106.5051910879461
 51
170.36207913288871
  0
ARC
  5
1B5E
  8
0
 10
338.09848249620393
 20
60.165600583710273
 30
0.0
 40
0.3000000241062876
 50
169.7294196586592
 51
235.02579315829391
  0
ARC
  5
1B5F
  8
0
 10
349.50403989892573
 20
60.318139526112809
 30
0.0
 40
0.2999999999999959
 50
318.79671065232861
 51
25.395725498087678
  0
ARC
  5
1B60
  8
0
 10
348.85375027206049
 20
61.891458760380033
 30
0.0
 40
0.3000000000000082
 50
19.531843024227271
 51
85.429297244722207
  0
ARC
  5
1B61
  8
0
 10
338.91958157141329
 20
64.482928491245673
 30
0.0
 40
0.3000038897178037
 50
352.53575180606123
 51
70.928638634453861
  0
ARC
  5
1B62
  8
0
 10
339.34777351132692
 20
67.491039178909659
 30
0.0
 40
0.3000024194646287
 50
273.34508601303833
 51
350.91432026529583
  0
ARC
  5
1B63
  8
0
 10
338.0767491503247
 20
59.498941872527837
 30
0.0
 40
0.3019360237656714
 50
352.17817023772392
 51
68.572154573261486
  0
POLYLINE
  5
1B64
  8
0
 66
     1
 10
0.0
 20
0.0
 30
0.0
 70
   128
  0
VERTEX
  5
2B13
  8
0
 10
338.92343209583157
 20
54.624783992767327
 30
0.0
  0
VERTEX
  5
2B14
  8
0
 10
338.92766030032033
 20
54.621308296918862
 30
0.0
  0
VERTEX
  5
2B15
  8
0
 10
338.95730616051549
 20
54.587002098560333
 30
0.0
  0
VERTEX
  5
2B16
  8
0
 10
338.9754539122045
 20
54.559420049190521
 30
0.0
  0
VERTEX
  5
2B17
  8
0
 10
338.98479880291819
 20
54.542067646980279
 30
0.0
  0
VERTEX
  5
2B18
  8
0
 10
338.9867042889058
 20
54.538159817457192
 30
0.0
  0
VERTEX
  5
2B19
  8
0
 10
338.9869553161065
 20
54.53763101425568
 30
0.0
  0
SEQEND
  5
2B1A
  8
0
  0
ARC
  5
1B65
  8
0
 10
338.718227219607
 20
54.416381911647981
 30
0.0
 40
0.2924730220742007
 50
45.442890756314462
 51
98.629197803108156
  0
POLYLINE
  5
1B66
  8
0
 66
     1
 10
0.0
 20
0.0
 30
0.0
 70
   128
  0
VERTEX
  5
2B1B
  8
0
 10
338.27023805247057
 20
57.409893054283138
 30
0.0
  0
VERTEX
  5
2B1C
  8
0
 10
338.27042037147879
 20
57.402539253234863
 30
0.0
  0
VERTEX
  5
2B1D
  8
0
 10
338.2701540132224
 20
57.386356592178338
 30
0.0
  0
VERTEX
  5
2B1E
  8
0
 10
338.25924729455107
 20
57.318217307329171
 30
0.0
  0
VERTEX
  5
2B1F
  8
0
 10
338.23532720554471
 20
57.258553057909012
 30
0.0
  0
VERTEX
  5
2B20
  8
0
 10
338.17902596194142
 20
57.183767855167382
 30
0.0
  0
VERTEX
  5
2B21
  8
0
 10
338.09667469460362
 20
57.127236574888222
 30
0.0
  0
VERTEX
  5
2B22
  8
0
 10
338.07000546196429
 20
57.116488350541537
 30
0.0
  0
SEQEND
  5
2B23
  8
0
  0
ARC
  5
1B67
  8
0
 10
339.43840852174401
 20
65.944377027272481
 30
0.0
 40
1.2508193423676419
 50
236.84176992936409
 51
250.34102253816181
  0
ARC
  5
1B68
  8
0
 10
339.43732741553953
 20
65.949315393696907
 30
0.0
 40
1.244320152611897
 50
93.319408611243844
 51
107.38289967513759
  0
ARC
  5
1B69
  8
0
 10
338.91836635323352
 20
65.148377553224293
 30
0.0
 40
0.2999991601667854
 50
171.58256814234011
 51
236.8390693268193
  0
ARC
  5
1B6A
  8
0
 10
339.16092099095499
 20
66.852360093870573
 30
0.0
 40
0.2999999999999984
 50
108.53026486413169
 51
172.21456216669509
  0
ARC
  5
1B6B
  8
0
 10
338.50232158291419
 20
55.940813086768621
 30
0.0
 40
1.247148190231931
 50
261.8012302022322
 51
270.00467137206329
  0
ARC
  5
1B6C
  8
0
 10
338.50242326393249
 20
55.943664900681767
 30
0.0
 40
1.250000000000002
 50
110.2388357737416
 51
126.029769788587
  0
ARC
  5
1B6D
  8
0
 10
338.50242326393249
 20
55.943664900681767
 30
0.0
 40
1.2500000000000031
 50
270.0000000000008
 51
277.90536141967721
  0
ARC
  5
1B6E
  8
0
 10
337.94363704428321
 20
56.711947374346721
 30
0.0
 40
0.300000001004479
 50
126.0319014708371
 51
188.17847092538639
  0
ARC
  5
1B6F
  8
0
 10
338.36973108904948
 20
55.002977499638057
 30
0.0
 40
0.3000000000000013
 50
199.67863765524399
 51
261.32237820744592
  0
POLYLINE
  5
1B70
  8
0
 66
     1
 10
0.0
 20
0.0
 30
0.0
 70
   128
  0
VERTEX
  5
2B24
  8
0
 10
350.77895799178481
 20
57.273018360137932
 30
0.0
  0
VERTEX
  5
2B25
  8
0
 10
350.76488011974692
 20
57.286731153726571
 30
0.0
  0
VERTEX
  5
2B26
  8
0
 10
350.7418932159602
 20
57.31683894991874
 30
0.0
  0
VERTEX
  5
2B27
  8
0
 10
350.72898694772118
 20
57.3380060493946
 30
0.0
  0
VERTEX
  5
2B28
  8
0
 10
350.72551683980822
 20
57.34445080161094
 30
0.0
  0
VERTEX
  5
2B29
  8
0
 10
350.72401927310818
 20
57.347352802753441
 30
0.0
  0
VERTEX
  5
2B2A
  8
0
 10
350.7232943419225
 20
57.348787748845268
 30
0.0
  0
SEQEND
  5
2B2B
  8
0
  0
ARC
  5
1B71
  8
0
 10
350.98887487620948
 20
57.473222066608628
 30
0.0
 40
0.2900803723990757
 50
223.64327689233679
 51
277.38941868636431
  0
POLYLINE
  5
1B72
  8
0
 66
     1
 10
0.0
 20
0.0
 30
0.0
 70
   128
  0
VERTEX
  5
2B2C
  8
0
 10
351.2250734783334
 20
54.474878818609277
 30
0.0
  0
VERTEX
  5
2B2D
  8
0
 10
351.22544148463601
 20
54.477620124816887
 30
0.0
  0
VERTEX
  5
2B2E
  8
0
 10
351.23313979703778
 20
54.514448344707482
 30
0.0
  0
VERTEX
  5
2B2F
  8
0
 10
351.24829986590743
 20
54.55678254365921
 30
0.0
  0
VERTEX
  5
2B30
  8
0
 10
351.30226069588059
 20
54.638612270355218
 30
0.0
  0
VERTEX
  5
2B31
  8
0
 10
351.3749243457973
 20
54.696033895015709
 30
0.0
  0
VERTEX
  5
2B32
  8
0
 10
351.45871648994108
 20
54.72785106258118
 30
0.0
  0
SEQEND
  5
2B33
  8
0
  0
ARC
  5
1B73
  8
0
 10
348.0645673742402
 20
64.476146610532737
 30
0.0
 40
0.2999982658854968
 50
108.7753538869693
 51
188.8241801221854
  0
ARC
  5
1B74
  8
0
 10
351.16834679298381
 20
55.944462944779559
 30
0.0
 40
1.2492036410370211
 50
79.21029572422745
 51
96.534627816410833
  0
ARC
  5
1B75
  8
0
 10
351.1683775709983
 20
55.943664775041782
 30
0.0
 40
1.249999868504043
 50
283.43082137324819
 51
300.36507758024197
  0
ARC
  5
1B76
  8
0
 10
347.58503519237621
 20
66.035222326859923
 30
0.0
 40
1.1565817659187341
 50
67.726367257665515
 51
81.569677839547026
  0
ARC
  5
1B77
  8
0
 10
347.56563879285733
 20
65.943777626196379
 30
0.0
 40
1.2501212545008371
 50
288.77581384614928
 51
301.40710612703901
  0
ARC
  5
1B78
  8
0
 10
351.6486338068637
 20
55.123997951738147
 30
0.0
 40
0.2999999999999965
 50
300.35982245498531
 51
0.9945329680437062
  0
ARC
  5
1B79
  8
0
 10
351.34325998150001
 20
56.877429393533809
 30
0.0
 40
0.300000000000001
 50
18.554598877690339
 51
78.668858642600824
  0
ARC
  5
1B7A
  8
0
 10
348.06067691266418
 20
65.132815585530693
 30
0.0
 40
0.3000043498491615
 50
301.42557247092168
 51
7.9618420753231671
  0
ARC
  5
1B7B
  8
0
 10
347.91080742846913
 20
66.827029379295936
 30
0.0
 40
0.3003814468038612
 50
1.330098614149527
 51
67.98303179593519
  0
ARC
  5
1B7C
  8
0
 10
347.79993693727852
 20
67.475861218912939
 30
0.0
 40
0.3000000000000018
 50
179.9999999999967
 51
261.30752857094689
  0
ARC
  5
1B7F
  8
0
 10
184.4235519955925
 20
88.006984299672453
 30
0.0
 40
156.57663061262741
 50
350.27524361583238
 51
357.46744302236863
  0
ARC
  5
1B84
  8
0
 10
343.4999372576533
 20
62.500271429474537
 30
0.0
 40
1.5098781896407429
 50
327.08588503905179
 51
212.91411496094821
  0
ARC
  5
1B87
  8
0
 10
364.50609887333923
 20
67.438382243870194
 30
0.0
 40
17.006161923138549
 50
180.0035028375566
 51
199.0942327911645
  0
POLYLINE
  5
1B8A
  8
0
 66
     1
 10
0.0
 20
0.0
 30
0.0
 70
   128
  0
VERTEX
  5
2B34
  8
0
 10
341.4999378611505
 20
58.246216922998492
 30
0.0
  0
VERTEX
  5
2B35
  8
0
 10
341.21633896130919
 20
58.196078240871493
 30
0.0
  0
VERTEX
  5
2B36
  8
0
 10
340.96083061296338
 20
58.048541843891201
 30
0.0
  0
VERTEX
  5
2B37
  8
0
 10
340.76583774287099
 20
57.818773388862667
 30
0.0
  0
VERTEX
  5
2B38
  8
0
 10
340.656697912997
 20
57.535319775342998
 30
0.0
  0
VERTEX
  5
2B39
  8
0
 10
340.64598584074372
 20
57.234357297420559
 30
0.0
  0
VERTEX
  5
2B3A
  8
0
 10
340.7321443547666
 20
56.952289491891918
 30
0.0
  0
VERTEX
  5
2B3B
  8
0
 10
340.90183877844208
 20
56.719555705785808
 30
0.0
  0
VERTEX
  5
2B3C
  8
0
 10
341.1361409117639
 20
56.557103246450481
 30
0.0
  0
VERTEX
  5
2B3D
  8
0
 10
341.41167642075419
 20
56.480559706687977
 30
0.0
  0
VERTEX
  5
2B3E
  8
0
 10
341.59309805828929
 20
56.481081247329769
 30
0.0
  0
VERTEX
  5
2B3F
  8
0
 10
341.8712412704885
 20
56.560668349266109
 30
0.0
  0
VERTEX
  5
2B40
  8
0
 10
342.11046078700417
 20
56.731934845447597
 30
0.0
  0
VERTEX
  5
2B41
  8
0
 10
342.27980130810141
 20
56.977416574955043
 30
0.0
  0
VERTEX
  5
2B42
  8
0
 10
342.35765242475861
 20
57.267769426107463
 30
0.0
  0
VERTEX
  5
2B43
  8
0
 10
342.33607926864022
 20
57.567234337329921
 30
0.0
  0
VERTEX
  5
2B44
  8
0
 10
342.22087280351519
 20
57.840305566787777
 30
0.0
  0
VERTEX
  5
2B45
  8
0
 10
342.02821196514958
 20
58.057441562414233
 30
0.0
  0
VERTEX
  5
2B46
  8
0
 10
341.7797965695321
 20
58.197426795959529
 30
0.0
  0
VERTEX
  5
2B47
  8
0
 10
341.4999378611505
 20
58.246216922998492
 30
0.0
  0
SEQEND
  5
2B48
  8
0
  0
CIRCLE
  5
1B8B
  8
0
 10
341.50224383657849
 20
57.397649626126743
 30
0.0
 40
1.13273851332896
  0
POLYLINE
  5
1B8C
  8
0
 66
     1
 10
0.0
 20
0.0
 30
0.0
 70
   128
  0
VERTEX
  5
2B49
  8
0
 10
346.49993681806922
 20
58.246216922998492
 30
0.0
  0
VERTEX
  5
2B4A
  8
0
 10
346.216339780873
 20
58.196078240871493
 30
0.0
  0
VERTEX
  5
2B4B
  8
0
 10
345.9608314325273
 20
58.048541843891201
 30
0.0
  0
VERTEX
  5
2B4C
  8
0
 10
345.7658366997897
 20
57.818773388862667
 30
0.0
  0
VERTEX
  5
2B4D
  8
0
 10
345.65669873256081
 20
57.535319775342998
 30
0.0
  0
VERTEX
  5
2B4E
  8
0
 10
345.64598479766249
 20
57.234357297420559
 30
0.0
  0
VERTEX
  5
2B4F
  8
0
 10
345.73214331168532
 20
56.952289491891918
 30
0.0
  0
VERTEX
  5
2B50
  8
0
 10
345.9018377353608
 20
56.719555705785808
 30
0.0
  0
VERTEX
  5
2B51
  8
0
 10
346.13613986868262
 20
56.557103246450481
 30
0.0
  0
VERTEX
  5
2B52
  8
0
 10
346.411677240318
 20
56.480559706687977
 30
0.0
  0
VERTEX
  5
2B53
  8
0
 10
346.593097015208
 20
56.481081247329769
 30
0.0
  0
VERTEX
  5
2B54
  8
0
 10
346.87124022740721
 20
56.560668349266109
 30
0.0
  0
VERTEX
  5
2B55
  8
0
 10
347.11046160656809
 20
56.731934845447597
 30
0.0
  0
VERTEX
  5
2B56
  8
0
 10
347.27980212766522
 20
56.977416574955043
 30
0.0
  0
VERTEX
  5
2B57
  8
0
 10
347.35765138167739
 20
57.267769426107463
 30
0.0
  0
VERTEX
  5
2B58
  8
0
 10
347.33607822555899
 20
57.567234337329921
 30
0.0
  0
VERTEX
  5
2B59
  8
0
 10
347.220873623079
 20
57.840305566787777
 30
0.0
  0
VERTEX
  5
2B5A
  8
0
 10
347.0282109220683
 20
58.057441562414233
 30
0.0
  0
VERTEX
  5
2B5B
  8
0
 10
346.77979552645081
 20
58.197426795959529
 30
0.0
  0
VERTEX
  5
2B5C
  8
0
 10
346.49993681806922
 20
58.246216922998492
 30
0.0
  0
SEQEND
  5
2B5D
  8
0
  0
CIRCLE
  5
1B8D
  8
0
 10
346.50224483852622
 20
57.397648630397732
 30
0.0
 40
1.1327395132208731
  0
POLYLINE
  5
1B90
  8
0
 66
     1
 10
0.0
 20
0.0
 30
0.0
 70
   128
  0
VERTEX
  5
2B5E
  8
0
 10
343.30640935797089
 20
61.840447783470211
 30
0.0
  0
VERTEX
  5
2B5F
  8
0
 10
343.40396167237162
 20
61.823780834674892
 30
0.0
  0
VERTEX
  5
2B60
  8
0
 10
343.69346515733599
 20
61.840447783470211
 30
0.0
  0
SEQEND
  5
2B61
  8
0
  0
POLYLINE
  5
1B93
  8
0
 66
     1
 10
0.0
 20
0.0
 30
0.0
 70
   128
  0
VERTEX
  5
2B62
  8
0
 10
343.7545785446822
 20
61.541593819856701
 30
0.0
  0
VERTEX
  5
2B63
  8
0
 10
343.37365457314849
 20
61.520307511091289
 30
0.0
  0
VERTEX
  5
2B64
  8
0
 10
343.24529410797948
 20
61.541593819856701
 30
0.0
  0
SEQEND
  5
2B65
  8
0
  0
POLYLINE
  5
1B95
  8
0
 66
     1
 10
0.0
 20
0.0
 30
0.0
 70
   128
  0
VERTEX
  5
2B66
  8
0
 10
343.69346515733599
 20
61.840447783470211
 30
0.0
  0
VERTEX
  5
2B67
  8
0
 10
343.77347507972121
 20
61.862274259328899
 30
0.0
  0
VERTEX
  5
2B68
  8
0
 10
344.028284936136
 20
61.994294822216091
 30
0.0
  0
VERTEX
  5
2B69
  8
0
 10
344.22343426842087
 20
62.200210243463573
 30
0.0
  0
VERTEX
  5
2B6A
  8
0
 10
344.33738158542508
 20
62.45705038309103
 30
0.0
  0
VERTEX
  5
2B6B
  8
0
 10
344.35740315813422
 20
62.736391276121203
 30
0.0
  0
VERTEX
  5
2B6C
  8
0
 10
344.280900596565
 20
63.007100671529827
 30
0.0
  0
VERTEX
  5
2B6D
  8
0
 10
344.11602111060017
 20
63.238497078418789
 30
0.0
  0
VERTEX
  5
2B6E
  8
0
 10
343.88119184870118
 20
63.403952121734683
 30
0.0
  0
VERTEX
  5
2B6F
  8
0
 10
343.60319019753331
 20
63.484347611665783
 30
0.0
  0
VERTEX
  5
2B70
  8
0
 10
343.3136587728917
 20
63.470578938722667
 30
0.0
  0
VERTEX
  5
2B71
  8
0
 10
343.04595382410878
 20
63.364735990762767
 30
0.0
  0
VERTEX
  5
2B72
  8
0
 10
342.829499556607
 20
63.179119676351597
 30
0.0
  0
VERTEX
  5
2B73
  8
0
 10
342.68838928539151
 20
62.934789061546383
 30
0.0
  0
VERTEX
  5
2B74
  8
0
 10
342.638269229716
 20
62.658979743719158
 30
0.0
  0
VERTEX
  5
2B75
  8
0
 10
342.68500485915541
 20
62.382395565509853
 30
0.0
  0
VERTEX
  5
2B76
  8
0
 10
342.8238129009664
 20
62.136142700910632
 30
0.0
  0
VERTEX
  5
2B77
  8
0
 10
343.03915889460438
 20
61.948380619287548
 30
0.0
  0
VERTEX
  5
2B78
  8
0
 10
343.30640935797089
 20
61.840447783470211
 30
0.0
  0
SEQEND
  5
2B79
  8
0
  0
POLYLINE
  5
1B96
  8
0
 66
     1
 10
0.0
 20
0.0
 30
0.0
 70
   128
  0
VERTEX
  5
2B7A
  8
0
 10
343.24529410797948
 20
61.541593819856701
 30
0.0
  0
VERTEX
  5
2B7B
  8
0
 10
342.89365091819161
 20
61.684119701385562
 30
0.0
  0
VERTEX
  5
2B7C
  8
0
 10
342.61029975015521
 20
61.932063847780277
 30
0.0
  0
VERTEX
  5
2B7D
  8
0
 10
342.42765808004731
 20
62.257244437933032
 30
0.0
  0
VERTEX
  5
2B7E
  8
0
 10
342.36616285044551
 20
62.622479349374828
 30
0.0
  0
VERTEX
  5
2B7F
  8
0
 10
342.43210980195403
 20
62.986689805984547
 30
0.0
  0
VERTEX
  5
2B80
  8
0
 10
342.61778199571961
 20
63.309329748153743
 30
0.0
  0
VERTEX
  5
2B81
  8
0
 10
342.90259161490792
 20
63.554442673921642
 30
0.0
  0
VERTEX
  5
2B82
  8
0
 10
343.25506368178719
 20
63.694260269403507
 30
0.0
  0
VERTEX
  5
2B83
  8
0
 10
343.6357976635158
 20
63.712391257286129
 30
0.0
  0
VERTEX
  5
2B84
  8
0
 10
344.00158950585723
 20
63.606227934360561
 30
0.0
  0
VERTEX
  5
2B85
  8
0
 10
344.3105743964374
 20
63.38773965835577
 30
0.0
  0
VERTEX
  5
2B86
  8
0
 10
344.52752040225857
 20
63.08217644691473
 30
0.0
  0
VERTEX
  5
2B87
  8
0
 10
344.62818147141331
 20
62.724701315164623
 30
0.0
  0
VERTEX
  5
2B88
  8
0
 10
344.6018380810678
 20
62.355826795101223
 30
0.0
  0
VERTEX
  5
2B89
  8
0
 10
344.4519063224256
 20
62.016665190458347
 30
0.0
  0
VERTEX
  5
2B8A
  8
0
 10
344.19513137537831
 20
61.744752526283321
 30
0.0
  0
VERTEX
  5
2B8B
  8
0
 10
343.85985524851679
 20
61.570412665605602
 30
0.0
  0
VERTEX
  5
2B8C
  8
0
 10
343.7545785446822
 20
61.541593819856701
 30
0.0
  0
SEQEND
  5
2B8D
  8
0
  0
ARC
  5
1B99
  8
0
 10
341.58129295910368
 20
57.510789488462983
 30
0.0
 40
1.5659342014493209
 50
146.2526892715743
 51
214.87381027543199
  0
POLYLINE
  5
1B9A
  8
0
 66
     1
 10
0.0
 20
0.0
 30
0.0
 70
   128
  0
VERTEX
  5
2B8E
  8
0
 10
340.2792254229247
 20
58.380714803934147
 30
0.0
  0
VERTEX
  5
2B8F
  8
0
 10
340.52956679362649
 20
58.639600127935473
 30
0.0
  0
VERTEX
  5
2B90
  8
0
 10
340.97453595597142
 20
58.891656994819698
 30
0.0
  0
VERTEX
  5
2B91
  8
0
 10
341.3273693760097
 20
58.974280208349292
 30
0.0
  0
VERTEX
  5
2B92
  8
0
 10
341.82927401263112
 20
58.948381990194378
 30
0.0
  0
VERTEX
  5
2B93
  8
0
 10
342.29402260381579
 20
58.763514459133212
 30
0.0
  0
VERTEX
  5
2B94
  8
0
 10
342.67284178633088
 20
58.440483361482677
 30
0.0
  0
VERTEX
  5
2B95
  8
0
 10
342.9256362606942
 20
58.01201909780508
 30
0.0
  0
VERTEX
  5
2B96
  8
0
 10
343.0203759809196
 20
57.526654750108783
 30
0.0
  0
VERTEX
  5
2B97
  8
0
 10
342.94337050516009
 20
57.042005658149783
 30
0.0
  0
VERTEX
  5
2B98
  8
0
 10
342.70182640749812
 20
56.613653153181133
 30
0.0
  0
VERTEX
  5
2B99
  8
0
 10
342.3224670578897
 20
56.289191544056003
 30
0.0
  0
VERTEX
  5
2B9A
  8
0
 10
341.85120107132792
 20
56.103612482547817
 30
0.0
  0
VERTEX
  5
2B9B
  8
0
 10
341.4999378611505
 20
56.065715104341557
 30
0.0
  0
VERTEX
  5
2B9C
  8
0
 10
341.34607219595313
 20
56.072901189327297
 30
0.0
  0
VERTEX
  5
2B9D
  8
0
 10
340.86286665398472
 20
56.194844841957149
 30
0.0
  0
VERTEX
  5
2B9E
  8
0
 10
340.4490129788577
 20
56.4567849040032
 30
0.0
  0
VERTEX
  5
2B9F
  8
0
 10
340.29657968778008
 20
56.615433841943798
 30
0.0
  0
SEQEND
  5
2BA0
  8
0
  0
POLYLINE
  5
1B9B
  8
0
 66
     1
 10
0.0
 20
0.0
 30
0.0
 70
   128
  0
VERTEX
  5
2BA1
  8
0
 10
348.0183409293353
 20
57.58031755685812
 30
0.0
  0
VERTEX
  5
2BA2
  8
0
 10
347.86371530491709
 20
58.126772940158901
 30
0.0
  0
VERTEX
  5
2BA3
  8
0
 10
347.62474724549651
 20
58.494872599840221
 30
0.0
  0
SEQEND
  5
2BA4
  8
0
  0
POLYLINE
  5
1B9C
  8
0
 66
     1
 10
0.0
 20
0.0
 30
0.0
 70
   128
  0
VERTEX
  5
2BA5
  8
0
 10
348.0183409293353
 20
57.58031755685812
 30
0.0
  0
VERTEX
  5
2BA6
  8
0
 10
348.02037493783831
 20
57.526654750108783
 30
0.0
  0
VERTEX
  5
2BA7
  8
0
 10
347.9433713247239
 20
57.042005658149783
 30
0.0
  0
VERTEX
  5
2BA8
  8
0
 10
347.70182722706193
 20
56.613653153181133
 30
0.0
  0
VERTEX
  5
2BA9
  8
0
 10
347.32246601480841
 20
56.289191544056003
 30
0.0
  0
VERTEX
  5
2BAA
  8
0
 10
346.85120002824658
 20
56.103612482547817
 30
0.0
  0
VERTEX
  5
2BAB
  8
0
 10
346.49993681806922
 20
56.065715104341557
 30
0.0
  0
VERTEX
  5
2BAC
  8
0
 10
346.34607301551699
 20
56.072901189327297
 30
0.0
  0
VERTEX
  5
2BAD
  8
0
 10
345.8628656109035
 20
56.194844841957149
 30
0.0
  0
VERTEX
  5
2BAE
  8
0
 10
345.44901193577641
 20
56.4567849040032
 30
0.0
  0
VERTEX
  5
2BAF
  8
0
 10
345.14716097611779
 20
56.837036460638103
 30
0.0
  0
VERTEX
  5
2BB0
  8
0
 10
344.99369764227271
 20
57.299169898033199
 30
0.0
  0
VERTEX
  5
2BB1
  8
0
 10
345.0095636536538
 20
57.791753858327922
 30
0.0
  0
VERTEX
  5
2BB2
  8
0
 10
345.19479812580943
 20
58.257124572992382
 30
0.0
  0
VERTEX
  5
2BB3
  8
0
 10
345.52956761319041
 20
58.639600127935473
 30
0.0
  0
VERTEX
  5
2BB4
  8
0
 10
345.97453677553528
 20
58.891656994819698
 30
0.0
  0
VERTEX
  5
2BB5
  8
0
 10
346.32737019557351
 20
58.974280208349292
 30
0.0
  0
VERTEX
  5
2BB6
  8
0
 10
346.82927483219498
 20
58.948381990194378
 30
0.0
  0
VERTEX
  5
2BB7
  8
0
 10
347.2940234233796
 20
58.763514459133212
 30
0.0
  0
VERTEX
  5
2BB8
  8
0
 10
347.62474724549651
 20
58.494872599840221
 30
0.0
  0
SEQEND
  5
2BB9
  8
0
  0
ARC
  5
1B9D
  8
0
 10
343.4999372576533
 20
62.583765152643871
 30
0.0
 40
1.5568257617850261
 50
215.49457269925361
 51
324.50542730075028
  0
LINE
  5
1BA0
  8
0
 10
349.40108300644749
 20
59.625516831874897
 30
0.0
 11
349.75324587423199
 21
58.979503065347672
 31
0.0
  0
ARC
  5
1BAB
  8
0
 10
345.75113824316031
 20
54.999899256649137
 30
0.0
 40
5.4990556843179901
 50
301.21801261237289
 51
33.565127511877421
  0
POLYLINE
  5
1BAD
  8
0
 66
     1
 10
0.0
 20
0.0
 30
0.0
 70
   128
  0
VERTEX
  5
2BBA
  8
0
 10
348.43558461863392
 20
61.87527924776083
 30
0.0
  0
VERTEX
  5
2BBB
  8
0
 10
349.06664693254822
 20
60.308980941772518
 30
0.0
  0
VERTEX
  5
2BBC
  8
0
 10
349.40108300644749
 20
59.625516831874897
 30
0.0
  0
SEQEND
  5
2BBD
  8
0
  0
POLYLINE
  5
1BB0
  8
0
 66
     1
 10
0.0
 20
0.0
 30
0.0
 70
   128
  0
VERTEX
  5
2BBE
  8
0
 10
338.39159382033938
 20
59.545348584651997
 30
0.0
  0
VERTEX
  5
2BBF
  8
0
 10
338.57368880409592
 20
60.54851338267332
 30
0.0
  0
VERTEX
  5
2BC0
  8
0
 10
338.7502666329205
 20
61.558800935745303
 30
0.0
  0
SEQEND
  5
2BC1
  8
0
  0
LINE
  5
1BB1
  8
0
 10
349.75324587423199
 20
58.979503065347672
 30
0.0
 11
350.33326984841221
 21
58.040241897106171
 31
0.0
  0
LINE
  5
1BB3
  8
0
 10
347.49993698198199
 20
92.582439258694635
 30
0.0
 11
347.49993698198199
 21
67.437342554330826
 31
0.0
  0
ARC
  5
1BB8
  8
0
 10
184.49004691817609
 20
87.999951449758427
 30
0.0
 40
156.50988992970309
 50
357.46893948815108
 51
0.0000180080404625
  0
POLYLINE
  5
1BB9
  8
0
 66
     1
 10
0.0
 20
0.0
 30
0.0
 70
   128
  0
VERTEX
  5
2BC2
  8
0
 10
347.60229678351283
 20
94.00000162422657
 30
0.0
  0
VERTEX
  5
2BC3
  8
0
 10
347.5984820862472
 20
93.982869014143944
 30
0.0
  0
VERTEX
  5
2BC4
  8
0
 10
347.49993698198199
 20
92.582439258694635
 30
0.0
  0
SEQEND
  5
2BC5
  8
0
  0
LINE
  5
1BBC
  8
0
 10
340.99993684787148
 20
88.000000640749931
 30
0.0
 11
340.99993684787148
 21
94.00000162422657
 31
0.0
  0
ARC
  5
1BBD
  8
0
 10
184.57732951367649
 20
87.984519536058528
 30
0.0
 40
155.72126897088589
 50
349.72912225506388
 51
350.36118757568812
  0
ARC
  5
1BBE
  8
0
 10
364.49930131394672
 20
67.437081366453071
 30
0.0
 40
16.299313173471631
 50
199.51678513166499
 51
205.39584970548231
  0
ARC
  5
1BBF
  8
0
 10
318.9006435730771
 20
68.867059815813704
 30
0.0
 40
20.060408524302019
 50
349.44466406542051
 51
354.35262313527232
  0
ARC
  5
1BC0
  8
0
 10
346.74970763962313
 20
57.999939154755907
 30
0.0
 40
9.1997632637277231
 50
188.3165281508262
 51
199.67875584908211
  0
ARC
  5
1BC2
  8
0
 10
345.75000333775802
 20
55.000019001779663
 30
0.0
 40
6.1999313268741094
 50
1.1939408371680551
 51
18.55463663522033
  0
POLYLINE
  5
1BC3
  8
0
 66
     1
 10
0.0
 20
0.0
 30
0.0
 70
   128
  0
VERTEX
  5
2BC6
  8
0
 10
348.21110793847441
 20
66.834001988172531
 30
0.0
  0
VERTEX
  5
2BC7
  8
0
 10
348.21110793847441
 20
66.834001988172531
 30
0.0
  0
VERTEX
  5
2BC8
  8
0
 10
348.2125663896262
 20
66.795791685581193
 30
0.0
  0
VERTEX
  5
2BC9
  8
0
 10
348.21830892462128
 20
66.663666814565644
 30
0.0
  0
VERTEX
  5
2BCA
  8
0
 10
348.22927617926001
 20
66.459811478853226
 30
0.0
  0
VERTEX
  5
2BCB
  8
0
 10
348.24645908076161
 20
66.206718981266022
 30
0.0
  0
VERTEX
  5
2BCC
  8
0
 10
348.26972165603041
 20
65.930648893117905
 30
0.0
  0
VERTEX
  5
2BCD
  8
0
 10
348.29702617127299
 20
65.660926699638367
 30
0.0
  0
VERTEX
  5
2BCE
  8
0
 10
348.32420588929051
 20
65.42842760682106
 30
0.0
  0
VERTEX
  5
2BCF
  8
0
 10
348.3458144356668
 20
65.261489897966385
 30
0.0
  0
VERTEX
  5
2BD0
  8
0
 10
348.3569288392722
 20
65.180509537458406
 30
0.0
  0
VERTEX
  5
2BD1
  8
0
 10
348.3577893813312
 20
65.174370259046555
 30
0.0
  0
SEQEND
  5
2BD2
  8
0
  0
LINE
  5
1BC4
  8
0
 10
286.99993544716227
 20
99.000000581145414
 30
0.0
 11
291.99993812937129
 21
94.000001624226684
 31
0.0
  0
LINE
  5
1BC5
  8
0
 10
286.99993544716227
 20
99.000000581145414
 30
0.0
 11
286.99993544716227
 21
127.00000144541271
 31
0.0
  0
LINE
  5
1BC6
  8
0
 10
291.99993812937129
 20
132.00000040233141
 30
0.0
 11
286.99993544716227
 21
127.00000144541271
 31
0.0
  0
LINE
  5
1BC7
  8
0
 10
291.99993812937129
 20
132.00000040233141
 30
0.0
 11
356.99993574518561
 21
132.00000040233141
 31
0.0
  0
LINE
  5
1BC8
  8
0
 10
361.99993842739462
 20
127.00000144541271
 30
0.0
 11
356.99993574518561
 21
132.00000040233141
 31
0.0
  0
LINE
  5
1BC9
  8
0
 10
361.99993842739462
 20
99.000000581145414
 30
0.0
 11
361.99993842739462
 21
127.00000144541271
 31
0.0
  0
LINE
  5
1BCA
  8
0
 10
356.99993574518561
 20
94.000001624226684
 30
0.0
 11
361.99993842739462
 21
99.000000581145414
 31
0.0
  0
LINE
  5
1BCB
  8
0
 10
291.99993812937129
 20
94.000001624226684
 30
0.0
 11
356.99993574518561
 21
94.000001624226684
 31
0.0
  0
CIRCLE
  5
1BCF
  8
0
 10
310.99993693727851
 20
101.0000010132791
 30
0.0
 40
3.3000000000000389
  0
CIRCLE
  5
1BD0
  8
0
 10
349.99993693727851
 20
113.000001013279
 30
0.0
 40
3.3000000000000109
  0
CIRCLE
  5
1BD1
  8
0
 10
310.99993693727851
 20
125.0000010132791
 30
0.0
 40
3.3000000000000389
  0
LINE
  5
1BF0
  8
0
 10
235.99993643808949
 20
209.0000008791686
 30
0.0
 11
235.99993643808949
 21
216.5000011771919
 31
0.0
  0
LINE
  5
1BF1
  8
0
 10
219.9999356781303
 20
216.5000011771919
 30
0.0
 11
219.9999356781303
 21
209.0000008791686
 31
0.0
  0
LINE
  5
1BF2
  8
0
 10
235.99993643808949
 20
216.5000011771919
 30
0.0
 11
235.4999358904719
 21
217.00000219047081
 31
0.0
  0
LINE
  5
1BF3
  8
0
 10
220.499936225748
 20
217.00000219047081
 30
0.0
 11
219.9999356781303
 21
216.5000011771919
 31
0.0
  0
ARC
  5
1BF7
  8
0
 10
170.95415821308839
 20
204.1391024518972
 30
0.0
 40
0.3028514639160774
 50
292.05804358836127
 51
5.144091159296849
  0
POLYLINE
  5
1BF8
  8
0
 66
     1
 10
0.0
 20
0.0
 30
0.0
 70
   128
  0
VERTEX
  5
2BD3
  8
0
 10
174.00769680426339
 20
204.48427442329529
 30
0.0
  0
VERTEX
  5
2BD4
  8
0
 10
174.00769680426339
 20
204.48427442329529
 30
0.0
  0
VERTEX
  5
2BD5
  8
0
 10
174.00769680426339
 20
204.48427442329529
 30
0.0
  0
VERTEX
  5
2BD6
  8
0
 10
173.9830085840027
 20
204.48405675273159
 30
0.0
  0
VERTEX
  5
2BD7
  8
0
 10
173.97827947883599
 20
204.48443840974949
 30
0.0
  0
VERTEX
  5
2BD8
  8
0
 10
173.97537065583711
 20
204.48488783085429
 30
0.0
  0
VERTEX
  5
2BD9
  8
0
 10
173.97029140336971
 20
204.48521914883631
 30
0.0
  0
VERTEX
  5
2BDA
  8
0
 10
173.96194414693699
 20
204.48559351265439
 30
0.0
  0
VERTEX
  5
2BDB
  8
0
 10
173.9136830111205
 20
204.49040658772
 30
0.0
  0
VERTEX
  5
2BDC
  8
0
 10
173.8388642807661
 20
204.51450921595111
 30
0.0
  0
VERTEX
  5
2BDD
  8
0
 10
173.76855687696329
 20
204.5609747618438
 30
0.0
  0
VERTEX
  5
2BDE
  8
0
 10
173.70236219364989
 20
204.6451365202667
 30
0.0
  0
VERTEX
  5
2BDF
  8
0
 10
173.6824562886631
 20
204.69223744994679
 30
0.0
  0
SEQEND
  5
2BE0
  8
0
  0
POLYLINE
  5
1BFD
  8
0
 66
     1
 10
0.0
 20
0.0
 30
0.0
 70
   128
  0
VERTEX
  5
2BE1
  8
0
 10
173.6828163979178
 20
185.30881594287399
 30
0.0
  0
VERTEX
  5
2BE2
  8
0
 10
173.69983644682759
 20
185.34999169409281
 30
0.0
  0
VERTEX
  5
2BE3
  8
0
 10
173.74919281799191
 20
185.42025253176701
 30
0.0
  0
VERTEX
  5
2BE4
  8
0
 10
173.80445749956959
 20
185.46630084514629
 30
0.0
  0
VERTEX
  5
2BE5
  8
0
 10
173.85835872489801
 20
185.49390897154819
 30
0.0
  0
VERTEX
  5
2BE6
  8
0
 10
173.9055544276892
 20
185.50799801945701
 30
0.0
  0
VERTEX
  5
2BE7
  8
0
 10
173.94240127403131
 20
185.51340807229289
 30
0.0
  0
VERTEX
  5
2BE8
  8
0
 10
173.96680937606681
 20
185.51445674151191
 30
0.0
  0
VERTEX
  5
2BE9
  8
0
 10
173.9751204987227
 20
185.5143598839642
 30
0.0
  0
VERTEX
  5
2BEA
  8
0
 10
173.97817151147709
 20
185.51426675170671
 30
0.0
  0
VERTEX
  5
2BEB
  8
0
 10
173.97964300114501
 20
185.51420994102961
 30
0.0
  0
VERTEX
  5
2BEC
  8
0
 10
173.98085744578231
 20
185.514158718288
 30
0.0
  0
VERTEX
  5
2BED
  8
0
 10
173.98193777996889
 20
185.5141074955464
 30
0.0
  0
VERTEX
  5
2BEE
  8
0
 10
173.9826418598353
 20
185.51407210528859
 30
0.0
  0
VERTEX
  5
2BEF
  8
0
 10
174.0062705524891
 20
185.51399074080891
 30
0.0
  0
VERTEX
  5
2BF0
  8
0
 10
174.0062705524891
 20
185.51399074080891
 30
0.0
  0
SEQEND
  5
2BF1
  8
0
  0
ARC
  5
1BFE
  8
0
 10
170.9573790864558
 20
185.8628951381304
 30
0.0
 40
0.2998320843195184
 50
354.42453013127158
 51
68.337156387389925
  0
ARC
  5
1C01
  8
0
 10
172.4990307061662
 20
204.2870632213845
 30
0.0
 40
1.2490964736467871
 50
169.64622250338269
 51
185.550060251958
  0
ARC
  5
1C02
  8
0
 10
172.4999361558813
 20
204.28708825394429
 30
0.0
 40
1.249999894182283
 50
18.91223169210263
 51
34.480061825316191
  0
ARC
  5
1C03
  8
0
 10
172.4991952331066
 20
185.71293299564149
 30
0.0
 40
1.249260667526078
 50
174.45662751851131
 51
190.3357110505209
  0
ARC
  5
1C04
  8
0
 10
172.4999364935893
 20
185.71291240901499
 30
0.0
 40
1.2499995288044901
 50
325.52200838756471
 51
341.13876196361338
  0
ARC
  5
1C05
  8
0
 10
171.56487790449111
 20
204.4549162472706
 30
0.0
 40
0.3000000000000192
 50
107.2457371380882
 51
169.11692818054919
  0
ARC
  5
1C06
  8
0
 10
173.2830274525482
 20
204.82492449596759
 30
0.0
 40
0.3000000000000143
 50
34.474766713281291
 51
96.934933296799286
  0
ARC
  5
1C07
  8
0
 10
171.5648779044937
 20
185.54508455739179
 30
0.0
 40
0.3000000000000189
 50
190.81434622192839
 51
252.7542628619718
  0
ARC
  5
1C08
  8
0
 10
173.2830274525482
 20
185.1750763086954
 30
0.0
 40
0.3000000000000114
 50
263.06506670319629
 51
325.53387337486618
  0
ARC
  5
1C09
  8
0
 10
179.04969183475501
 20
204.0300619921579
 30
0.0
 40
0.3000013607142024
 50
178.76846557925609
 51
257.14115559307038
  0
ARC
  5
1C0A
  8
0
 10
179.0496918333738
 20
185.96994325107551
 30
0.0
 40
0.2999979691413535
 50
102.87685147036299
 51
181.54355587284999
  0
ARC
  5
1C0B
  8
0
 10
176.07603465419959
 20
204.6740907033051
 30
0.0
 40
0.3016693500397654
 50
262.48572575976573
 51
336.67054681498769
  0
POLYLINE
  5
1C0C
  8
0
 66
     1
 10
0.0
 20
0.0
 30
0.0
 70
   128
  0
VERTEX
  5
2BF2
  8
0
 10
176.04391948778019
 20
185.64848709851509
 30
0.0
  0
VERTEX
  5
2BF3
  8
0
 10
176.1332295973956
 20
185.622436143458
 30
0.0
  0
VERTEX
  5
2BF4
  8
0
 10
176.19609759647241
 20
185.60312051326051
 30
0.0
  0
VERTEX
  5
2BF5
  8
0
 10
176.2756660719572
 20
185.55260371416821
 30
0.0
  0
VERTEX
  5
2BF6
  8
0
 10
176.3387166102587
 20
185.47452814877039
 30
0.0
  0
VERTEX
  5
2BF7
  8
0
 10
176.35303788563871
 20
185.44538227213181
 30
0.0
  0
SEQEND
  5
2BF8
  8
0
  0
ARC
  5
1C0D
  8
0
 10
177.3920976897048
 20
204.1126804956873
 30
0.0
 40
1.1291387899226939
 50
140.7269210581257
 51
156.95842005714221
  0
ARC
  5
1C0E
  8
0
 10
177.5051756458472
 20
204.05772881169861
 30
0.0
 40
1.244764995515625
 50
359.02325552935372
 51
12.905184619343171
  0
ARC
  5
1C0F
  8
0
 10
177.33522887427461
 20
185.8581489007272
 30
0.0
 40
1.065399187084082
 50
202.7946236435838
 51
220.0468931903535
  0
ARC
  5
1C10
  8
0
 10
177.50556914424081
 20
185.94238348484109
 30
0.0
 40
1.244386041131782
 50
347.04309714877269
 51
0.8969051552437766
  0
ARC
  5
1C11
  8
0
 10
178.42740463612509
 20
185.73684684520759
 30
0.0
 40
0.3000044095700391
 50
282.10517560109702
 51
345.82286797828789
  0
ARC
  5
1C12
  8
0
 10
178.4274092723812
 20
204.2631541408374
 30
0.0
 40
0.3000015261855826
 50
14.000286546369839
 51
77.89561188115799
  0
ARC
  5
1C13
  8
0
 10
176.75599379671249
 20
204.63159033420291
 30
0.0
 40
0.3082293990895537
 50
73.456325883313298
 51
140.54902215318739
  0
ARC
  5
1C14
  8
0
 10
176.7607281957865
 20
185.3769127218238
 30
0.0
 40
0.3159767117645113
 50
220.273007081158
 51
287.9982287198896
  0
LINE
  5
1C16
  8
0
 10
235.99993643808949
 20
216.5000011771919
 30
0.0
 11
219.9999356781303
 21
216.5000011771919
 31
0.0
  0
LINE
  5
1C17
  8
0
 10
220.499936225748
 20
217.00000219047081
 30
0.0
 11
235.4999358904719
 21
217.00000219047081
 31
0.0
  0
ARC
  5
1C1A
  8
0
 10
196.0027020094862
 20
286.22380045396289
 30
0.0
 40
84.223800767651227
 50
256.73685570696341
 51
269.99811734422298
  0
ARC
  5
1C1C
  8
0
 10
175.95950691653471
 20
189.5000004768373
 30
0.0
 40
1.5157902038255591
 50
201.0935459979425
 51
158.9064540020575
  0
ARC
  5
1C1E
  8
0
 10
175.95950691653471
 20
195.00000044703489
 30
0.0
 40
1.5157902038255591
 50
201.0935459979425
 51
158.9064540020575
  0
ARC
  5
1C20
  8
0
 10
175.95950691653471
 20
200.5000004172326
 30
0.0
 40
1.5157902038255591
 50
201.0935459979425
 51
158.9064540020575
  0
CIRCLE
  5
1C29
  8
0
 10
180.93502064752599
 20
199.60163663930661
 30
0.0
 40
1.516566674691654
  0
CIRCLE
  5
1C2A
  8
0
 10
180.93502061412909
 20
195.00163699939009
 30
0.0
 40
1.516566708084796
  0
CIRCLE
  5
1C2B
  8
0
 10
180.93502061412909
 20
190.40163736297851
 30
0.0
 40
1.516566708084796
  0
ARC
  5
1C2C
  8
0
 10
196.00269058538211
 20
103.7763666563332
 30
0.0
 40
84.223634551050495
 50
90.001874887886629
 51
103.26316296124639
  0
POLYLINE
  5
1C2F
  8
0
 66
     1
 10
0.0
 20
0.0
 30
0.0
 70
   128
  0
VERTEX
  5
2BF9
  8
0
 10
171.6684654493987
 20
199.40000042319309
 30
0.0
  0
VERTEX
  5
2BFA
  8
0
 10
171.61830441552991
 20
199.68326963484299
 30
0.0
  0
VERTEX
  5
2BFB
  8
0
 10
171.4703209837138
 20
199.93907414376741
 30
0.0
  0
VERTEX
  5
2BFC
  8
0
 10
171.2397590418517
 20
200.13435758650311
 30
0.0
  0
VERTEX
  5
2BFD
  8
0
 10
170.95573173362601
 20
200.24343967437761
 30
0.0
  0
VERTEX
  5
2BFE
  8
0
 10
170.65497787196031
 20
200.25378480553641
 30
0.0
  0
VERTEX
  5
2BFF
  8
0
 10
170.37409843403691
 20
200.16725935041919
 30
0.0
  0
VERTEX
  5
2C00
  8
0
 10
170.14319749075759
 20
199.9976003170014
 30
0.0
  0
VERTEX
  5
2C01
  8
0
 10
169.98230965334761
 20
199.76371727883819
 30
0.0
  0
VERTEX
  5
2C02
  8
0
 10
169.90644039112919
 20
199.48858037590989
 30
0.0
  0
VERTEX
  5
2C03
  8
0
 10
169.90699545938361
 20
199.30621251463899
 30
0.0
  0
VERTEX
  5
2C04
  8
0
 10
169.98616532880649
 20
199.0281233191491
 30
0.0
  0
VERTEX
  5
2C05
  8
0
 10
170.15674264628279
 20
198.78872685134419
 30
0.0
  0
VERTEX
  5
2C06
  8
0
 10
170.4016544063746
 20
198.6194552481175
 30
0.0
  0
VERTEX
  5
2C07
  8
0
 10
170.69163100320691
 20
198.54209400713449
 30
0.0
  0
VERTEX
  5
2C08
  8
0
 10
170.9907978912054
 20
198.56438986957079
 30
0.0
  0
VERTEX
  5
2C09
  8
0
 10
171.26345933873051
 20
198.6801476776601
 30
0.0
  0
VERTEX
  5
2C0A
  8
0
 10
171.48008496958599
 20
198.87279920279991
 30
0.0
  0
VERTEX
  5
2C0B
  8
0
 10
171.61971630055299
 20
199.12063531577601
 30
0.0
  0
VERTEX
  5
2C0C
  8
0
 10
171.6684654493987
 20
199.40000042319309
 30
0.0
  0
SEQEND
  5
2C0D
  8
0
  0
CIRCLE
  5
1C30
  8
0
 10
170.82369415680731
 20
199.39812281981281
 30
0.0
 40
1.1308043657981059
  0
POLYLINE
  5
1C31
  8
0
 66
     1
 10
0.0
 20
0.0
 30
0.0
 70
   128
  0
VERTEX
  5
2C0E
  8
0
 10
171.6684654493987
 20
190.60000047087681
 30
0.0
  0
VERTEX
  5
2C0F
  8
0
 10
171.61830441552991
 20
190.8832696825267
 30
0.0
  0
VERTEX
  5
2C10
  8
0
 10
171.4703209837138
 20
191.13907419145119
 30
0.0
  0
VERTEX
  5
2C11
  8
0
 10
171.2397590418517
 20
191.3343576341868
 30
0.0
  0
VERTEX
  5
2C12
  8
0
 10
170.95573173362601
 20
191.44343972206121
 30
0.0
  0
VERTEX
  5
2C13
  8
0
 10
170.65497787196031
 20
191.4537848532201
 30
0.0
  0
VERTEX
  5
2C14
  8
0
 10
170.37409843403691
 20
191.3672593981029
 30
0.0
  0
VERTEX
  5
2C15
  8
0
 10
170.14319749075759
 20
191.1976003646852
 30
0.0
  0
VERTEX
  5
2C16
  8
0
 10
169.98230965334761
 20
190.96371732652199
 30
0.0
  0
VERTEX
  5
2C17
  8
0
 10
169.90644039112919
 20
190.68858042359361
 30
0.0
  0
VERTEX
  5
2C18
  8
0
 10
169.90699545938361
 20
190.5062125623227
 30
0.0
  0
VERTEX
  5
2C19
  8
0
 10
169.98616532880649
 20
190.22812336683279
 30
0.0
  0
VERTEX
  5
2C1A
  8
0
 10
170.15674264628279
 20
189.98872689902791
 30
0.0
  0
VERTEX
  5
2C1B
  8
0
 10
170.4016544063746
 20
189.8194552958013
 30
0.0
  0
VERTEX
  5
2C1C
  8
0
 10
170.69163100320691
 20
189.74209405481821
 30
0.0
  0
VERTEX
  5
2C1D
  8
0
 10
170.9907978912054
 20
189.7643899172545
 30
0.0
  0
VERTEX
  5
2C1E
  8
0
 10
171.26345933873051
 20
189.88014772534379
 30
0.0
  0
VERTEX
  5
2C1F
  8
0
 10
171.48008496958599
 20
190.0727992504836
 30
0.0
  0
VERTEX
  5
2C20
  8
0
 10
171.61971630055299
 20
190.3206353634597
 30
0.0
  0
VERTEX
  5
2C21
  8
0
 10
171.6684654493987
 20
190.60000047087681
 30
0.0
  0
SEQEND
  5
2C22
  8
0
  0
CIRCLE
  5
1C32
  8
0
 10
170.82369415680731
 20
190.5981228674965
 30
0.0
 40
1.1308043657981059
  0
POLYLINE
  5
1C33
  8
0
 66
     1
 10
0.0
 20
0.0
 30
0.0
 70
   128
  0
VERTEX
  5
2C23
  8
0
 10
171.6684654493987
 20
195.00000044703489
 30
0.0
  0
VERTEX
  5
2C24
  8
0
 10
171.61830441552991
 20
195.28326965868479
 30
0.0
  0
VERTEX
  5
2C25
  8
0
 10
171.4703209837138
 20
195.5390741676093
 30
0.0
  0
VERTEX
  5
2C26
  8
0
 10
171.2397590418517
 20
195.734357610345
 30
0.0
  0
VERTEX
  5
2C27
  8
0
 10
170.95573173362601
 20
195.84343969821941
 30
0.0
  0
VERTEX
  5
2C28
  8
0
 10
170.65497787196031
 20
195.85378482937821
 30
0.0
  0
VERTEX
  5
2C29
  8
0
 10
170.37409843403691
 20
195.76725937426099
 30
0.0
  0
VERTEX
  5
2C2A
  8
0
 10
170.14319749075759
 20
195.59760034084329
 30
0.0
  0
VERTEX
  5
2C2B
  8
0
 10
169.98230965334761
 20
195.3637173026801
 30
0.0
  0
VERTEX
  5
2C2C
  8
0
 10
169.90644039112919
 20
195.08858039975181
 30
0.0
  0
VERTEX
  5
2C2D
  8
0
 10
169.90699545938361
 20
194.9062125384809
 30
0.0
  0
VERTEX
  5
2C2E
  8
0
 10
169.98616532880649
 20
194.62812334299099
 30
0.0
  0
VERTEX
  5
2C2F
  8
0
 10
170.15674264628279
 20
194.38872687518611
 30
0.0
  0
VERTEX
  5
2C30
  8
0
 10
170.4016544063746
 20
194.21945527195939
 30
0.0
  0
VERTEX
  5
2C31
  8
0
 10
170.69163100320691
 20
194.14209403097641
 30
0.0
  0
VERTEX
  5
2C32
  8
0
 10
170.9907978912054
 20
194.1643898934127
 30
0.0
  0
VERTEX
  5
2C33
  8
0
 10
171.26345933873051
 20
194.2801477015019
 30
0.0
  0
VERTEX
  5
2C34
  8
0
 10
171.48008496958599
 20
194.47279922664171
 30
0.0
  0
VERTEX
  5
2C35
  8
0
 10
171.61971630055299
 20
194.72063533961779
 30
0.0
  0
VERTEX
  5
2C36
  8
0
 10
171.6684654493987
 20
195.00000044703489
 30
0.0
  0
SEQEND
  5
2C37
  8
0
  0
CIRCLE
  5
1C34
  8
0
 10
170.82369415680731
 20
194.99812284365461
 30
0.0
 40
1.1308043657981059
  0
CIRCLE
  5
1C38
  8
0
 10
176.07609783522409
 20
200.5013290007611
 30
0.0
 40
0.8570741332673311
  0
CIRCLE
  5
1C39
  8
0
 10
176.0481912278315
 20
200.49741164580499
 30
0.0
 40
1.1283624308387501
  0
CIRCLE
  5
1C3A
  8
0
 10
176.07609783522409
 20
195.0013290305634
 30
0.0
 40
0.8570741332673311
  0
CIRCLE
  5
1C3B
  8
0
 10
176.0481912278315
 20
194.99741167560731
 30
0.0
 40
1.1283624308387501
  0
CIRCLE
  5
1C3C
  8
0
 10
176.0481912278315
 20
189.4974117054096
 30
0.0
 40
1.1283624308387501
  0
CIRCLE
  5
1C3D
  8
0
 10
176.07609783522409
 20
189.50132906036569
 30
0.0
 40
0.8570741332673311
  0
POLYLINE
  5
1C44
  8
0
 66
     1
 10
0.0
 20
0.0
 30
0.0
 70
   128
  0
VERTEX
  5
2C38
  8
0
 10
169.53084917265761
 20
199.40000042319309
 30
0.0
  0
VERTEX
  5
2C39
  8
0
 10
169.5370629568755
 20
199.54464972019201
 30
0.0
  0
VERTEX
  5
2C3A
  8
0
 10
169.65328828889719
 20
200.02750694751751
 30
0.0
  0
VERTEX
  5
2C3B
  8
0
 10
169.90668253499859
 20
200.44229939579981
 30
0.0
  0
VERTEX
  5
2C3C
  8
0
 10
170.2778332074343
 20
200.74691265821471
 30
0.0
  0
VERTEX
  5
2C3D
  8
0
 10
170.73241175610411
 20
200.90437136590489
 30
0.0
  0
VERTEX
  5
2C3E
  8
0
 10
171.2200075526892
 20
200.89303717017191
 30
0.0
  0
VERTEX
  5
2C3F
  8
0
 10
171.6834820945918
 20
200.71243509650239
 30
0.0
  0
VERTEX
  5
2C40
  8
0
 10
172.06727640230051
 20
200.38152687251579
 30
0.0
  0
VERTEX
  5
2C41
  8
0
 10
172.3228834708392
 20
199.93879288434991
 30
0.0
  0
VERTEX
  5
2C42
  8
0
 10
172.4098727245985
 20
199.57593843340879
 30
0.0
  0
VERTEX
  5
2C43
  8
0
 10
172.38535658914441
 20
199.075052663684
 30
0.0
  0
VERTEX
  5
2C44
  8
0
 10
172.20291422206751
 20
198.61083492636689
 30
0.0
  0
VERTEX
  5
2C45
  8
0
 10
171.883228435105
 20
198.2315258681775
 30
0.0
  0
VERTEX
  5
2C46
  8
0
 10
171.45853043991909
 20
197.97693952918061
 30
0.0
  0
VERTEX
  5
2C47
  8
0
 10
170.97757683593619
 20
197.8797262161971
 30
0.0
  0
VERTEX
  5
2C48
  8
0
 10
170.49819157916889
 20
197.95390605926519
 30
0.0
  0
VERTEX
  5
2C49
  8
0
 10
170.0750097771346
 20
198.1925928592683
 30
0.0
  0
VERTEX
  5
2C4A
  8
0
 10
169.7541952272116
 20
198.5698753595353
 30
0.0
  0
VERTEX
  5
2C4B
  8
0
 10
169.5697933574377
 20
199.04014483094221
 30
0.0
  0
VERTEX
  5
2C4C
  8
0
 10
169.53084917265761
 20
199.40000042319309
 30
0.0
  0
SEQEND
  5
2C4D
  8
0
  0
POLYLINE
  5
1C45
  8
0
 66
     1
 10
0.0
 20
0.0
 30
0.0
 70
   128
  0
VERTEX
  5
2C4E
  8
0
 10
169.53084917265761
 20
195.00000044703489
 30
0.0
  0
VERTEX
  5
2C4F
  8
0
 10
169.5370629568755
 20
195.1446497440339
 30
0.0
  0
VERTEX
  5
2C50
  8
0
 10
169.65328828889719
 20
195.62750697135931
 30
0.0
  0
VERTEX
  5
2C51
  8
0
 10
169.90668253499859
 20
196.04229941964161
 30
0.0
  0
VERTEX
  5
2C52
  8
0
 10
170.2778332074343
 20
196.34691268205651
 30
0.0
  0
VERTEX
  5
2C53
  8
0
 10
170.73241175610411
 20
196.50437138974681
 30
0.0
  0
VERTEX
  5
2C54
  8
0
 10
171.2200075526892
 20
196.49303719401371
 30
0.0
  0
VERTEX
  5
2C55
  8
0
 10
171.6834820945918
 20
196.3124351203443
 30
0.0
  0
VERTEX
  5
2C56
  8
0
 10
172.06727640230051
 20
195.98152689635759
 30
0.0
  0
VERTEX
  5
2C57
  8
0
 10
172.3228834708392
 20
195.53879290819179
 30
0.0
  0
VERTEX
  5
2C58
  8
0
 10
172.4098727245985
 20
195.17593845725071
 30
0.0
  0
VERTEX
  5
2C59
  8
0
 10
172.38535658914441
 20
194.67505268752581
 30
0.0
  0
VERTEX
  5
2C5A
  8
0
 10
172.20291422206751
 20
194.21083495020881
 30
0.0
  0
VERTEX
  5
2C5B
  8
0
 10
171.883228435105
 20
193.83152589201941
 30
0.0
  0
VERTEX
  5
2C5C
  8
0
 10
171.45853043991909
 20
193.5769395530225
 30
0.0
  0
VERTEX
  5
2C5D
  8
0
 10
170.97757683593619
 20
193.47972624003901
 30
0.0
  0
VERTEX
  5
2C5E
  8
0
 10
170.49819157916889
 20
193.55390608310711
 30
0.0
  0
VERTEX
  5
2C5F
  8
0
 10
170.0750097771346
 20
193.7925928831101
 30
0.0
  0
VERTEX
  5
2C60
  8
0
 10
169.7541952272116
 20
194.16987538337719
 30
0.0
  0
VERTEX
  5
2C61
  8
0
 10
169.5697933574377
 20
194.6401448547841
 30
0.0
  0
VERTEX
  5
2C62
  8
0
 10
169.53084917265761
 20
195.00000044703489
 30
0.0
  0
SEQEND
  5
2C63
  8
0
  0
POLYLINE
  5
1C46
  8
0
 66
     1
 10
0.0
 20
0.0
 30
0.0
 70
   128
  0
VERTEX
  5
2C64
  8
0
 10
169.53084917265761
 20
190.60000047087681
 30
0.0
  0
VERTEX
  5
2C65
  8
0
 10
169.5370629568755
 20
190.74464976787581
 30
0.0
  0
VERTEX
  5
2C66
  8
0
 10
169.65328828889719
 20
191.2275069952012
 30
0.0
  0
VERTEX
  5
2C67
  8
0
 10
169.90668253499859
 20
191.64229944348341
 30
0.0
  0
VERTEX
  5
2C68
  8
0
 10
170.2778332074343
 20
191.9469127058984
 30
0.0
  0
VERTEX
  5
2C69
  8
0
 10
170.73241175610411
 20
192.10437141358861
 30
0.0
  0
VERTEX
  5
2C6A
  8
0
 10
171.2200075526892
 20
192.09303721785551
 30
0.0
  0
VERTEX
  5
2C6B
  8
0
 10
171.6834820945918
 20
191.91243514418611
 30
0.0
  0
VERTEX
  5
2C6C
  8
0
 10
172.06727640230051
 20
191.58152692019951
 30
0.0
  0
VERTEX
  5
2C6D
  8
0
 10
172.3228834708392
 20
191.1387929320336
 30
0.0
  0
VERTEX
  5
2C6E
  8
0
 10
172.4098727245985
 20
190.77593848109251
 30
0.0
  0
VERTEX
  5
2C6F
  8
0
 10
172.38535658914441
 20
190.27505271136769
 30
0.0
  0
VERTEX
  5
2C70
  8
0
 10
172.20291422206751
 20
189.81083497405061
 30
0.0
  0
VERTEX
  5
2C71
  8
0
 10
171.883228435105
 20
189.43152591586119
 30
0.0
  0
VERTEX
  5
2C72
  8
0
 10
171.45853043991909
 20
189.1769395768643
 30
0.0
  0
VERTEX
  5
2C73
  8
0
 10
170.97757683593619
 20
189.07972626388079
 30
0.0
  0
VERTEX
  5
2C74
  8
0
 10
170.49819157916889
 20
189.15390610694891
 30
0.0
  0
VERTEX
  5
2C75
  8
0
 10
170.0750097771346
 20
189.39259290695199
 30
0.0
  0
VERTEX
  5
2C76
  8
0
 10
169.7541952272116
 20
189.7698735445739
 30
0.0
  0
VERTEX
  5
2C77
  8
0
 10
169.5697933574377
 20
190.24014487862601
 30
0.0
  0
VERTEX
  5
2C78
  8
0
 10
169.53084917265761
 20
190.60000047087681
 30
0.0
  0
SEQEND
  5
2C79
  8
0
  0
POLYLINE
  5
1C47
  8
0
 66
     1
 10
0.0
 20
0.0
 30
0.0
 70
   128
  0
VERTEX
  5
2C7A
  8
0
 10
174.09680338103169
 20
204.491442218423
 30
0.0
  0
VERTEX
  5
2C7B
  8
0
 10
175.3830242732202
 20
204.41815646036571
 30
0.0
  0
VERTEX
  5
2C7C
  8
0
 10
176.67976693708289
 20
204.24653045833119
 30
0.0
  0
SEQEND
  5
2C7D
  8
0
  0
POLYLINE
  5
1C49
  8
0
 66
     1
 10
0.0
 20
0.0
 30
0.0
 70
   128
  0
VERTEX
  5
2C7E
  8
0
 10
176.67976693708289
 20
185.7534685730935
 30
0.0
  0
VERTEX
  5
2C7F
  8
0
 10
175.4080720384776
 20
185.54350562393671
 30
0.0
  0
VERTEX
  5
2C80
  8
0
 10
174.09680338103169
 20
185.50855774432429
 30
0.0
  0
SEQEND
  5
2C81
  8
0
  0
ARC
  5
1C4C
  8
0
 10
176.04234830055151
 20
195.00000044703489
 30
0.0
 40
1.5933596787090729
 50
159.9785985698332
 51
200.02140143017019
  0
ARC
  5
1C4F
  8
0
 10
176.04234830055151
 20
200.5000004172326
 30
0.0
 40
1.5933596787090729
 50
159.9785985698332
 51
200.02140143017019
  0
ARC
  5
1C52
  8
0
 10
176.04234830055151
 20
189.5000004768373
 30
0.0
 40
1.5933596787090729
 50
159.9785985698332
 51
200.02140143017019
  0
ARC
  5
1C54
  8
0
 10
174.50003142217091
 20
194.9999995157124
 30
0.0
 40
9.5000284419386691
 50
107.6768295312378
 51
252.3231704687625
  0
ARC
  5
1C58
  8
0
 10
174.42754242421901
 20
195.33429617024439
 30
0.0
 40
9.1595621495623547
 50
96.562966051912028
 51
107.879764627922
  0
ARC
  5
1C5B
  8
0
 10
174.4271773143966
 20
194.6640836854107
 30
0.0
 40
9.1579090803100822
 50
252.11929913477621
 51
263.43814342572591
  0
POLYLINE
  5
1C60
  8
0
 66
     1
 10
0.0
 20
0.0
 30
0.0
 70
   128
  0
VERTEX
  5
2C82
  8
0
 10
174.09680338103169
 20
185.50855774432429
 30
0.0
  0
VERTEX
  5
2C83
  8
0
 10
173.76505137879241
 20
185.5284666270019
 30
0.0
  0
VERTEX
  5
2C84
  8
0
 10
173.38064984876499
 20
185.56616749614491
 30
0.0
  0
SEQEND
  5
2C85
  8
0
  0
LINE
  5
1C61
  8
0
 10
173.38064984876499
 20
204.43383432924759
 30
0.0
 11
174.09680338103169
 21
204.491442218423
 31
0.0
  0
CIRCLE
  5
1C62
  8
0
 10
181.05031762048691
 20
190.4025388293833
 30
0.0
 40
0.8580936983925303
  0
CIRCLE
  5
1C63
  8
0
 10
181.02690621223499
 20
190.39712331233201
 30
0.0
 40
1.1297400940950459
  0
CIRCLE
  5
1C64
  8
0
 10
181.0503170799133
 20
199.6025400392007
 30
0.0
 40
0.858093163552602
  0
CIRCLE
  5
1C65
  8
0
 10
181.02690514164121
 20
199.59712240499809
 30
0.0
 40
1.129739023963563
  0
CIRCLE
  5
1C66
  8
0
 10
181.0503170799133
 20
195.00254040278901
 30
0.0
 40
0.858093163552602
  0
CIRCLE
  5
1C67
  8
0
 10
181.02690621223499
 20
194.99712294874371
 30
0.0
 40
1.1297400940950459
  0
ARC
  5
1C72
  8
0
 10
174.4996986521526
 20
195.0010842300282
 30
0.0
 40
10.198894515595081
 50
97.056384412538833
 51
107.2462685797088
  0
ARC
  5
1C73
  8
0
 10
174.4998990537126
 20
194.99984729574371
 30
0.0
 40
10.19984280606957
 50
252.7542063549223
 51
262.94314065283208
  0
LINE
  5
1C74
  8
0
 10
208.99993666905749
 20
188.0000011622906
 30
0.0
 11
195.9999345381915
 21
188.00000116229069
 31
0.0
  0
LINE
  5
1C76
  8
0
 10
195.9999345381915
 20
201.99999973177921
 30
0.0
 11
208.99993666905749
 21
201.9999997317791
 31
0.0
  0
ARC
  5
1C7E
  8
0
 10
196.0353094225963
 20
103.6389791456639
 30
0.0
 40
83.664858430675594
 50
102.1051019389247
 51
103.2506543656168
  0
ARC
  5
1C81
  8
0
 10
195.999804147932
 20
286.19898145773709
 30
0.0
 40
83.498977344486946
 50
256.73727883156403
 51
257.89540270170909
  0
LINE
  5
1C83
  8
0
 10
213.99993562597629
 20
209.0000008791686
 30
0.0
 11
213.99993562597629
 21
172.00000040233141
 31
0.0
  0
LINE
  5
1C85
  8
0
 10
208.99993666905749
 20
172.00000040233141
 30
0.0
 11
208.99993666905749
 21
209.0000008791686
 31
0.0
  0
LINE
  5
1C87
  8
0
 10
241.99993649024361
 20
172.00000040233141
 30
0.0
 11
241.99993649024361
 21
209.0000008791686
 31
0.0
  0
LINE
  5
1C88
  8
0
 10
246.9999354471623
 20
209.0000008791686
 30
0.0
 11
246.9999354471623
 21
172.00000040233141
 31
0.0
  0
LINE
  5
1C89
  8
0
 10
246.9999354471623
 20
172.00000040233141
 30
0.0
 11
208.99993666905749
 21
172.00000040233141
 31
0.0
  0
LINE
  5
1C8A
  8
0
 10
208.99993666905749
 20
209.0000008791686
 30
0.0
 11
246.9999354471623
 21
209.0000008791686
 31
0.0
  0
POLYLINE
  5
1C9C
  8
0
 66
     1
 10
0.0
 20
0.0
 30
0.0
 70
   128
  0
VERTEX
  5
2C86
  8
0
 10
176.5273317833601
 20
185.17816733568921
 30
0.0
  0
VERTEX
  5
2C87
  8
0
 10
176.52024255592221
 20
185.17650213092571
 30
0.0
  0
VERTEX
  5
2C88
  8
0
 10
176.54152886468759
 20
185.18150240182891
 30
0.0
  0
SEQEND
  5
2C89
  8
0
  0
LINE
  5
1CA6
  8
0
 10
426.99993786860102
 20
191.7500013113023
 30
0.0
 11
426.99993786860102
 21
198.2499995827676
 31
0.0
  0
LINE
  5
1CA7
  8
0
 10
414.99993776429289
 20
198.2499995827676
 30
0.0
 11
414.99993776429289
 21
191.7500013113023
 31
0.0
  0
LINE
  5
1CA8
  8
0
 10
428.9999381964268
 20
216.5000011771919
 30
0.0
 11
428.49993764880912
 21
217.00000219047081
 31
0.0
  0
LINE
  5
1CA9
  8
0
 10
413.49993798408519
 20
217.00000219047081
 30
0.0
 11
412.99993743646752
 21
216.5000011771919
 31
0.0
  0
LINE
  5
1CAA
  8
0
 10
428.9999381964268
 20
209.0000008791686
 30
0.0
 11
428.9999381964268
 21
216.5000011771919
 31
0.0
  0
LINE
  5
1CAB
  8
0
 10
412.99993743646752
 20
216.5000011771919
 30
0.0
 11
412.99993743646752
 21
209.0000008791686
 31
0.0
  0
LINE
  5
1CAC
  8
0
 10
410.99186906117791
 20
191.7500013113023
 30
0.0
 11
410.99186906117791
 21
188.5000003129245
 31
0.0
  0
LINE
  5
1CAD
  8
0
 10
410.99186906117791
 20
201.5000005811454
 30
0.0
 11
410.99186906117791
 21
198.2499995827676
 31
0.0
  0
ARC
  5
1CAE
  8
0
 10
411.49186968049662
 20
201.5000001830841
 30
0.0
 40
0.499999548712103
 50
89.999527968231874
 51
180.15043229929589
  0
ARC
  5
1CAF
  8
0
 10
411.4918689499105
 20
188.49999917656419
 30
0.0
 40
0.4999980142969784
 50
180.15589772804429
 51
270.00055575255249
  0
POLYLINE
  5
1CB5
  8
0
 66
     1
 10
0.0
 20
0.0
 30
0.0
 70
   128
  0
VERTEX
  5
2C8A
  8
0
 10
475.31678564178122
 20
204.6903882643889
 30
0.0
  0
VERTEX
  5
2C8B
  8
0
 10
475.30003742772931
 20
204.65000919997701
 30
0.0
  0
VERTEX
  5
2C8C
  8
0
 10
475.25068105656499
 20
204.57974649965769
 30
0.0
  0
VERTEX
  5
2C8D
  8
0
 10
475.1954163749873
 20
204.53369818627851
 30
0.0
  0
VERTEX
  5
2C8E
  8
0
 10
475.14151514965891
 20
204.50609378516691
 30
0.0
  0
VERTEX
  5
2C8F
  8
0
 10
475.0943194468677
 20
204.4920047372581
 30
0.0
  0
VERTEX
  5
2C90
  8
0
 10
475.05747260052561
 20
204.48659189045441
 30
0.0
  0
VERTEX
  5
2C91
  8
0
 10
475.03306449848998
 20
204.48554508388051
 30
0.0
  0
VERTEX
  5
2C92
  8
0
 10
475.02475337583422
 20
204.4856419414283
 30
0.0
  0
VERTEX
  5
2C93
  8
0
 10
475.02170236307973
 20
204.48573507368579
 30
0.0
  0
VERTEX
  5
2C94
  8
0
 10
475.02023087341178
 20
204.48579095304021
 30
0.0
  0
VERTEX
  5
2C95
  8
0
 10
475.01901456204001
 20
204.4858089926673
 30
0.0
  0
VERTEX
  5
2C96
  8
0
 10
475.01901456204001
 20
204.4858089926673
 30
0.0
  0
VERTEX
  5
2C97
  8
0
 10
475.01901456204001
 20
204.4858089926673
 30
0.0
  0
VERTEX
  5
2C98
  8
0
 10
475.01901456204001
 20
204.4858089926673
 30
0.0
  0
SEQEND
  5
2C99
  8
0
  0
ARC
  5
1CB6
  8
0
 10
478.04248083056018
 20
204.13709134194221
 30
0.0
 40
0.2998188930208123
 50
174.38806304792229
 51
248.28172000428509
  0
ARC
  5
1CC1
  8
0
 10
476.49993781644702
 20
204.2870882128349
 30
0.0
 40
1.249999999999996
 50
354.45992170181472
 51
0.0
  0
ARC
  5
1CC2
  8
0
 10
476.49993738278579
 20
204.28708839464531
 30
0.0
 40
1.2499995308710701
 50
145.52200839685301
 51
161.17734272235791
  0
ARC
  5
1CC3
  8
0
 10
476.5016786870321
 20
204.2871665748732
 30
0.0
 40
1.248259131874587
 50
359.99640313941541
 51
10.339486846753431
  0
ARC
  5
1CC6
  8
0
 10
477.43499597006308
 20
204.4549162472712
 30
0.0
 40
0.299999999999996
 50
10.814346221925071
 51
72.754262861967575
  0
ARC
  5
1CC7
  8
0
 10
475.7168464220087
 20
204.82492449596759
 30
0.0
 40
0.3000000000000063
 50
83.065066703203314
 51
145.53387337485429
  0
ARC
  5
1CC9
  8
0
 10
469.95018266430162
 20
204.03005803091889
 30
0.0
 40
0.2999973107153843
 50
282.57848461401409
 51
1.5433072100864671
  0
POLYLINE
  5
1CCB
  8
0
 66
     1
 10
0.0
 20
0.0
 30
0.0
 70
   128
  0
VERTEX
  5
2C9A
  8
0
 10
472.96546438358308
 20
204.37525331054891
 30
0.0
  0
VERTEX
  5
2C9B
  8
0
 10
472.96546438358308
 20
204.37525331054891
 30
0.0
  0
VERTEX
  5
2C9C
  8
0
 10
472.96546438358308
 20
204.37525331054891
 30
0.0
  0
VERTEX
  5
2C9D
  8
0
 10
472.96546438358308
 20
204.37525331054891
 30
0.0
  0
VERTEX
  5
2C9E
  8
0
 10
472.96546438358308
 20
204.37525331054891
 30
0.0
  0
VERTEX
  5
2C9F
  8
0
 10
472.96546438358308
 20
204.37525331054891
 30
0.0
  0
VERTEX
  5
2CA0
  8
0
 10
472.96546438358308
 20
204.37525331054891
 30
0.0
  0
VERTEX
  5
2CA1
  8
0
 10
472.9649733145892
 20
204.37524296343341
 30
0.0
  0
VERTEX
  5
2CA2
  8
0
 10
472.96241031486392
 20
204.374889060855
 30
0.0
  0
VERTEX
  5
2CA3
  8
0
 10
472.95516462523341
 20
204.37401361763489
 30
0.0
  0
VERTEX
  5
2CA4
  8
0
 10
472.8666442771613
 20
204.37756381928929
 30
0.0
  0
VERTEX
  5
2CA5
  8
0
 10
472.80377627808451
 20
204.3968794494869
 30
0.0
  0
VERTEX
  5
2CA6
  8
0
 10
472.72420780259961
 20
204.44739811122429
 30
0.0
  0
VERTEX
  5
2CA7
  8
0
 10
472.6611572642982
 20
204.52547274529951
 30
0.0
  0
VERTEX
  5
2CA8
  8
0
 10
472.64646115772092
 20
204.5554824145828
 30
0.0
  0
SEQEND
  5
2CA9
  8
0
  0
ARC
  5
1CCE
  8
0
 10
471.4943831652364
 20
204.05760819254081
 30
0.0
 40
1.2444643367851651
 50
167.04353509148339
 51
180.8964672125044
  0
ARC
  5
1CCF
  8
0
 10
471.6652254452905
 20
204.1422456451794
 30
0.0
 40
1.064700967847628
 50
22.8378644788332
 51
40.050735835626497
  0
ARC
  5
1CD0
  8
0
 10
470.5724616205863
 20
204.26315977342369
 30
0.0
 40
0.2999953936128723
 50
102.1040569090418
 51
165.8237441207626
  0
ARC
  5
1CD2
  8
0
 10
472.24599776159431
 20
204.64068576743529
 30
0.0
 40
0.2995077217339835
 50
38.551469365382843
 51
105.1267958998842
  0
LINE
  5
1CD6
  8
0
 10
413.49993798408519
 20
217.00000219047081
 30
0.0
 11
428.49993764880912
 21
217.00000219047081
 31
0.0
  0
LINE
  5
1CD7
  8
0
 10
428.9999381964268
 20
216.5000011771919
 30
0.0
 11
412.99993743646752
 21
216.5000011771919
 31
0.0
  0
ARC
  5
1CDE
  8
0
 10
435.10031637626258
 20
210.28599406757519
 30
0.0
 40
18.639149793975161
 50
276.03079426652289
 51
289.81109661710929
  0
LINE
  5
1CDF
  8
0
 10
441.41749957103133
 20
192.74999961256989
 30
0.0
 11
441.41749957103133
 21
188.00000116229069
 31
0.0
  0
LINE
  5
1CE1
  8
0
 10
437.05860072273612
 20
191.7500013113023
 30
0.0
 11
410.99186906117791
 21
191.7500013113023
 31
0.0
  0
ARC
  5
1CE2
  8
0
 10
434.7278865519653
 20
178.09062013659559
 30
0.0
 40
20.293664237898881
 50
70.753045051220298
 51
83.405064065149929
  0
LINE
  5
1CE4
  8
0
 10
441.41749957103133
 20
201.99999973177921
 30
0.0
 11
441.41749957103133
 21
197.2500012815
 31
0.0
  0
LINE
  5
1CE5
  8
0
 10
410.99186906117791
 20
198.24999958276749
 30
0.0
 11
437.05860072273612
 21
198.2499995827676
 31
0.0
  0
POLYLINE
  5
1CEA
  8
0
 66
     1
 10
0.0
 20
0.0
 30
0.0
 70
   128
  0
VERTEX
  5
2CAA
  8
0
 10
478.8696366687476
 20
198.50000008940711
 30
0.0
  0
VERTEX
  5
2CAB
  8
0
 10
478.81823511320943
 20
198.7810210883618
 30
0.0
  0
VERTEX
  5
2CAC
  8
0
 10
478.66372124750012
 20
199.03839208185681
 30
0.0
  0
VERTEX
  5
2CAD
  8
0
 10
478.42112661797398
 20
199.23512838780891
 30
0.0
  0
VERTEX
  5
2CAE
  8
0
 10
478.1222093244254
 20
199.34412665665161
 30
0.0
  0
VERTEX
  5
2CAF
  8
0
 10
477.80692310530537
 20
199.3531791120769
 30
0.0
  0
VERTEX
  5
2CB0
  8
0
 10
477.5146666308105
 20
199.26543548703199
 30
0.0
  0
VERTEX
  5
2CB1
  8
0
 10
477.27670998770589
 20
199.09647867083561
 30
0.0
  0
VERTEX
  5
2CB2
  8
0
 10
477.11121024090642
 20
198.86508785188209
 30
0.0
  0
VERTEX
  5
2CB3
  8
0
 10
477.03215958077311
 20
198.59213024377831
 30
0.0
  0
VERTEX
  5
2CB4
  8
0
 10
477.03283013302678
 20
198.40202122926721
 30
0.0
  0
VERTEX
  5
2CB5
  8
0
 10
477.11650387842047
 20
198.12421329319491
 30
0.0
  0
VERTEX
  5
2CB6
  8
0
 10
477.29672969776982
 20
197.88421705365189
 30
0.0
  0
VERTEX
  5
2CB7
  8
0
 10
477.55553306538462
 20
197.7158004045487
 30
0.0
  0
VERTEX
  5
2CB8
  8
0
 10
477.86084668237561
 20
197.64119029045111
 30
0.0
  0
VERTEX
  5
2CB9
  8
0
 10
478.17372263867247
 20
197.66709595918661
 30
0.0
  0
VERTEX
  5
2CBA
  8
0
 10
478.4559543569743
 20
197.78549313545241
 30
0.0
  0
VERTEX
  5
2CBB
  8
0
 10
478.67760167915219
 20
197.97793976962581
 30
0.0
  0
VERTEX
  5
2CBC
  8
0
 10
478.81961347061991
 20
198.22267085313811
 30
0.0
  0
VERTEX
  5
2CBD
  8
0
 10
478.8696366687476
 20
198.50000008940711
 30
0.0
  0
SEQEND
  5
2CBE
  8
0
  0
CIRCLE
  5
1CEB
  8
0
 10
477.99514905254301
 20
198.49211733612549
 30
0.0
 40
1.1396624150173511
  0
POLYLINE
  5
1CEC
  8
0
 66
     1
 10
0.0
 20
0.0
 30
0.0
 70
   128
  0
VERTEX
  5
2CBF
  8
0
 10
478.8696366687476
 20
191.50000080466279
 30
0.0
  0
VERTEX
  5
2CC0
  8
0
 10
478.81823511320943
 20
191.78102180361759
 30
0.0
  0
VERTEX
  5
2CC1
  8
0
 10
478.66372124750012
 20
192.0383909344674
 30
0.0
  0
VERTEX
  5
2CC2
  8
0
 10
478.42112661797398
 20
192.23512910306459
 30
0.0
  0
VERTEX
  5
2CC3
  8
0
 10
478.1222093244254
 20
192.34412737190729
 30
0.0
  0
VERTEX
  5
2CC4
  8
0
 10
477.80692310530537
 20
192.35317982733261
 30
0.0
  0
VERTEX
  5
2CC5
  8
0
 10
477.5146666308105
 20
192.26543620228779
 30
0.0
  0
VERTEX
  5
2CC6
  8
0
 10
477.27670998770589
 20
192.0964775234462
 30
0.0
  0
VERTEX
  5
2CC7
  8
0
 10
477.11121024090642
 20
191.86508670449271
 30
0.0
  0
VERTEX
  5
2CC8
  8
0
 10
477.03215958077311
 20
191.59213095903411
 30
0.0
  0
VERTEX
  5
2CC9
  8
0
 10
477.03283013302678
 20
191.40202194452289
 30
0.0
  0
VERTEX
  5
2CCA
  8
0
 10
477.11650387842047
 20
191.12421400845059
 30
0.0
  0
VERTEX
  5
2CCB
  8
0
 10
477.29672969776982
 20
190.8842177689076
 30
0.0
  0
VERTEX
  5
2CCC
  8
0
 10
477.55553306538462
 20
190.7158011198045
 30
0.0
  0
VERTEX
  5
2CCD
  8
0
 10
477.86084668237561
 20
190.6411910057069
 30
0.0
  0
VERTEX
  5
2CCE
  8
0
 10
478.17372263867247
 20
190.6670966744424
 30
0.0
  0
VERTEX
  5
2CCF
  8
0
 10
478.4559543569743
 20
190.78549385070809
 30
0.0
  0
VERTEX
  5
2CD0
  8
0
 10
478.67760167915219
 20
190.97793862223631
 30
0.0
  0
VERTEX
  5
2CD1
  8
0
 10
478.81961347061991
 20
191.22267156839379
 30
0.0
  0
VERTEX
  5
2CD2
  8
0
 10
478.8696366687476
 20
191.50000080466279
 30
0.0
  0
SEQEND
  5
2CD3
  8
0
  0
CIRCLE
  5
1CED
  8
0
 10
477.99514903338752
 20
191.49211804804699
 30
0.0
 40
1.139662434195448
  0
POLYLINE
  5
1CF0
  8
0
 66
     1
 10
0.0
 20
0.0
 30
0.0
 70
   128
  0
VERTEX
  5
2CD4
  8
0
 10
476.64487840134501
 20
191.50000080466279
 30
0.0
  0
VERTEX
  5
2CD5
  8
0
 10
476.64682300288081
 20
191.5816126018764
 30
0.0
  0
VERTEX
  5
2CD6
  8
0
 10
476.74135969478482
 20
192.06341184675699
 30
0.0
  0
VERTEX
  5
2CD7
  8
0
 10
476.97012604672312
 20
192.48449817299851
 30
0.0
  0
VERTEX
  5
2CD8
  8
0
 10
477.32053057748669
 20
192.8065457940103
 30
0.0
  0
VERTEX
  5
2CD9
  8
0
 10
477.76370601255292
 20
192.9894780367614
 30
0.0
  0
VERTEX
  5
2CDA
  8
0
 10
478.24867547947758
 20
193.00748609006411
 30
0.0
  0
VERTEX
  5
2CDB
  8
0
 10
478.71807323295468
 20
192.85823605954661
 30
0.0
  0
VERTEX
  5
2CDC
  8
0
 10
479.1191044588744
 20
192.5556903332473
 30
0.0
  0
VERTEX
  5
2CDD
  8
0
 10
479.40207378465527
 20
192.1307297050954
 30
0.0
  0
VERTEX
  5
2CDE
  8
0
 10
479.52322767574191
 20
191.69945843517789
 30
0.0
  0
VERTEX
  5
2CDF
  8
0
 10
479.50770439106822
 20
191.20438784360891
 30
0.0
  0
VERTEX
  5
2CE0
  8
0
 10
479.33845700222849
 20
190.74269957840451
 30
0.0
  0
VERTEX
  5
2CE1
  8
0
 10
479.0328863402068
 20
190.35995393991479
 30
0.0
  0
VERTEX
  5
2CE2
  8
0
 10
478.61685709554553
 20
190.0942252576352
 30
0.0
  0
VERTEX
  5
2CE3
  8
0
 10
478.13853727180361
 20
189.9817233532668
 30
0.0
  0
VERTEX
  5
2CE4
  8
0
 10
477.65851126510501
 20
190.03776848316201
 30
0.0
  0
VERTEX
  5
2CE5
  8
0
 10
477.23025189239382
 20
190.25659762322911
 30
0.0
  0
VERTEX
  5
2CE6
  8
0
 10
476.89777718383669
 20
190.61789490282541
 30
0.0
  0
VERTEX
  5
2CE7
  8
0
 10
476.69743107158541
 20
191.08034126460561
 30
0.0
  0
VERTEX
  5
2CE8
  8
0
 10
476.64487840134501
 20
191.50000080466279
 30
0.0
  0
SEQEND
  5
2CE9
  8
0
  0
POLYLINE
  5
1CF1
  8
0
 66
     1
 10
0.0
 20
0.0
 30
0.0
 70
   128
  0
VERTEX
  5
2CEA
  8
0
 10
476.64487840134501
 20
198.50000008940711
 30
0.0
  0
VERTEX
  5
2CEB
  8
0
 10
476.64682300288081
 20
198.58161374926581
 30
0.0
  0
VERTEX
  5
2CEC
  8
0
 10
476.74135969478482
 20
199.06341113150131
 30
0.0
  0
VERTEX
  5
2CED
  8
0
 10
476.97012604672312
 20
199.4844974577428
 30
0.0
  0
VERTEX
  5
2CEE
  8
0
 10
477.32053057748669
 20
199.80654694139969
 30
0.0
  0
VERTEX
  5
2CEF
  8
0
 10
477.76370601255292
 20
199.9894773215056
 30
0.0
  0
VERTEX
  5
2CF0
  8
0
 10
478.24867547947758
 20
200.0074853748084
 30
0.0
  0
VERTEX
  5
2CF1
  8
0
 10
478.71807323295468
 20
199.858237206936
 30
0.0
  0
VERTEX
  5
2CF2
  8
0
 10
479.1191044588744
 20
199.5556896179915
 30
0.0
  0
VERTEX
  5
2CF3
  8
0
 10
479.40207378465527
 20
199.13072898983961
 30
0.0
  0
VERTEX
  5
2CF4
  8
0
 10
479.52322767574191
 20
198.6994595825673
 30
0.0
  0
VERTEX
  5
2CF5
  8
0
 10
479.50770439106822
 20
198.2043871283532
 30
0.0
  0
VERTEX
  5
2CF6
  8
0
 10
479.33845700222849
 20
197.7427007257939
 30
0.0
  0
VERTEX
  5
2CF7
  8
0
 10
479.0328863402068
 20
197.35995322465911
 30
0.0
  0
VERTEX
  5
2CF8
  8
0
 10
478.61685709554553
 20
197.09422640502461
 30
0.0
  0
VERTEX
  5
2CF9
  8
0
 10
478.13853727180361
 20
196.98172263801109
 30
0.0
  0
VERTEX
  5
2CFA
  8
0
 10
477.65851126510501
 20
197.0377696305514
 30
0.0
  0
VERTEX
  5
2CFB
  8
0
 10
477.23025189239382
 20
197.2565969079734
 30
0.0
  0
VERTEX
  5
2CFC
  8
0
 10
476.89777718383669
 20
197.61789605021491
 30
0.0
  0
VERTEX
  5
2CFD
  8
0
 10
476.69743107158541
 20
198.08034241199499
 30
0.0
  0
VERTEX
  5
2CFE
  8
0
 10
476.64487840134501
 20
198.50000008940711
 30
0.0
  0
SEQEND
  5
2CFF
  8
0
  0
ARC
  5
1CF5
  8
0
 10
474.49947934567427
 20
195.0000013783575
 30
0.0
 40
9.5001569229989311
 50
290.00381600924669
 51
69.996183990753295
  0
LINE
  5
1CF9
  8
0
 10
476.41962127286791
 20
204.30402286350741
 30
0.0
 11
477.74931894142031
 21
203.92701230943209
 31
0.0
  0
POLYLINE
  5
1CFD
  8
0
 66
     1
 10
0.0
 20
0.0
 30
0.0
 70
   128
  0
VERTEX
  5
2D00
  8
0
 10
474.44632755119198
 20
189.5000004768373
 30
0.0
  0
VERTEX
  5
2D01
  8
0
 10
474.43655984002942
 20
189.3181392550469
 30
0.0
  0
VERTEX
  5
2D02
  8
0
 10
474.304498298949
 20
188.8247692584992
 30
0.0
  0
VERTEX
  5
2D03
  8
0
 10
474.03030575711131
 20
188.408553749323
 30
0.0
  0
VERTEX
  5
2D04
  8
0
 10
473.6438702185809
 20
188.1183443218471
 30
0.0
  0
VERTEX
  5
2D05
  8
0
 10
473.18933637339472
 20
187.9860443621875
 30
0.0
  0
VERTEX
  5
2D06
  8
0
 10
472.71794931489819
 20
188.0228446424008
 30
0.0
  0
VERTEX
  5
2D07
  8
0
 10
472.28059278327822
 20
188.22178632020959
 30
0.0
  0
VERTEX
  5
2D08
  8
0
 10
471.9246077676475
 20
188.56189601123339
 30
0.0
  0
VERTEX
  5
2D09
  8
0
 10
471.69188888270247
 20
189.00875762104999
 30
0.0
  0
VERTEX
  5
2D0A
  8
0
 10
471.62202106315488
 20
189.33465532958519
 30
0.0
  0
VERTEX
  5
2D0B
  8
0
 10
471.65219591457242
 20
189.84786435961729
 30
0.0
  0
VERTEX
  5
2D0C
  8
0
 10
471.84538946945071
 20
190.32186098396789
 30
0.0
  0
VERTEX
  5
2D0D
  8
0
 10
472.17778222162121
 20
190.70172697305691
 30
0.0
  0
VERTEX
  5
2D0E
  8
0
 10
472.60635824400782
 20
190.9430345147849
 30
0.0
  0
VERTEX
  5
2D0F
  8
0
 10
473.0773578723132
 20
191.02052241563811
 30
0.0
  0
VERTEX
  5
2D10
  8
0
 10
473.5369581123054
 20
190.92942789196979
 30
0.0
  0
VERTEX
  5
2D11
  8
0
 10
473.93801541525721
 20
190.68158991634851
 30
0.0
  0
VERTEX
  5
2D12
  8
0
 10
474.24087034065121
 20
190.30225664377221
 30
0.0
  0
VERTEX
  5
2D13
  8
0
 10
474.41379831630582
 20
189.83042627573019
 30
0.0
  0
VERTEX
  5
2D14
  8
0
 10
474.44632755119198
 20
189.5000004768373
 30
0.0
  0
SEQEND
  5
2D15
  8
0
  0
POLYLINE
  5
1CFE
  8
0
 66
     1
 10
0.0
 20
0.0
 30
0.0
 70
   128
  0
VERTEX
  5
2D16
  8
0
 10
474.44632755119198
 20
195.00000044703489
 30
0.0
  0
VERTEX
  5
2D17
  8
0
 10
474.43655984002942
 20
194.81813922524461
 30
0.0
  0
VERTEX
  5
2D18
  8
0
 10
474.304498298949
 20
194.32476922869691
 30
0.0
  0
VERTEX
  5
2D19
  8
0
 10
474.03030575711131
 20
193.90855371952071
 30
0.0
  0
VERTEX
  5
2D1A
  8
0
 10
473.6438702185809
 20
193.6183442920447
 30
0.0
  0
VERTEX
  5
2D1B
  8
0
 10
473.18933637339472
 20
193.48604433238521
 30
0.0
  0
VERTEX
  5
2D1C
  8
0
 10
472.71794931489819
 20
193.5228446125985
 30
0.0
  0
VERTEX
  5
2D1D
  8
0
 10
472.28059278327822
 20
193.72178629040729
 30
0.0
  0
VERTEX
  5
2D1E
  8
0
 10
471.9246077676475
 20
194.06189598143109
 30
0.0
  0
VERTEX
  5
2D1F
  8
0
 10
471.69188888270247
 20
194.5087575912477
 30
0.0
  0
VERTEX
  5
2D20
  8
0
 10
471.62202106315488
 20
194.83465529978281
 30
0.0
  0
VERTEX
  5
2D21
  8
0
 10
471.65219591457242
 20
195.347864329815
 30
0.0
  0
VERTEX
  5
2D22
  8
0
 10
471.84538946945071
 20
195.8218609541656
 30
0.0
  0
VERTEX
  5
2D23
  8
0
 10
472.17778222162121
 20
196.20172694325461
 30
0.0
  0
VERTEX
  5
2D24
  8
0
 10
472.60635824400782
 20
196.4430344849826
 30
0.0
  0
VERTEX
  5
2D25
  8
0
 10
473.0773578723132
 20
196.5205223858357
 30
0.0
  0
VERTEX
  5
2D26
  8
0
 10
473.5369581123054
 20
196.4294278621675
 30
0.0
  0
VERTEX
  5
2D27
  8
0
 10
473.93801541525721
 20
196.18158988654619
 30
0.0
  0
VERTEX
  5
2D28
  8
0
 10
474.24087034065121
 20
195.80225661396989
 30
0.0
  0
VERTEX
  5
2D29
  8
0
 10
474.41379831630582
 20
195.3304262459279
 30
0.0
  0
VERTEX
  5
2D2A
  8
0
 10
474.44632755119198
 20
195.00000044703489
 30
0.0
  0
SEQEND
  5
2D2B
  8
0
  0
ARC
  5
1CFF
  8
0
 10
468.04555883199532
 20
191.49999987334019
 30
0.0
 40
1.521751137796419
 50
192.96416634123381
 51
167.03583365876611
  0
ARC
  5
1D01
  8
0
 10
468.04555883199532
 20
198.5000010207296
 30
0.0
 40
1.521751137796419
 50
192.96416634123381
 51
167.03583365876611
  0
POLYLINE
  5
1D0A
  8
0
 66
     1
 10
0.0
 20
0.0
 30
0.0
 70
   128
  0
VERTEX
  5
2D2C
  8
0
 10
474.44632755119198
 20
200.5000004172326
 30
0.0
  0
VERTEX
  5
2D2D
  8
0
 10
474.43655984002942
 20
200.31813919544231
 30
0.0
  0
VERTEX
  5
2D2E
  8
0
 10
474.304498298949
 20
199.82476919889459
 30
0.0
  0
VERTEX
  5
2D2F
  8
0
 10
474.03030575711131
 20
199.4085536897183
 30
0.0
  0
VERTEX
  5
2D30
  8
0
 10
473.6438702185809
 20
199.1183442622424
 30
0.0
  0
VERTEX
  5
2D31
  8
0
 10
473.18933637339472
 20
198.9860443025828
 30
0.0
  0
VERTEX
  5
2D32
  8
0
 10
472.71794931489819
 20
199.02284458279621
 30
0.0
  0
VERTEX
  5
2D33
  8
0
 10
472.28059278327822
 20
199.221786260605
 30
0.0
  0
VERTEX
  5
2D34
  8
0
 10
471.9246077676475
 20
199.5618959516288
 30
0.0
  0
VERTEX
  5
2D35
  8
0
 10
471.69188888270247
 20
200.00875756144541
 30
0.0
  0
VERTEX
  5
2D36
  8
0
 10
471.62202106315488
 20
200.33465526998049
 30
0.0
  0
VERTEX
  5
2D37
  8
0
 10
471.65219591457242
 20
200.8478643000127
 30
0.0
  0
VERTEX
  5
2D38
  8
0
 10
471.84538946945071
 20
201.32186092436331
 30
0.0
  0
VERTEX
  5
2D39
  8
0
 10
472.17778222162121
 20
201.70172691345229
 30
0.0
  0
VERTEX
  5
2D3A
  8
0
 10
472.60635824400782
 20
201.94303445518031
 30
0.0
  0
VERTEX
  5
2D3B
  8
0
 10
473.0773578723132
 20
202.02052235603341
 30
0.0
  0
VERTEX
  5
2D3C
  8
0
 10
473.5369581123054
 20
201.92942783236521
 30
0.0
  0
VERTEX
  5
2D3D
  8
0
 10
473.93801541525721
 20
201.6815898567439
 30
0.0
  0
VERTEX
  5
2D3E
  8
0
 10
474.24087034065121
 20
201.30225658416759
 30
0.0
  0
VERTEX
  5
2D3F
  8
0
 10
474.41379831630582
 20
200.8304262161256
 30
0.0
  0
VERTEX
  5
2D40
  8
0
 10
474.44632755119198
 20
200.5000004172326
 30
0.0
  0
SEQEND
  5
2D41
  8
0
  0
POLYLINE
  5
1D0B
  8
0
 66
     1
 10
0.0
 20
0.0
 30
0.0
 70
   128
  0
VERTEX
  5
2D42
  8
0
 10
473.55314077336192
 20
195.00000044703489
 30
0.0
  0
VERTEX
  5
2D43
  8
0
 10
473.51047129828328
 20
195.28538376092919
 30
0.0
  0
VERTEX
  5
2D44
  8
0
 10
473.38794650036692
 20
195.53715564310559
 30
0.0
  0
VERTEX
  5
2D45
  8
0
 10
473.20000560480952
 20
195.7279165834189
 30
0.0
  0
VERTEX
  5
2D46
  8
0
 10
472.96630324322581
 20
195.8385483920575
 30
0.0
  0
VERTEX
  5
2D47
  8
0
 10
472.7103273709476
 20
195.85722886025911
 30
0.0
  0
VERTEX
  5
2D48
  8
0
 10
472.4591459472835
 20
195.78005202114591
 30
0.0
  0
VERTEX
  5
2D49
  8
0
 10
472.24210680920481
 20
195.6132391095162
 30
0.0
  0
VERTEX
  5
2D4A
  8
0
 10
472.08703787524098
 20
195.37566244602209
 30
0.0
  0
VERTEX
  5
2D4B
  8
0
 10
472.01314674217099
 20
195.0958503037692
 30
0.0
  0
VERTEX
  5
2D4C
  8
0
 10
472.01270715791583
 20
194.90853711962711
 30
0.0
  0
VERTEX
  5
2D4D
  8
0
 10
472.08459781009549
 20
194.6299021691085
 30
0.0
  0
VERTEX
  5
2D4E
  8
0
 10
472.23471210796231
 20
194.39489409327521
 30
0.0
  0
VERTEX
  5
2D4F
  8
0
 10
472.44451300699109
 20
194.22774776816379
 30
0.0
  0
VERTEX
  5
2D50
  8
0
 10
472.6909297843635
 20
194.14524935185921
 30
0.0
  0
VERTEX
  5
2D51
  8
0
 10
472.94803814489239
 20
194.1568741202355
 30
0.0
  0
VERTEX
  5
2D52
  8
0
 10
473.18790213662982
 20
194.26360927522191
 30
0.0
  0
VERTEX
  5
2D53
  8
0
 10
473.382768346852
 20
194.45555672049531
 30
0.0
  0
VERTEX
  5
2D54
  8
0
 10
473.5093499859035
 20
194.71101291477689
 30
0.0
  0
VERTEX
  5
2D55
  8
0
 10
473.55314077336192
 20
195.00000044703489
 30
0.0
  0
SEQEND
  5
2D56
  8
0
  0
POLYLINE
  5
1D0C
  8
0
 66
     1
 10
0.0
 20
0.0
 30
0.0
 70
   128
  0
VERTEX
  5
2D57
  8
0
 10
473.87933464247578
 20
195.00000044703489
 30
0.0
  0
VERTEX
  5
2D58
  8
0
 10
473.87933464247578
 20
194.99887727200991
 30
0.0
  0
VERTEX
  5
2D59
  8
0
 10
473.82065759498471
 20
194.61975447833549
 30
0.0
  0
VERTEX
  5
2D5A
  8
0
 10
473.6510339518249
 20
194.2836271226407
 30
0.0
  0
VERTEX
  5
2D5B
  8
0
 10
473.38990972835421
 20
194.0310636162759
 30
0.0
  0
VERTEX
  5
2D5C
  8
0
 10
473.06849540669322
 20
193.89062389731421
 30
0.0
  0
VERTEX
  5
2D5D
  8
0
 10
472.72396565873021
 20
193.8753278553487
 30
0.0
  0
VERTEX
  5
2D5E
  8
0
 10
472.3937671025455
 20
193.9838772267104
 30
0.0
  0
VERTEX
  5
2D5F
  8
0
 10
472.11263061959141
 20
194.2038071900607
 30
0.0
  0
VERTEX
  5
2D60
  8
0
 10
471.91147984463572
 20
194.51303049922001
 30
0.0
  0
VERTEX
  5
2D61
  8
0
 10
471.8151438375175
 20
194.87965308129799
 30
0.0
  0
VERTEX
  5
2D62
  8
0
 10
471.8157324333846
 20
195.12612015008941
 30
0.0
  0
VERTEX
  5
2D63
  8
0
 10
471.91475064951771
 20
195.49429245293149
 30
0.0
  0
VERTEX
  5
2D64
  8
0
 10
472.12253989178532
 20
195.8068946003915
 30
0.0
  0
VERTEX
  5
2D65
  8
0
 10
472.4133770306766
 20
196.0263831168414
 30
0.0
  0
VERTEX
  5
2D66
  8
0
 10
472.74996073443288
 20
196.1279326677323
 30
0.0
  0
VERTEX
  5
2D67
  8
0
 10
473.09297056395411
 20
196.1033532023431
 30
0.0
  0
VERTEX
  5
2D68
  8
0
 10
473.40613336760401
 20
195.9577856212855
 30
0.0
  0
VERTEX
  5
2D69
  8
0
 10
473.65797416765088
 20
195.70678487420091
 30
0.0
  0
VERTEX
  5
2D6A
  8
0
 10
473.82215516168469
 20
195.37550412118441
 30
0.0
  0
VERTEX
  5
2D6B
  8
0
 10
473.87933464247578
 20
195.00000044703489
 30
0.0
  0
SEQEND
  5
2D6C
  8
0
  0
POLYLINE
  5
1D0D
  8
0
 66
     1
 10
0.0
 20
0.0
 30
0.0
 70
   128
  0
VERTEX
  5
2D6D
  8
0
 10
473.55314077336192
 20
189.5000004768373
 30
0.0
  0
VERTEX
  5
2D6E
  8
0
 10
473.51047129828328
 20
189.78538379073149
 30
0.0
  0
VERTEX
  5
2D6F
  8
0
 10
473.38794650036692
 20
190.03715567290789
 30
0.0
  0
VERTEX
  5
2D70
  8
0
 10
473.20000560480952
 20
190.22791661322131
 30
0.0
  0
VERTEX
  5
2D71
  8
0
 10
472.96630324322581
 20
190.3385484218598
 30
0.0
  0
VERTEX
  5
2D72
  8
0
 10
472.7103273709476
 20
190.35722889006149
 30
0.0
  0
VERTEX
  5
2D73
  8
0
 10
472.4591459472835
 20
190.2800520509482
 30
0.0
  0
VERTEX
  5
2D74
  8
0
 10
472.24210680920481
 20
190.11323913931861
 30
0.0
  0
VERTEX
  5
2D75
  8
0
 10
472.08703787524098
 20
189.87566247582441
 30
0.0
  0
VERTEX
  5
2D76
  8
0
 10
472.01314674217099
 20
189.59585033357149
 30
0.0
  0
VERTEX
  5
2D77
  8
0
 10
472.01270715791583
 20
189.40853714942941
 30
0.0
  0
VERTEX
  5
2D78
  8
0
 10
472.08459781009549
 20
189.1299021989108
 30
0.0
  0
VERTEX
  5
2D79
  8
0
 10
472.23471210796231
 20
188.89489412307751
 30
0.0
  0
VERTEX
  5
2D7A
  8
0
 10
472.44451300699109
 20
188.72774779796609
 30
0.0
  0
VERTEX
  5
2D7B
  8
0
 10
472.6909297843635
 20
188.6452493816615
 30
0.0
  0
VERTEX
  5
2D7C
  8
0
 10
472.94803814489239
 20
188.65687415003791
 30
0.0
  0
VERTEX
  5
2D7D
  8
0
 10
473.18790213662982
 20
188.7636093050242
 30
0.0
  0
VERTEX
  5
2D7E
  8
0
 10
473.382768346852
 20
188.9555567502976
 30
0.0
  0
VERTEX
  5
2D7F
  8
0
 10
473.5093499859035
 20
189.21101294457921
 30
0.0
  0
VERTEX
  5
2D80
  8
0
 10
473.55314077336192
 20
189.5000004768373
 30
0.0
  0
SEQEND
  5
2D81
  8
0
  0
POLYLINE
  5
1D0E
  8
0
 66
     1
 10
0.0
 20
0.0
 30
0.0
 70
   128
  0
VERTEX
  5
2D82
  8
0
 10
473.87933464247578
 20
189.5000004768373
 30
0.0
  0
VERTEX
  5
2D83
  8
0
 10
473.87933464247578
 20
189.49887730181231
 30
0.0
  0
VERTEX
  5
2D84
  8
0
 10
473.82065759498471
 20
189.11975450813779
 30
0.0
  0
VERTEX
  5
2D85
  8
0
 10
473.6510339518249
 20
188.78362715244299
 30
0.0
  0
VERTEX
  5
2D86
  8
0
 10
473.38990972835421
 20
188.5310636460782
 30
0.0
  0
VERTEX
  5
2D87
  8
0
 10
473.06849540669322
 20
188.39062392711651
 30
0.0
  0
VERTEX
  5
2D88
  8
0
 10
472.72396565873021
 20
188.37532788515099
 30
0.0
  0
VERTEX
  5
2D89
  8
0
 10
472.3937671025455
 20
188.4838772565127
 30
0.0
  0
VERTEX
  5
2D8A
  8
0
 10
472.11263061959141
 20
188.70380721986299
 30
0.0
  0
VERTEX
  5
2D8B
  8
0
 10
471.91147984463572
 20
189.0130305290223
 30
0.0
  0
VERTEX
  5
2D8C
  8
0
 10
471.8151438375175
 20
189.37965311110031
 30
0.0
  0
VERTEX
  5
2D8D
  8
0
 10
471.8157324333846
 20
189.6261201798917
 30
0.0
  0
VERTEX
  5
2D8E
  8
0
 10
471.91475064951771
 20
189.99429248273381
 30
0.0
  0
VERTEX
  5
2D8F
  8
0
 10
472.12253989178532
 20
190.3068946301938
 30
0.0
  0
VERTEX
  5
2D90
  8
0
 10
472.4133770306766
 20
190.5263831466437
 30
0.0
  0
VERTEX
  5
2D91
  8
0
 10
472.74996073443288
 20
190.6279326975347
 30
0.0
  0
VERTEX
  5
2D92
  8
0
 10
473.09297056395411
 20
190.60335323214539
 30
0.0
  0
VERTEX
  5
2D93
  8
0
 10
473.40613336760401
 20
190.4577856510879
 30
0.0
  0
VERTEX
  5
2D94
  8
0
 10
473.65797416765088
 20
190.2067849040032
 30
0.0
  0
VERTEX
  5
2D95
  8
0
 10
473.82215516168469
 20
189.87550415098681
 30
0.0
  0
VERTEX
  5
2D96
  8
0
 10
473.87933464247578
 20
189.5000004768373
 30
0.0
  0
SEQEND
  5
2D97
  8
0
  0
POLYLINE
  5
1D0F
  8
0
 66
     1
 10
0.0
 20
0.0
 30
0.0
 70
   128
  0
VERTEX
  5
2D98
  8
0
 10
473.55314077336192
 20
200.5000004172326
 30
0.0
  0
VERTEX
  5
2D99
  8
0
 10
473.51047129828328
 20
200.7853837311269
 30
0.0
  0
VERTEX
  5
2D9A
  8
0
 10
473.38794650036692
 20
201.0371556133033
 30
0.0
  0
VERTEX
  5
2D9B
  8
0
 10
473.20000560480952
 20
201.22791655361661
 30
0.0
  0
VERTEX
  5
2D9C
  8
0
 10
472.96630324322581
 20
201.33854836225521
 30
0.0
  0
VERTEX
  5
2D9D
  8
0
 10
472.7103273709476
 20
201.3572288304569
 30
0.0
  0
VERTEX
  5
2D9E
  8
0
 10
472.4591459472835
 20
201.28005199134361
 30
0.0
  0
VERTEX
  5
2D9F
  8
0
 10
472.24210680920481
 20
201.11323907971391
 30
0.0
  0
VERTEX
  5
2DA0
  8
0
 10
472.08703787524098
 20
200.8756624162198
 30
0.0
  0
VERTEX
  5
2DA1
  8
0
 10
472.01314674217099
 20
200.5958502739669
 30
0.0
  0
VERTEX
  5
2DA2
  8
0
 10
472.01270715791583
 20
200.40853708982479
 30
0.0
  0
VERTEX
  5
2DA3
  8
0
 10
472.08459781009549
 20
200.1299040019513
 30
0.0
  0
VERTEX
  5
2DA4
  8
0
 10
472.23471210796231
 20
199.8948940634728
 30
0.0
  0
VERTEX
  5
2DA5
  8
0
 10
472.44451300699109
 20
199.7277477383615
 30
0.0
  0
VERTEX
  5
2DA6
  8
0
 10
472.6909297843635
 20
199.64524932205691
 30
0.0
  0
VERTEX
  5
2DA7
  8
0
 10
472.94803814489239
 20
199.65687409043321
 30
0.0
  0
VERTEX
  5
2DA8
  8
0
 10
473.18790213662982
 20
199.76360924541959
 30
0.0
  0
VERTEX
  5
2DA9
  8
0
 10
473.382768346852
 20
199.95555669069299
 30
0.0
  0
VERTEX
  5
2DAA
  8
0
 10
473.5093499859035
 20
200.21101288497459
 30
0.0
  0
VERTEX
  5
2DAB
  8
0
 10
473.55314077336192
 20
200.5000004172326
 30
0.0
  0
SEQEND
  5
2DAC
  8
0
  0
POLYLINE
  5
1D10
  8
0
 66
     1
 10
0.0
 20
0.0
 30
0.0
 70
   128
  0
VERTEX
  5
2DAD
  8
0
 10
473.87933464247578
 20
200.5000004172326
 30
0.0
  0
VERTEX
  5
2DAE
  8
0
 10
473.87933464247578
 20
200.49887724220761
 30
0.0
  0
VERTEX
  5
2DAF
  8
0
 10
473.82065759498471
 20
200.1197544485332
 30
0.0
  0
VERTEX
  5
2DB0
  8
0
 10
473.6510339518249
 20
199.7836270928384
 30
0.0
  0
VERTEX
  5
2DB1
  8
0
 10
473.38990972835421
 20
199.5310654491187
 30
0.0
  0
VERTEX
  5
2DB2
  8
0
 10
473.06849540669322
 20
199.39062386751181
 30
0.0
  0
VERTEX
  5
2DB3
  8
0
 10
472.72396565873021
 20
199.37532782554641
 30
0.0
  0
VERTEX
  5
2DB4
  8
0
 10
472.3937671025455
 20
199.48387719690811
 30
0.0
  0
VERTEX
  5
2DB5
  8
0
 10
472.11263061959141
 20
199.70380716025841
 30
0.0
  0
VERTEX
  5
2DB6
  8
0
 10
471.91147984463572
 20
200.01303046941771
 30
0.0
  0
VERTEX
  5
2DB7
  8
0
 10
471.8151438375175
 20
200.37965305149569
 30
0.0
  0
VERTEX
  5
2DB8
  8
0
 10
471.8157324333846
 20
200.62612012028711
 30
0.0
  0
VERTEX
  5
2DB9
  8
0
 10
471.91475064951771
 20
200.9942924231292
 30
0.0
  0
VERTEX
  5
2DBA
  8
0
 10
472.12253989178532
 20
201.30689457058921
 30
0.0
  0
VERTEX
  5
2DBB
  8
0
 10
472.4133770306766
 20
201.52638308703911
 30
0.0
  0
VERTEX
  5
2DBC
  8
0
 10
472.74996073443288
 20
201.62793263793
 30
0.0
  0
VERTEX
  5
2DBD
  8
0
 10
473.09297056395411
 20
201.60335317254081
 30
0.0
  0
VERTEX
  5
2DBE
  8
0
 10
473.40613336760401
 20
201.4577855914832
 30
0.0
  0
VERTEX
  5
2DBF
  8
0
 10
473.65797416765088
 20
201.20678484439861
 30
0.0
  0
VERTEX
  5
2DC0
  8
0
 10
473.82215516168469
 20
200.87550409138211
 30
0.0
  0
VERTEX
  5
2DC1
  8
0
 10
473.87933464247578
 20
200.5000004172326
 30
0.0
  0
SEQEND
  5
2DC2
  8
0
  0
POLYLINE
  5
1D18
  8
0
 66
     1
 10
0.0
 20
0.0
 30
0.0
 70
   128
  0
VERTEX
  5
2DC3
  8
0
 10
475.50506622988581
 20
204.44667913019671
 30
0.0
  0
VERTEX
  5
2DC4
  8
0
 10
475.99883110720509
 20
204.38122577965271
 30
0.0
  0
VERTEX
  5
2DC5
  8
0
 10
476.41962127286791
 20
204.30402286350741
 30
0.0
  0
SEQEND
  5
2DC6
  8
0
  0
ARC
  5
1D1E
  8
0
 10
474.49994905647731
 20
194.99992490718651
 30
0.0
 40
9.5000750461374146
 50
83.926684068102546
 51
103.2650023191091
  0
ARC
  5
1D1F
  8
0
 10
452.98757819735067
 20
103.7374106467301
 30
0.0
 40
84.263755110179488
 50
76.73655727199916
 51
80.945896356155615
  0
ARC
  5
1D22
  8
0
 10
452.98744088022647
 20
286.26334921777141
 30
0.0
 40
84.264527152888618
 50
279.05411453848552
 51
283.26341491613113
  0
ARC
  5
1D28
  8
0
 10
429.99993781644702
 20
197.25000040233141
 30
0.0
 40
1.0
 50
0.0
 51
90.0
  0
ARC
  5
1D29
  8
0
 10
429.99993781644702
 20
192.75000040233149
 30
0.0
 40
1.0
 50
270.0000000000008
 51
0.0
  0
POLYLINE
  5
1D2B
  8
0
 66
     1
 10
0.0
 20
0.0
 30
0.0
 70
   128
  0
VERTEX
  5
2DC7
  8
0
 10
468.8254754384219
 20
198.50000008940711
 30
0.0
  0
VERTEX
  5
2DC8
  8
0
 10
468.8057537515819
 20
198.68690907955181
 30
0.0
  0
VERTEX
  5
2DC9
  8
0
 10
468.7012407322585
 20
198.95380936563021
 30
0.0
  0
VERTEX
  5
2DCA
  8
0
 10
468.7009985883891
 20
198.95421728491789
 30
0.0
  0
VERTEX
  5
2DCB
  8
0
 10
468.51882816750401
 20
199.16903614997869
 30
0.0
  0
VERTEX
  5
2DCC
  8
0
 10
468.27967570621371
 20
199.30961370468151
 30
0.0
  0
VERTEX
  5
2DCD
  8
0
 10
468.00827340680951
 20
199.36157219111931
 30
0.0
  0
VERTEX
  5
2DCE
  8
0
 10
467.73285524446362
 20
199.31802913546571
 30
0.0
  0
VERTEX
  5
2DCF
  8
0
 10
467.48425544697642
 20
199.18134450912481
 30
0.0
  0
VERTEX
  5
2DD0
  8
0
 10
467.29265631634593
 20
198.96539129316821
 30
0.0
  0
VERTEX
  5
2DD1
  8
0
 10
467.18215675551289
 20
198.69579762220391
 30
0.0
  0
VERTEX
  5
2DD2
  8
0
 10
467.16548235613698
 20
198.40415023267281
 30
0.0
  0
VERTEX
  5
2DD3
  8
0
 10
467.20414714414471
 20
198.22454839944851
 30
0.0
  0
VERTEX
  5
2DD4
  8
0
 10
467.33627201516032
 20
197.97102376818671
 30
0.0
  0
VERTEX
  5
2DD5
  8
0
 10
467.54012735087269
 20
197.77767747640621
 30
0.0
  0
VERTEX
  5
2DD6
  8
0
 10
467.7932198484599
 20
197.66389966011059
 30
0.0
  0
VERTEX
  5
2DD7
  8
0
 10
468.06928993660802
 20
197.6417732983829
 30
0.0
  0
VERTEX
  5
2DD8
  8
0
 10
468.33901213008761
 20
197.7155247330667
 30
0.0
  0
VERTEX
  5
2DD9
  8
0
 10
468.57151122290492
 20
197.87934251129639
 30
0.0
  0
VERTEX
  5
2DDA
  8
0
 10
468.73844893175948
 20
198.1155724823476
 30
0.0
  0
VERTEX
  5
2DDB
  8
0
 10
468.8194292922675
 20
198.39607566595089
 30
0.0
  0
VERTEX
  5
2DDC
  8
0
 10
468.8254754384219
 20
198.50000008940711
 30
0.0
  0
SEQEND
  5
2DDD
  8
0
  0
POLYLINE
  5
1D2C
  8
0
 66
     1
 10
0.0
 20
0.0
 30
0.0
 70
   128
  0
VERTEX
  5
2DDE
  8
0
 10
468.8254754384219
 20
191.50000080466279
 30
0.0
  0
VERTEX
  5
2DDF
  8
0
 10
468.8057537515819
 20
191.68690979480749
 30
0.0
  0
VERTEX
  5
2DE0
  8
0
 10
468.7012407322585
 20
191.953810080886
 30
0.0
  0
VERTEX
  5
2DE1
  8
0
 10
468.7009985883891
 20
191.9542161375285
 30
0.0
  0
VERTEX
  5
2DE2
  8
0
 10
468.51882816750401
 20
192.16903500258931
 30
0.0
  0
VERTEX
  5
2DE3
  8
0
 10
468.27967570621371
 20
192.3096125572921
 30
0.0
  0
VERTEX
  5
2DE4
  8
0
 10
468.00827340680951
 20
192.3615710437299
 30
0.0
  0
VERTEX
  5
2DE5
  8
0
 10
467.73285524446362
 20
192.3180279880763
 30
0.0
  0
VERTEX
  5
2DE6
  8
0
 10
467.48425544697642
 20
192.1813433617354
 30
0.0
  0
VERTEX
  5
2DE7
  8
0
 10
467.29265631634593
 20
191.96539014577871
 30
0.0
  0
VERTEX
  5
2DE8
  8
0
 10
467.18215675551289
 20
191.6957964748145
 30
0.0
  0
VERTEX
  5
2DE9
  8
0
 10
467.16548235613698
 20
191.40414908528339
 30
0.0
  0
VERTEX
  5
2DEA
  8
0
 10
467.20414714414471
 20
191.2245472520591
 30
0.0
  0
VERTEX
  5
2DEB
  8
0
 10
467.33627201516032
 20
190.97102262079721
 30
0.0
  0
VERTEX
  5
2DEC
  8
0
 10
467.54012735087269
 20
190.77767819166189
 30
0.0
  0
VERTEX
  5
2DED
  8
0
 10
467.7932198484599
 20
190.6639003753663
 30
0.0
  0
VERTEX
  5
2DEE
  8
0
 10
468.06928993660802
 20
190.64177401363861
 30
0.0
  0
VERTEX
  5
2DEF
  8
0
 10
468.33901213008761
 20
190.71552544832241
 30
0.0
  0
VERTEX
  5
2DF0
  8
0
 10
468.57151122290492
 20
190.87934322655209
 30
0.0
  0
VERTEX
  5
2DF1
  8
0
 10
468.73844893175948
 20
191.11557319760331
 30
0.0
  0
VERTEX
  5
2DF2
  8
0
 10
468.8194292922675
 20
191.3960763812066
 30
0.0
  0
VERTEX
  5
2DF3
  8
0
 10
468.8254754384219
 20
191.50000080466279
 30
0.0
  0
SEQEND
  5
2DF4
  8
0
  0
CIRCLE
  5
1D2D
  8
0
 10
467.9946330028535
 20
191.50311626311179
 30
0.0
 40
1.128553310009893
  0
CIRCLE
  5
1D2E
  8
0
 10
467.99463290049562
 20
198.50311553685691
 30
0.0
 40
1.1285534123369689
  0
ARC
  5
1D3C
  8
0
 10
468.05627392904432
 20
198.50000040233141
 30
0.0
 40
1.5321963182312099
 50
167.12574725351499
 51
192.87425274629791
  0
ARC
  5
1D3D
  8
0
 10
468.05627392904432
 20
191.50000040233141
 30
0.0
 40
1.532196318231265
 50
167.12574725351499
 51
192.87425274629791
  0
ARC
  5
1D3F
  8
0
 10
474.50001831156459
 20
195.00035549203619
 30
0.0
 40
10.1996370100268
 50
72.754103293123691
 51
82.94324371463199
  0
ARC
  5
1D46
  8
0
 10
452.99993019752372
 20
286.20012944756297
 30
0.0
 40
84.200129715784257
 50
270.00000621872073
 51
279.05249162694281
  0
ARC
  5
1D48
  8
0
 10
452.9999242967765
 20
103.799870748331
 30
0.0
 40
84.200130413961077
 50
80.94750438281865
 51
89.999989765989966
  0
LINE
  5
1D49
  8
0
 10
401.99993842739451
 20
201.99999973177921
 30
0.0
 11
452.9999393363654
 21
201.99999973177921
 31
0.0
  0
LINE
  5
1D4A
  8
0
 10
452.9999393363654
 20
188.00000116229069
 30
0.0
 11
401.99993842739451
 21
188.00000116229069
 31
0.0
  0
LINE
  5
1D4B
  8
0
 10
430.9999375929296
 20
192.74999961256989
 30
0.0
 11
430.9999375929296
 21
197.2500012815
 31
0.0
  0
ARC
  5
1D50
  8
0
 10
452.98221709156348
 20
286.2802515141251
 30
0.0
 40
83.582184121458269
 50
282.10488083474132
 51
283.27010931943971
  0
LINE
  5
1D58
  8
0
 10
439.99993720549941
 20
188.00000116229069
 30
0.0
 11
439.99993720549941
 21
172.00000040233141
 31
0.0
  0
LINE
  5
1D59
  8
0
 10
434.99993824858058
 20
172.00000040233141
 30
0.0
 11
434.99993824858058
 21
188.00000116229069
 31
0.0
  0
LINE
  5
1D5A
  8
0
 10
439.99993720549941
 20
172.00000040233141
 30
0.0
 11
401.99993842739451
 21
172.00000040233141
 31
0.0
  0
LINE
  5
1D5C
  8
0
 10
439.99993720549941
 20
209.0000008791686
 30
0.0
 11
439.99993720549941
 21
201.99999973177921
 31
0.0
  0
LINE
  5
1D5D
  8
0
 10
434.99993824858058
 20
201.99999973177921
 30
0.0
 11
434.99993824858058
 21
209.0000008791686
 31
0.0
  0
LINE
  5
1D5E
  8
0
 10
401.99993842739451
 20
209.0000008791686
 30
0.0
 11
439.99993720549941
 21
209.0000008791686
 31
0.0
  0
LINE
  5
1D60
  8
0
 10
406.99993738431323
 20
209.0000008791686
 30
0.0
 11
406.99993738431323
 21
201.99999973177921
 31
0.0
  0
LINE
  5
1D63
  8
0
 10
406.99993738431323
 20
188.00000116229069
 30
0.0
 11
406.99993738431323
 21
172.00000040233141
 31
0.0
  0
LINE
  5
1D69
  8
0
 10
401.99993842739451
 20
172.00000040233141
 30
0.0
 11
401.99993842739451
 21
209.0000008791686
 31
0.0
  0
ARC
  5
1D6C
  8
0
 10
420.99993781644707
 20
195.00000040233149
 30
0.0
 40
6.5
 50
0.0
 51
22.61986494804227
  0
ARC
  5
1D6D
  8
0
 10
420.99993781644707
 20
195.00000040233149
 30
0.0
 40
6.500000000000008
 50
157.38013505196119
 51
202.61986494803881
  0
ARC
  5
1D6E
  8
0
 10
420.99993781644707
 20
195.00000040233149
 30
0.0
 40
6.5
 50
337.38013505195772
 51
0.0
  0
LINE
  5
1D88
  8
0
 10
56.000000983476603
 20
198.2499995827676
 30
0.0
 11
56.000000983476603
 21
191.7500013113023
 31
0.0
  0
LINE
  5
1D89
  8
0
 10
74.30000156164165
 20
201.25000007450589
 30
0.0
 11
74.212428368627982
 21
200.35027727484709
 31
0.0
  0
LINE
  5
1D8C
  8
0
 10
74.212672375142532
 20
189.64721463620671
 30
0.0
 11
74.30000156164165
 21
188.75000081956401
 31
0.0
  0
LINE
  5
1D8D
  8
0
 10
74.30000156164165
 20
188.75000081956401
 30
0.0
 11
74.500001221895175
 21
188.76946732401859
 31
0.0
  0
LINE
  5
1D8E
  8
0
 10
74.500001221895175
 20
201.23053357005131
 30
0.0
 11
74.30000156164165
 21
201.25000007450589
 31
0.0
  0
ARC
  5
1D8F
  8
0
 10
131.9753962149189
 20
-29.61634806954055
 30
0.0
 40
207.03803823930571
 50
94.96858479112521
 51
95.582169586008462
  0
LINE
  5
1D90
  8
0
 10
121.0000023245811
 20
216.5000011771919
 30
0.0
 11
120.5000013113021
 21
217.00000219047081
 31
0.0
  0
LINE
  5
1D91
  8
0
 10
105.50000071525569
 20
217.00000219047081
 30
0.0
 11
105.0000015646219
 21
216.5000011771919
 31
0.0
  0
LINE
  5
1D92
  8
0
 10
121.0000023245811
 20
209.0000008791686
 30
0.0
 11
121.0000023245811
 21
216.5000011771919
 31
0.0
  0
LINE
  5
1D93
  8
0
 10
105.0000015646219
 20
216.5000011771919
 30
0.0
 11
105.0000015646219
 21
209.0000008791686
 31
0.0
  0
LINE
  5
1D94
  8
0
 10
73.750001564622053
 20
187.64135442674171
 30
0.0
 11
73.750001564622053
 21
189.37576577067381
 31
0.0
  0
LINE
  5
1D95
  8
0
 10
73.750001564622053
 20
191.82423517107969
 30
0.0
 11
73.750001564622053
 21
193.77576574683201
 31
0.0
  0
LINE
  5
1D96
  8
0
 10
73.750001564622053
 20
196.22423514723789
 30
0.0
 11
73.750001564622053
 21
198.17576572299009
 31
0.0
  0
LINE
  5
1D97
  8
0
 10
73.750001564622053
 20
200.62423512339601
 30
0.0
 11
73.750001564622053
 21
202.35949397087111
 31
0.0
  0
LINE
  5
1D98
  8
0
 10
60.750001296401202
 20
190.3389321267606
 30
0.0
 11
60.750001296401202
 21
189.00426492094999
 31
0.0
  0
LINE
  5
1D99
  8
0
 10
60.750001296401202
 20
197.3389314115048
 30
0.0
 11
60.750001296401202
 21
192.64555737376219
 31
0.0
  0
LINE
  5
1D9A
  8
0
 10
60.750001296401202
 20
200.99032312631621
 30
0.0
 11
60.750001296401202
 21
199.6455585211516
 31
0.0
  0
ARC
  5
1D9B
  8
0
 10
63.762579711634253
 20
188.88580070552101
 30
0.0
 40
3.0149067113702381
 50
177.7481069901541
 51
242.60792935375119
  0
ARC
  5
1D9C
  8
0
 10
63.800394836971023
 20
201.09152841399529
 30
0.0
 40
3.0520719622258441
 50
117.8305617540648
 51
181.90024976452179
  0
LINE
  5
1D9D
  8
0
 10
69.255949184298643
 20
204.4999992102386
 30
0.0
 11
66.735583648249474
 21
204.4999992102386
 31
0.0
  0
ARC
  5
1D9F
  8
0
 10
60.552483546652347
 20
199.94955013134131
 30
0.0
 40
0.2263476893045836
 50
278.80988511518228
 51
330.76569806031102
  0
ARC
  5
1DA0
  8
0
 10
60.556478993591263
 20
197.0561394923331
 30
0.0
 40
0.2201630169587903
 50
28.478571515113369
 51
82.113485270500789
  0
POLYLINE
  5
1DA3
  8
0
 66
     1
 10
0.0
 20
0.0
 30
0.0
 70
   128
  0
VERTEX
  5
2DF5
  8
0
 10
73.646865344821762
 20
198.11999928085399
 30
0.0
  0
VERTEX
  5
2DF6
  8
0
 10
73.646865344821762
 20
198.11999928085399
 30
0.0
  0
VERTEX
  5
2DF7
  8
0
 10
73.707482963800587
 20
198.16314257681381
 30
0.0
  0
VERTEX
  5
2DF8
  8
0
 10
73.747022937616904
 20
198.1751551587858
 30
0.0
  0
SEQEND
  5
2DF9
  8
0
  0
POLYLINE
  5
1DA4
  8
0
 66
     1
 10
0.0
 20
0.0
 30
0.0
 70
   128
  0
VERTEX
  5
2DFA
  8
0
 10
73.746608287477372
 20
200.62493003931829
 30
0.0
  0
VERTEX
  5
2DFB
  8
0
 10
73.710823617875732
 20
200.635455697775
 30
0.0
  0
VERTEX
  5
2DFC
  8
0
 10
73.653092564640986
 20
200.6759175578924
 30
0.0
  0
VERTEX
  5
2DFD
  8
0
 10
73.653092564640986
 20
200.6759175578924
 30
0.0
  0
SEQEND
  5
2DFE
  8
0
  0
POLYLINE
  5
1DA5
  8
0
 66
     1
 10
0.0
 20
0.0
 30
0.0
 70
   128
  0
VERTEX
  5
2DFF
  8
0
 10
73.646865040064014
 20
193.719998151064
 30
0.0
  0
VERTEX
  5
2E00
  8
0
 10
73.646865040064014
 20
193.719998151064
 30
0.0
  0
VERTEX
  5
2E01
  8
0
 10
73.707482963800587
 20
193.76314260065561
 30
0.0
  0
VERTEX
  5
2E02
  8
0
 10
73.747022937616862
 20
193.77515515878571
 30
0.0
  0
SEQEND
  5
2E03
  8
0
  0
POLYLINE
  5
1DA6
  8
0
 66
     1
 10
0.0
 20
0.0
 30
0.0
 70
   128
  0
VERTEX
  5
2E04
  8
0
 10
73.746608287477343
 20
196.2249300393182
 30
0.0
  0
VERTEX
  5
2E05
  8
0
 10
73.710823617875732
 20
196.2354557216168
 30
0.0
  0
VERTEX
  5
2E06
  8
0
 10
73.653092794120468
 20
196.2759160995484
 30
0.0
  0
VERTEX
  5
2E07
  8
0
 10
73.653092794120468
 20
196.2759160995484
 30
0.0
  0
SEQEND
  5
2E08
  8
0
  0
POLYLINE
  5
1DA7
  8
0
 66
     1
 10
0.0
 20
0.0
 30
0.0
 70
   128
  0
VERTEX
  5
2E09
  8
0
 10
73.646865344821762
 20
189.3199993285377
 30
0.0
  0
VERTEX
  5
2E0A
  8
0
 10
73.646865344821762
 20
189.3199993285377
 30
0.0
  0
VERTEX
  5
2E0B
  8
0
 10
73.707482963800587
 20
189.3631426244975
 30
0.0
  0
VERTEX
  5
2E0C
  8
0
 10
73.747022937616862
 20
189.3751551587859
 30
0.0
  0
SEQEND
  5
2E0D
  8
0
  0
POLYLINE
  5
1DA8
  8
0
 66
     1
 10
0.0
 20
0.0
 30
0.0
 70
   128
  0
VERTEX
  5
2E0E
  8
0
 10
73.746608287477372
 20
191.82493003931819
 30
0.0
  0
VERTEX
  5
2E0F
  8
0
 10
73.710823617875732
 20
191.83545574545869
 30
0.0
  0
VERTEX
  5
2E10
  8
0
 10
73.653092794120468
 20
191.87591612339031
 30
0.0
  0
VERTEX
  5
2E11
  8
0
 10
73.653092794120468
 20
191.87591612339031
 30
0.0
  0
SEQEND
  5
2E12
  8
0
  0
ARC
  5
1DA9
  8
0
 10
60.831560896401911
 20
198.50000040233141
 30
0.0
 40
1.2500000000000191
 50
244.4851495978977
 51
258.7027884842696
  0
ARC
  5
1DAA
  8
0
 10
60.831560896401911
 20
198.50000040233141
 30
0.0
 40
1.2500000000000271
 50
101.2756054289478
 51
115.6034375027175
  0
ARC
  5
1DAD
  8
0
 10
73.497515163462268
 20
195.00000040233149
 30
0.0
 40
1.250000000000016
 50
281.51393276163827
 51
295.84378349076621
  0
ARC
  5
1DAE
  8
0
 10
73.570226886986774
 20
195.26947228388099
 30
0.0
 40
0.971601729549836
 50
60.986671932585431
 51
79.54071723399295
  0
POLYLINE
  5
1DAF
  8
0
 66
     1
 10
0.0
 20
0.0
 30
0.0
 70
   128
  0
VERTEX
  5
2E13
  8
0
 10
74.042413870072025
 20
198.27501800267589
 30
0.0
  0
VERTEX
  5
2E14
  8
0
 10
74.084727279842056
 20
198.29960182309159
 30
0.0
  0
VERTEX
  5
2E15
  8
0
 10
74.176983162760891
 20
198.38619992136961
 30
0.0
  0
VERTEX
  5
2E16
  8
0
 10
74.243420921266235
 20
198.49978215992459
 30
0.0
  0
VERTEX
  5
2E17
  8
0
 10
74.299049749970592
 20
198.6796540766955
 30
0.0
  0
VERTEX
  5
2E18
  8
0
 10
74.337428621947922
 20
198.9448239654304
 30
0.0
  0
VERTEX
  5
2E19
  8
0
 10
74.354851804673828
 20
199.2677209526301
 30
0.0
  0
VERTEX
  5
2E1A
  8
0
 10
74.35630094259993
 20
199.39981229603299
 30
0.0
  0
SEQEND
  5
2E1B
  8
0
  0
POLYLINE
  5
1DB0
  8
0
 66
     1
 10
0.0
 20
0.0
 30
0.0
 70
   128
  0
VERTEX
  5
2E1C
  8
0
 10
74.35630094259993
 20
199.39981229603299
 30
0.0
  0
VERTEX
  5
2E1D
  8
0
 10
74.35413189232365
 20
199.56157743930831
 30
0.0
  0
VERTEX
  5
2E1E
  8
0
 10
74.336787872016586
 20
199.86200906336319
 30
0.0
  0
VERTEX
  5
2E1F
  8
0
 10
74.297153577208675
 20
200.1289521902801
 30
0.0
  0
VERTEX
  5
2E20
  8
0
 10
74.201214313507236
 20
200.37957295775431
 30
0.0
  0
VERTEX
  5
2E21
  8
0
 10
74.07276630401627
 20
200.50812713801869
 30
0.0
  0
VERTEX
  5
2E22
  8
0
 10
74.043874066282413
 20
200.52427436774619
 30
0.0
  0
SEQEND
  5
2E23
  8
0
  0
ARC
  5
1DB1
  8
0
 10
73.497515163462268
 20
199.4000004023315
 30
0.0
 40
1.250000000000004
 50
281.5139327616406
 51
295.84378349076621
  0
ARC
  5
1DB2
  8
0
 10
73.497515163462268
 20
199.4000004023315
 30
0.0
 40
1.2499999999999929
 50
64.081824750550268
 51
78.505463063609412
  0
POLYLINE
  5
1DB3
  8
0
 66
     1
 10
0.0
 20
0.0
 30
0.0
 70
   128
  0
VERTEX
  5
2E24
  8
0
 10
74.042413870072025
 20
193.8750180026758
 30
0.0
  0
VERTEX
  5
2E25
  8
0
 10
74.084727279842056
 20
193.89960184693351
 30
0.0
  0
VERTEX
  5
2E26
  8
0
 10
74.176983162760891
 20
193.9861999452115
 30
0.0
  0
VERTEX
  5
2E27
  8
0
 10
74.243420921266235
 20
194.09978218376651
 30
0.0
  0
VERTEX
  5
2E28
  8
0
 10
74.299049749970592
 20
194.27965410053741
 30
0.0
  0
VERTEX
  5
2E29
  8
0
 10
74.337428621947922
 20
194.5448239892722
 30
0.0
  0
VERTEX
  5
2E2A
  8
0
 10
74.354851804673828
 20
194.86772097647199
 30
0.0
  0
VERTEX
  5
2E2B
  8
0
 10
74.35630094259993
 20
194.99981231987491
 30
0.0
  0
SEQEND
  5
2E2C
  8
0
  0
POLYLINE
  5
1DB4
  8
0
 66
     1
 10
0.0
 20
0.0
 30
0.0
 70
   128
  0
VERTEX
  5
2E2D
  8
0
 10
74.35630094259993
 20
194.99981231987491
 30
0.0
  0
VERTEX
  5
2E2E
  8
0
 10
74.35413189232365
 20
195.16157746315011
 30
0.0
  0
VERTEX
  5
2E2F
  8
0
 10
74.336787872016586
 20
195.46200908720499
 30
0.0
  0
VERTEX
  5
2E30
  8
0
 10
74.297153577208675
 20
195.7289522141219
 30
0.0
  0
VERTEX
  5
2E31
  8
0
 10
74.201214313507236
 20
195.97957298159611
 30
0.0
  0
VERTEX
  5
2E32
  8
0
 10
74.07276630401627
 20
196.10812716186061
 30
0.0
  0
VERTEX
  5
2E33
  8
0
 10
74.041466414928593
 20
196.11914470791831
 30
0.0
  0
SEQEND
  5
2E34
  8
0
  0
POLYLINE
  5
1DB5
  8
0
 66
     1
 10
0.0
 20
0.0
 30
0.0
 70
   128
  0
VERTEX
  5
2E35
  8
0
 10
74.042413870072025
 20
189.47501800267591
 30
0.0
  0
VERTEX
  5
2E36
  8
0
 10
74.084727279842056
 20
189.49960187077531
 30
0.0
  0
VERTEX
  5
2E37
  8
0
 10
74.176983162760891
 20
189.58619996905341
 30
0.0
  0
VERTEX
  5
2E38
  8
0
 10
74.243420921266235
 20
189.69978220760831
 30
0.0
  0
VERTEX
  5
2E39
  8
0
 10
74.299049749970592
 20
189.8796541243793
 30
0.0
  0
VERTEX
  5
2E3A
  8
0
 10
74.337428621947922
 20
190.14482401311409
 30
0.0
  0
VERTEX
  5
2E3B
  8
0
 10
74.354851804673828
 20
190.4677210003139
 30
0.0
  0
VERTEX
  5
2E3C
  8
0
 10
74.35630094259993
 20
190.59981234371671
 30
0.0
  0
SEQEND
  5
2E3D
  8
0
  0
POLYLINE
  5
1DB6
  8
0
 66
     1
 10
0.0
 20
0.0
 30
0.0
 70
   128
  0
VERTEX
  5
2E3E
  8
0
 10
74.35630094259993
 20
190.59981234371671
 30
0.0
  0
VERTEX
  5
2E3F
  8
0
 10
74.35413189232365
 20
190.761577486992
 30
0.0
  0
VERTEX
  5
2E40
  8
0
 10
74.336787872016586
 20
191.0620091110469
 30
0.0
  0
VERTEX
  5
2E41
  8
0
 10
74.297153577208675
 20
191.32895223796379
 30
0.0
  0
VERTEX
  5
2E42
  8
0
 10
74.201214313507236
 20
191.57957300543791
 30
0.0
  0
VERTEX
  5
2E43
  8
0
 10
74.07276630401627
 20
191.70812718570241
 30
0.0
  0
VERTEX
  5
2E44
  8
0
 10
74.043874066282413
 20
191.7242743677462
 30
0.0
  0
SEQEND
  5
2E45
  8
0
  0
ARC
  5
1DB7
  8
0
 10
73.497515163462268
 20
190.6000004023316
 30
0.0
 40
1.250000000000016
 50
281.51393276163827
 51
295.84378349076621
  0
ARC
  5
1DB8
  8
0
 10
73.497515163462268
 20
190.6000004023316
 30
0.0
 40
1.2499999999999889
 50
64.081824750550268
 51
78.505463063609412
  0
POLYLINE
  5
1DB9
  8
0
 66
     1
 10
0.0
 20
0.0
 30
0.0
 70
   128
  0
VERTEX
  5
2E46
  8
0
 10
60.291386078733758
 20
199.62725865417849
 30
0.0
  0
VERTEX
  5
2E47
  8
0
 10
60.214390233159243
 20
199.57407951354989
 30
0.0
  0
VERTEX
  5
2E48
  8
0
 10
60.150332003832041
 20
199.4958651810885
 30
0.0
  0
VERTEX
  5
2E49
  8
0
 10
60.109979659319102
 20
199.40931364893919
 30
0.0
  0
VERTEX
  5
2E4A
  8
0
 10
60.079430416226558
 20
199.28186401724821
 30
0.0
  0
VERTEX
  5
2E4B
  8
0
 10
60.058529675007037
 20
199.0414561331273
 30
0.0
  0
VERTEX
  5
2E4C
  8
0
 10
60.05249097943323
 20
198.7781861424447
 30
0.0
  0
VERTEX
  5
2E4D
  8
0
 10
60.05130447447317
 20
198.49841684103021
 30
0.0
  0
SEQEND
  5
2E4E
  8
0
  0
POLYLINE
  5
1DBA
  8
0
 66
     1
 10
0.0
 20
0.0
 30
0.0
 70
   128
  0
VERTEX
  5
2E4F
  8
0
 10
60.053055360913447
 20
198.2043945789338
 30
0.0
  0
VERTEX
  5
2E50
  8
0
 10
60.055176913738421
 20
198.0600433051587
 30
0.0
  0
VERTEX
  5
2E51
  8
0
 10
60.068023577332667
 20
197.81145468354231
 30
0.0
  0
VERTEX
  5
2E52
  8
0
 10
60.11284068226832
 20
197.58259333670151
 30
0.0
  0
VERTEX
  5
2E53
  8
0
 10
60.173179209232501
 20
197.47093148529541
 30
0.0
  0
VERTEX
  5
2E54
  8
0
 10
60.265741497278391
 20
197.3871571570636
 30
0.0
  0
VERTEX
  5
2E55
  8
0
 10
60.293129618912431
 20
197.37190831414841
 30
0.0
  0
SEQEND
  5
2E56
  8
0
  0
ARC
  5
1DC3
  8
0
 10
66.948403083482717
 20
204.58235003570249
 30
0.0
 40
0.2281967801428907
 50
191.9175162378705
 51
228.1031567987695
  0
POLYLINE
  5
1DC4
  8
0
 66
     1
 10
0.0
 20
0.0
 30
0.0
 70
   128
  0
VERTEX
  5
2E57
  8
0
 10
64.274477958679356
 20
204.53797854483139
 30
0.0
  0
VERTEX
  5
2E58
  8
0
 10
64.220381155610241
 20
204.4270878285171
 30
0.0
  0
VERTEX
  5
2E59
  8
0
 10
64.195237308740744
 20
204.40646834671509
 30
0.0
  0
VERTEX
  5
2E5A
  8
0
 10
64.195237308740744
 20
204.40646834671509
 30
0.0
  0
SEQEND
  5
2E5B
  8
0
  0
ARC
  5
1DCD
  8
0
 10
65.206157419733771
 20
204.36019146212831
 30
0.0
 40
0.9484908354468302
 50
150.42367212067711
 51
169.1964563562874
  0
ARC
  5
1DCE
  8
0
 10
65.50000149011629
 20
204.2870882128349
 30
0.0
 40
1.2500000000000011
 50
11.44988488445982
 51
25.8287410520587
  0
POLYLINE
  5
1DCF
  8
0
 66
     1
 10
0.0
 20
0.0
 30
0.0
 70
   128
  0
VERTEX
  5
2E5C
  8
0
 10
66.625126908750957
 20
204.83169154769629
 30
0.0
  0
VERTEX
  5
2E5D
  8
0
 10
66.604425385594524
 20
204.86720107495799
 30
0.0
  0
VERTEX
  5
2E5E
  8
0
 10
66.52656681835667
 20
204.95249904692179
 30
0.0
  0
VERTEX
  5
2E5F
  8
0
 10
66.428153961897053
 20
205.01286737620839
 30
0.0
  0
VERTEX
  5
2E60
  8
0
 10
66.278184950351843
 20
205.06290920078769
 30
0.0
  0
VERTEX
  5
2E61
  8
0
 10
66.023905947804593
 20
205.10260961949839
 30
0.0
  0
VERTEX
  5
2E62
  8
0
 10
65.744104981422566
 20
205.1206325739623
 30
0.0
  0
VERTEX
  5
2E63
  8
0
 10
65.500023961067342
 20
205.12492410838621
 30
0.0
  0
SEQEND
  5
2E64
  8
0
  0
POLYLINE
  5
1DD0
  8
0
 66
     1
 10
0.0
 20
0.0
 30
0.0
 70
   128
  0
VERTEX
  5
2E65
  8
0
 10
65.500023961067342
 20
205.12492410838621
 30
0.0
  0
VERTEX
  5
2E66
  8
0
 10
65.339266508817815
 20
205.12309126555931
 30
0.0
  0
VERTEX
  5
2E67
  8
0
 10
65.041258186102056
 20
205.10844342410579
 30
0.0
  0
VERTEX
  5
2E68
  8
0
 10
64.778846874833235
 20
205.07506482303151
 30
0.0
  0
VERTEX
  5
2E69
  8
0
 10
64.536229893565334
 20
204.99471403658401
 30
0.0
  0
VERTEX
  5
2E6A
  8
0
 10
64.419384300708927
 20
204.89933915436279
 30
0.0
  0
VERTEX
  5
2E6B
  8
0
 10
64.381255954504169
 20
204.8283500224353
 30
0.0
  0
SEQEND
  5
2E6C
  8
0
  0
ARC
  5
1DD5
  8
0
 10
64.332529555786721
 20
200.8342678520159
 30
0.0
 40
3.5453732405680052
 50
106.81049768864079
 51
123.5038290170265
  0
ARC
  5
1DD6
  8
0
 10
64.216013068134785
 20
188.9216444839056
 30
0.0
 40
3.278162950949703
 50
235.8439134161967
 51
253.8813327832695
  0
ARC
  5
1DD7
  8
0
 10
71.60099649706423
 20
187.6411310720884
 30
0.0
 40
2.1490050791648678
 50
321.32187504806978
 51
0.0059549784762387
  0
ARC
  5
1DD8
  8
0
 10
71.63673092182546
 20
202.3713585999258
 30
0.0
 40
2.1133034692886259
 50
359.68064810564761
 51
38.986385074978593
  0
ARC
  5
1DD9
  8
0
 10
64.978749034025682
 20
199.60470743242311
 30
0.0
 40
4.9163216121115232
 50
101.8335242987534
 51
109.87709177637269
  0
ARC
  5
1DDA
  8
0
 10
64.960097549050161
 20
190.33282741607499
 30
0.0
 40
4.8512171189609754
 50
250.06309129061671
 51
258.18018006291589
  0
ARC
  5
1DDD
  8
0
 10
73.356372915795362
 20
200.50000040233149
 30
0.0
 40
1.2500000000000091
 50
64.674421548355227
 51
71.645050390531665
  0
ARC
  5
1DDE
  8
0
 10
73.356372915795376
 20
189.50000040233161
 30
0.0
 40
1.2500000000000071
 50
288.35494960946909
 51
295.48485864289518
  0
POLYLINE
  5
1DDF
  8
0
 66
     1
 10
0.0
 20
0.0
 30
0.0
 70
   128
  0
VERTEX
  5
2E6D
  8
0
 10
74.199404038761841
 20
200.38138472881141
 30
0.0
  0
VERTEX
  5
2E6E
  8
0
 10
74.201370775699743
 20
200.47319881618029
 30
0.0
  0
VERTEX
  5
2E6F
  8
0
 10
74.192825891077661
 20
200.79394817352309
 30
0.0
  0
VERTEX
  5
2E70
  8
0
 10
74.164153262972974
 20
201.08604446053519
 30
0.0
  0
VERTEX
  5
2E71
  8
0
 10
74.113220162689814
 20
201.33055016398441
 30
0.0
  0
VERTEX
  5
2E72
  8
0
 10
74.055352434516095
 20
201.47132888436329
 30
0.0
  0
VERTEX
  5
2E73
  8
0
 10
73.974423296749734
 20
201.573986709118
 30
0.0
  0
VERTEX
  5
2E74
  8
0
 10
73.889888077974462
 20
201.62629909813421
 30
0.0
  0
SEQEND
  5
2E75
  8
0
  0
POLYLINE
  5
1DE0
  8
0
 66
     1
 10
0.0
 20
0.0
 30
0.0
 70
   128
  0
VERTEX
  5
2E76
  8
0
 10
73.894213614161572
 20
188.37162662419729
 30
0.0
  0
VERTEX
  5
2E77
  8
0
 10
73.969129659235605
 20
188.42137992382061
 30
0.0
  0
VERTEX
  5
2E78
  8
0
 10
74.032404646277556
 20
188.49216230213651
 30
0.0
  0
VERTEX
  5
2E79
  8
0
 10
74.083414115011834
 20
188.5858496278525
 30
0.0
  0
VERTEX
  5
2E7A
  8
0
 10
74.135403335094594
 20
188.754657432437
 30
0.0
  0
VERTEX
  5
2E7B
  8
0
 10
74.176217615604543
 20
189.0089680999518
 30
0.0
  0
VERTEX
  5
2E7C
  8
0
 10
74.197832681238793
 20
189.3079859763385
 30
0.0
  0
SEQEND
  5
2E7D
  8
0
  0
POLYLINE
  5
1DE1
  8
0
 66
     1
 10
0.0
 20
0.0
 30
0.0
 70
   128
  0
VERTEX
  5
2E7E
  8
0
 10
74.200520478189134
 20
189.4335040450097
 30
0.0
  0
VERTEX
  5
2E7F
  8
0
 10
74.201370775699743
 20
189.47319887578499
 30
0.0
  0
VERTEX
  5
2E80
  8
0
 10
74.197429418563985
 20
189.621156230569
 30
0.0
  0
SEQEND
  5
2E81
  8
0
  0
ARC
  5
1DE3
  8
0
 10
67.72985787533591
 20
204.3690101280815
 30
0.0
 40
0.4198698924855594
 50
146.53631434205749
 51
161.82151046922411
  0
ARC
  5
1DE6
  8
0
 10
68.141457533600445
 20
203.93346006558949
 30
0.0
 40
1.0126342279999769
 50
81.490090604519224
 51
138.79561306056411
  0
ARC
  5
1DE7
  8
0
 10
68.703113319369606
 20
202.9878083292316
 30
0.0
 40
1.9446481086477829
 50
69.850989456786962
 51
89.896414783781665
  0
LINE
  5
1DE8
  8
0
 10
51.005187630653339
 20
191.7500013113023
 30
0.0
 11
51.005187630653339
 21
188.5000003129245
 31
0.0
  0
ARC
  5
1DE9
  8
0
 10
51.505203555677923
 20
188.50000298962641
 30
0.0
 40
0.5000018280151801
 50
180.1027592443958
 51
270.00298698395738
  0
LINE
  5
1DEA
  8
0
 10
51.005187630653339
 20
201.5000005811454
 30
0.0
 11
51.005187630653339
 21
198.2499995827676
 31
0.0
  0
ARC
  5
1DEB
  8
0
 10
51.505200096382481
 20
201.50000215980469
 30
0.0
 40
0.4999975728463729
 50
89.996616582640911
 51
180.01042623544771
  0
LINE
  5
1DEC
  8
0
 10
61.798083782196038
 20
204.6578434854747
 30
0.0
 11
62.628372758626931
 21
204.9040553718807
 31
0.0
  0
LINE
  5
1DED
  8
0
 10
62.628372758626931
 20
204.9040553718807
 30
0.0
 11
62.830289080739021
 21
205.74621312320241
 31
0.0
  0
LINE
  5
1DEE
  8
0
 10
62.830289080739021
 20
205.74621312320241
 30
0.0
 11
62.201918289065361
 21
206.34215898811831
 31
0.0
  0
LINE
  5
1DEF
  8
0
 10
62.201918289065361
 20
206.34215898811831
 30
0.0
 11
61.37163117527961
 21
206.09594337642201
 31
0.0
  0
LINE
  5
1DF0
  8
0
 10
61.37163117527961
 20
206.09594337642201
 30
0.0
 11
61.169712990522378
 21
205.25378562510031
 31
0.0
  0
LINE
  5
1DF1
  8
0
 10
61.169712990522378
 20
205.25378562510031
 30
0.0
 11
61.798083782196038
 21
204.6578434854747
 31
0.0
  0
LINE
  5
1DF2
  8
0
 10
113.8078060001135
 20
191.68782621622091
 30
0.0
 11
113.6742543429136
 21
192.54349187016501
 31
0.0
  0
LINE
  5
1DF3
  8
0
 10
113.6742543429136
 20
192.54349187016501
 30
0.0
 11
112.86645121872419
 21
192.85566560924059
 31
0.0
  0
LINE
  5
1DF4
  8
0
 10
112.86645121872419
 20
192.85566560924059
 30
0.0
 11
112.1921978890896
 21
192.31217555701741
 31
0.0
  0
LINE
  5
1DF5
  8
0
 10
112.1921978890896
 20
192.31217555701741
 30
0.0
 11
112.32574768364429
 21
191.4565099030734
 31
0.0
  0
LINE
  5
1DF6
  8
0
 10
112.32574768364429
 20
191.4565099030734
 30
0.0
 11
113.13355267047881
 21
191.14433430135259
 31
0.0
  0
LINE
  5
1DF7
  8
0
 10
113.13355267047881
 20
191.14433430135259
 30
0.0
 11
113.8078060001135
 21
191.68782621622091
 31
0.0
  0
LINE
  5
1DF8
  8
0
 10
74.30000156164165
 20
188.75106066465389
 30
0.0
 11
74.30000156164165
 21
188.75000081956401
 31
0.0
  0
LINE
  5
1DFA
  8
0
 10
74.300001561641665
 20
198.68623039803879
 30
0.0
 11
74.300001561641665
 21
195.7097705969482
 31
0.0
  0
ARC
  5
1DFD
  8
0
 10
111.4478160369425
 20
176.0477798300179
 30
0.0
 40
0.4065271587868577
 50
353.25041250618222
 51
34.784813584279938
  0
ARC
  5
1DFE
  8
0
 10
111.4478346117873
 20
175.9522165242762
 30
0.0
 40
0.4065092804505532
 50
325.21422503430819
 51
6.7505712923136407
  0
LINE
  5
1E01
  8
0
 10
74.000001139938803
 20
198.2554440945388
 30
0.0
 11
74.000001139938803
 21
196.14455677568921
 31
0.0
  0
LINE
  5
1E02
  8
0
 10
74.000001139938803
 20
193.8554441183806
 30
0.0
 11
74.000001139938803
 21
191.7445567995311
 31
0.0
  0
LINE
  5
1E03
  8
0
 10
105.50000071525569
 20
217.00000219047081
 30
0.0
 11
120.5000013113021
 21
217.00000219047081
 31
0.0
  0
LINE
  5
1E04
  8
0
 10
121.0000023245811
 20
216.5000011771919
 30
0.0
 11
105.0000015646219
 21
216.5000011771919
 31
0.0
  0
POLYLINE
  5
1E05
  8
0
 66
     1
 10
0.0
 20
0.0
 30
0.0
 70
   128
  0
VERTEX
  5
2E82
  8
0
 10
71.703358739614643
 20
185.9485210478307
 30
0.0
  0
VERTEX
  5
2E83
  8
0
 10
71.671216934919514
 20
186.0473343729974
 30
0.0
  0
VERTEX
  5
2E84
  8
0
 10
71.469399333000339
 20
186.5250656008721
 30
0.0
  0
VERTEX
  5
2E85
  8
0
 10
71.163493394851855
 20
187.12783154100191
 30
0.0
  0
VERTEX
  5
2E86
  8
0
 10
70.647330209613017
 20
188.05998206138619
 30
0.0
  0
VERTEX
  5
2E87
  8
0
 10
70.034143701195887
 20
189.13527406752121
 30
0.0
  0
VERTEX
  5
2E88
  8
0
 10
69.224349409341983
 20
190.58369301259529
 30
0.0
  0
VERTEX
  5
2E89
  8
0
 10
68.438983708620242
 20
192.1881867200137
 30
0.0
  0
VERTEX
  5
2E8A
  8
0
 10
68.10261793434637
 20
193.05083170533189
 30
0.0
  0
VERTEX
  5
2E8B
  8
0
 10
67.856042832136325
 20
193.9575375616551
 30
0.0
  0
VERTEX
  5
2E8C
  8
0
 10
67.760565504431895
 20
194.6934910118581
 30
0.0
  0
VERTEX
  5
2E8D
  8
0
 10
67.768964171409777
 20
195.4369285702706
 30
0.0
  0
VERTEX
  5
2E8E
  8
0
 10
68.068777397275142
 20
196.8462450057269
 30
0.0
  0
VERTEX
  5
2E8F
  8
0
 10
68.409717828035525
 20
197.74554684758201
 30
0.0
  0
VERTEX
  5
2E90
  8
0
 10
68.806090578437022
 20
198.59894566237941
 30
0.0
  0
VERTEX
  5
2E91
  8
0
 10
69.638432189822367
 20
200.16894131898891
 30
0.0
  0
VERTEX
  5
2E92
  8
0
 10
70.436760038137606
 20
201.56955547630801
 30
0.0
  0
VERTEX
  5
2E93
  8
0
 10
70.958805456757716
 20
202.49573156237611
 30
0.0
  0
VERTEX
  5
2E94
  8
0
 10
71.37499861419218
 20
203.2807452231647
 30
0.0
  0
VERTEX
  5
2E95
  8
0
 10
71.575246006250538
 20
203.7086581438781
 30
0.0
  0
VERTEX
  5
2E96
  8
0
 10
71.703358739614643
 20
204.05147798359411
 30
0.0
  0
SEQEND
  5
2E97
  8
0
  0
POLYLINE
  5
1E07
  8
0
 66
     1
 10
0.0
 20
0.0
 30
0.0
 70
   128
  0
VERTEX
  5
2E98
  8
0
 10
73.689007386565365
 20
202.1459044516088
 30
0.0
  0
VERTEX
  5
2E99
  8
0
 10
73.522202856838859
 20
201.87631264328971
 30
0.0
  0
VERTEX
  5
2E9A
  8
0
 10
73.259613662958301
 20
201.5374304354192
 30
0.0
  0
VERTEX
  5
2E9B
  8
0
 10
72.718381136655978
 20
200.92105321586141
 30
0.0
  0
VERTEX
  5
2E9C
  8
0
 10
72.032685577869586
 20
200.186491161585
 30
0.0
  0
VERTEX
  5
2E9D
  8
0
 10
71.002594381570987
 20
199.0968400239945
 30
0.0
  0
VERTEX
  5
2E9E
  8
0
 10
69.90027166903036
 20
197.8412737697364
 30
0.0
  0
VERTEX
  5
2E9F
  8
0
 10
69.390873610973529
 20
197.18124918639671
 30
0.0
  0
VERTEX
  5
2EA0
  8
0
 10
68.936093896627597
 20
196.4575612545014
 30
0.0
  0
VERTEX
  5
2EA1
  8
0
 10
68.692256882786921
 20
195.92058859765541
 30
0.0
  0
VERTEX
  5
2EA2
  8
0
 10
68.54403130710142
 20
195.344943702221
 30
0.0
  0
VERTEX
  5
2EA3
  8
0
 10
68.563454970717601
 20
194.5386604964734
 30
0.0
  0
VERTEX
  5
2EA4
  8
0
 10
68.657900393009356
 20
194.1770037263633
 30
0.0
  0
VERTEX
  5
2EA5
  8
0
 10
68.989045172929934
 20
193.4438405185939
 30
0.0
  0
VERTEX
  5
2EA6
  8
0
 10
69.420210272073916
 20
192.7801465243102
 30
0.0
  0
VERTEX
  5
2EA7
  8
0
 10
70.4653553664686
 20
191.4905869960786
 30
0.0
  0
VERTEX
  5
2EA8
  8
0
 10
71.506186574697665
 20
190.36995261907589
 30
0.0
  0
VERTEX
  5
2EA9
  8
0
 10
72.312314249575309
 20
189.5163973420859
 30
0.0
  0
VERTEX
  5
2EAA
  8
0
 10
72.983029484748997
 20
188.7851303070785
 30
0.0
  0
VERTEX
  5
2EAB
  8
0
 10
73.384409025311626
 20
188.30748848617091
 30
0.0
  0
VERTEX
  5
2EAC
  8
0
 10
73.646974936127819
 20
187.93210588395601
 30
0.0
  0
VERTEX
  5
2EAD
  8
0
 10
73.689007386565365
 20
187.8540964424611
 30
0.0
  0
SEQEND
  5
2EAE
  8
0
  0
POLYLINE
  5
1E09
  8
0
 66
     1
 10
0.0
 20
0.0
 30
0.0
 70
   128
  0
VERTEX
  5
2EAF
  8
0
 10
63.333335518837131
 20
203.92701230943209
 30
0.0
  0
VERTEX
  5
2EB0
  8
0
 10
63.037910684943348
 20
203.64482529461401
 30
0.0
  0
VERTEX
  5
2EB1
  8
0
 10
62.848632410168818
 20
203.28138969838631
 30
0.0
  0
VERTEX
  5
2EB2
  8
0
 10
62.759318575263201
 20
202.83203400671491
 30
0.0
  0
VERTEX
  5
2EB3
  8
0
 10
62.762401252985171
 20
202.305521965027
 30
0.0
  0
VERTEX
  5
2EB4
  8
0
 10
62.868741527199923
 20
201.58758774399769
 30
0.0
  0
VERTEX
  5
2EB5
  8
0
 10
63.064974918961703
 20
200.78171432018291
 30
0.0
  0
VERTEX
  5
2EB6
  8
0
 10
63.49482499063032
 20
199.3722488731147
 30
0.0
  0
VERTEX
  5
2EB7
  8
0
 10
63.986429199576548
 20
197.78903774917131
 30
0.0
  0
VERTEX
  5
2EB8
  8
0
 10
64.248421415686778
 20
196.7531742155553
 30
0.0
  0
VERTEX
  5
2EB9
  8
0
 10
64.417804777622393
 20
195.65553419291979
 30
0.0
  0
VERTEX
  5
2EBA
  8
0
 10
64.443740248680285
 20
194.77532632648951
 30
0.0
  0
VERTEX
  5
2EBB
  8
0
 10
64.362893998623065
 20
193.87984476983559
 30
0.0
  0
VERTEX
  5
2EBC
  8
0
 10
64.124870300293139
 20
192.72090882062921
 30
0.0
  0
VERTEX
  5
2EBD
  8
0
 10
63.801194727420977
 20
191.5915982425214
 30
0.0
  0
VERTEX
  5
2EBE
  8
0
 10
63.375148177147082
 20
190.252440199256
 30
0.0
  0
VERTEX
  5
2EBF
  8
0
 10
63.002958148718051
 20
188.9869218319655
 30
0.0
  0
VERTEX
  5
2EC0
  8
0
 10
62.828174978494822
 20
188.19780476391321
 30
0.0
  0
VERTEX
  5
2EC1
  8
0
 10
62.75085099041479
 20
187.4742081016303
 30
0.0
  0
VERTEX
  5
2EC2
  8
0
 10
62.87351734936253
 20
186.65103536099201
 30
0.0
  0
VERTEX
  5
2EC3
  8
0
 10
63.053290545940548
 20
186.33510466665041
 30
0.0
  0
VERTEX
  5
2EC4
  8
0
 10
63.333335518837131
 20
186.0729904472829
 30
0.0
  0
SEQEND
  5
2EC5
  8
0
  0
LINE
  5
1E0A
  8
0
 10
63.333335518837131
 20
186.0729904472829
 30
0.0
 11
63.981597498059429
 21
185.69597896188509
 31
0.0
  0
LINE
  5
1E0B
  8
0
 10
63.981597498059429
 20
204.30402286350741
 30
0.0
 11
63.333335518837131
 21
203.92701230943209
 31
0.0
  0
POLYLINE
  5
1E0C
  8
0
 66
     1
 10
0.0
 20
0.0
 30
0.0
 70
   128
  0
VERTEX
  5
2EC6
  8
0
 10
74.353142827749409
 20
199.40000042319309
 30
0.0
  0
VERTEX
  5
2EC7
  8
0
 10
74.345664307475246
 20
199.68326963484299
 30
0.0
  0
VERTEX
  5
2EC8
  8
0
 10
74.321951903402962
 20
199.93907414376741
 30
0.0
  0
VERTEX
  5
2EC9
  8
0
 10
74.280049838125862
 20
200.13435758650311
 30
0.0
  0
VERTEX
  5
2ECA
  8
0
 10
74.220019578933872
 20
200.24343967437761
 30
0.0
  0
VERTEX
  5
2ECB
  8
0
 10
74.146134033799328
 20
200.25378480553641
 30
0.0
  0
VERTEX
  5
2ECC
  8
0
 10
74.067313410341896
 20
200.16725935041919
 30
0.0
  0
VERTEX
  5
2ECD
  8
0
 10
73.995231837034382
 20
199.9976003170014
 30
0.0
  0
VERTEX
  5
2ECE
  8
0
 10
73.941027931869186
 20
199.76371727883819
 30
0.0
  0
VERTEX
  5
2ECF
  8
0
 10
73.914312943816341
 20
199.48858037590989
 30
0.0
  0
VERTEX
  5
2ED0
  8
0
 10
73.91451038420216
 20
199.30621251463899
 30
0.0
  0
VERTEX
  5
2ED1
  8
0
 10
73.94236437976376
 20
199.0281233191491
 30
0.0
  0
VERTEX
  5
2ED2
  8
0
 10
73.99964444339291
 20
198.78872685134419
 30
0.0
  0
VERTEX
  5
2ED3
  8
0
 10
74.075471796095528
 20
198.6194552481175
 30
0.0
  0
VERTEX
  5
2ED4
  8
0
 10
74.155714549124397
 20
198.54209400713449
 30
0.0
  0
VERTEX
  5
2ED5
  8
0
 10
74.227938614785828
 20
198.56438986957079
 30
0.0
  0
VERTEX
  5
2ED6
  8
0
 10
74.284637533128418
 20
198.6801476776601
 30
0.0
  0
VERTEX
  5
2ED7
  8
0
 10
74.32359196245686
 20
198.87279920279991
 30
0.0
  0
VERTEX
  5
2ED8
  8
0
 10
74.345879442989983
 20
199.12063531577601
 30
0.0
  0
VERTEX
  5
2ED9
  8
0
 10
74.353142827749409
 20
199.40000042319309
 30
0.0
  0
SEQEND
  5
2EDA
  8
0
  0
POLYLINE
  5
1E0D
  8
0
 66
     1
 10
0.0
 20
0.0
 30
0.0
 70
   128
  0
VERTEX
  5
2EDB
  8
0
 10
74.353142827749409
 20
195.00000044703489
 30
0.0
  0
VERTEX
  5
2EDC
  8
0
 10
74.345664307475246
 20
195.28326965868479
 30
0.0
  0
VERTEX
  5
2EDD
  8
0
 10
74.321951903402962
 20
195.5390741676093
 30
0.0
  0
VERTEX
  5
2EDE
  8
0
 10
74.280049838125862
 20
195.734357610345
 30
0.0
  0
VERTEX
  5
2EDF
  8
0
 10
74.220019578933872
 20
195.84343969821941
 30
0.0
  0
VERTEX
  5
2EE0
  8
0
 10
74.146134033799328
 20
195.85378482937821
 30
0.0
  0
VERTEX
  5
2EE1
  8
0
 10
74.067313410341896
 20
195.76725937426099
 30
0.0
  0
VERTEX
  5
2EE2
  8
0
 10
73.995231837034382
 20
195.59760034084329
 30
0.0
  0
VERTEX
  5
2EE3
  8
0
 10
73.941027931869186
 20
195.3637173026801
 30
0.0
  0
VERTEX
  5
2EE4
  8
0
 10
73.914312943816341
 20
195.08858039975181
 30
0.0
  0
VERTEX
  5
2EE5
  8
0
 10
73.91451038420216
 20
194.9062125384809
 30
0.0
  0
VERTEX
  5
2EE6
  8
0
 10
73.94236437976376
 20
194.62812334299099
 30
0.0
  0
VERTEX
  5
2EE7
  8
0
 10
73.99964444339291
 20
194.38872687518611
 30
0.0
  0
VERTEX
  5
2EE8
  8
0
 10
74.075471796095528
 20
194.21945527195939
 30
0.0
  0
VERTEX
  5
2EE9
  8
0
 10
74.155714549124397
 20
194.14209403097641
 30
0.0
  0
VERTEX
  5
2EEA
  8
0
 10
74.227938614785828
 20
194.1643898934127
 30
0.0
  0
VERTEX
  5
2EEB
  8
0
 10
74.284637533128418
 20
194.2801477015019
 30
0.0
  0
VERTEX
  5
2EEC
  8
0
 10
74.32359196245686
 20
194.47279922664171
 30
0.0
  0
VERTEX
  5
2EED
  8
0
 10
74.345879442989983
 20
194.72063533961779
 30
0.0
  0
VERTEX
  5
2EEE
  8
0
 10
74.353142827749409
 20
195.00000044703489
 30
0.0
  0
SEQEND
  5
2EEF
  8
0
  0
POLYLINE
  5
1E0E
  8
0
 66
     1
 10
0.0
 20
0.0
 30
0.0
 70
   128
  0
VERTEX
  5
2EF0
  8
0
 10
74.353142827749409
 20
190.60000047087681
 30
0.0
  0
VERTEX
  5
2EF1
  8
0
 10
74.345664307475246
 20
190.8832696825267
 30
0.0
  0
VERTEX
  5
2EF2
  8
0
 10
74.321951903402962
 20
191.13907419145119
 30
0.0
  0
VERTEX
  5
2EF3
  8
0
 10
74.280049838125862
 20
191.3343576341868
 30
0.0
  0
VERTEX
  5
2EF4
  8
0
 10
74.220019578933872
 20
191.44343972206121
 30
0.0
  0
VERTEX
  5
2EF5
  8
0
 10
74.146134033799328
 20
191.4537848532201
 30
0.0
  0
VERTEX
  5
2EF6
  8
0
 10
74.067313410341896
 20
191.3672593981029
 30
0.0
  0
VERTEX
  5
2EF7
  8
0
 10
73.995231837034382
 20
191.1976003646852
 30
0.0
  0
VERTEX
  5
2EF8
  8
0
 10
73.941027931869186
 20
190.96371732652199
 30
0.0
  0
VERTEX
  5
2EF9
  8
0
 10
73.914312943816341
 20
190.68858042359361
 30
0.0
  0
VERTEX
  5
2EFA
  8
0
 10
73.91451038420216
 20
190.5062125623227
 30
0.0
  0
VERTEX
  5
2EFB
  8
0
 10
73.94236437976376
 20
190.22812336683279
 30
0.0
  0
VERTEX
  5
2EFC
  8
0
 10
73.99964444339291
 20
189.98872689902791
 30
0.0
  0
VERTEX
  5
2EFD
  8
0
 10
74.075471796095528
 20
189.8194552958013
 30
0.0
  0
VERTEX
  5
2EFE
  8
0
 10
74.155714549124397
 20
189.74209405481821
 30
0.0
  0
VERTEX
  5
2EFF
  8
0
 10
74.227938614785828
 20
189.7643899172545
 30
0.0
  0
VERTEX
  5
2F00
  8
0
 10
74.284637533128418
 20
189.88014772534379
 30
0.0
  0
VERTEX
  5
2F01
  8
0
 10
74.32359196245686
 20
190.0727992504836
 30
0.0
  0
VERTEX
  5
2F02
  8
0
 10
74.345879442989983
 20
190.3206353634597
 30
0.0
  0
VERTEX
  5
2F03
  8
0
 10
74.353142827749409
 20
190.60000047087681
 30
0.0
  0
SEQEND
  5
2F04
  8
0
  0
POLYLINE
  5
1E0F
  8
0
 66
     1
 10
0.0
 20
0.0
 30
0.0
 70
   128
  0
VERTEX
  5
2F05
  8
0
 10
60.053055360913447
 20
198.2043945789338
 30
0.0
  0
VERTEX
  5
2F06
  8
0
 10
60.052625089883982
 20
198.22267085313811
 30
0.0
  0
VERTEX
  5
2F07
  8
0
 10
60.051371529698542
 20
198.50000008940711
 30
0.0
  0
SEQEND
  5
2F08
  8
0
  0
POLYLINE
  5
1E13
  8
0
 66
     1
 10
0.0
 20
0.0
 30
0.0
 70
   128
  0
VERTEX
  5
2F09
  8
0
 10
65.500001609325551
 20
205.12264795601379
 30
0.0
  0
VERTEX
  5
2F0A
  8
0
 10
65.216404572129392
 20
205.11631123721611
 30
0.0
  0
VERTEX
  5
2F0B
  8
0
 10
64.960896223783635
 20
205.09620212018501
 30
0.0
  0
VERTEX
  5
2F0C
  8
0
 10
64.765901491046108
 20
205.06049148738401
 30
0.0
  0
VERTEX
  5
2F0D
  8
0
 10
64.656761661172069
 20
205.00899679958829
 30
0.0
  0
VERTEX
  5
2F0E
  8
0
 10
64.646049588918842
 20
204.94519375264659
 30
0.0
  0
VERTEX
  5
2F0F
  8
0
 10
64.732208102941669
 20
204.87669683992871
 30
0.0
  0
VERTEX
  5
2F10
  8
0
 10
64.901902526617206
 20
204.81372080743321
 30
0.0
  0
VERTEX
  5
2F11
  8
0
 10
65.136204659938969
 20
204.7662345319988
 30
0.0
  0
VERTEX
  5
2F12
  8
0
 10
65.411742031574406
 20
204.74284343421471
 30
0.0
  0
VERTEX
  5
2F13
  8
0
 10
65.593161806464352
 20
204.74300362169751
 30
0.0
  0
VERTEX
  5
2F14
  8
0
 10
65.871305018663563
 20
204.767311140895
 30
0.0
  0
VERTEX
  5
2F15
  8
0
 10
66.110526397824444
 20
204.8172225803138
 30
0.0
  0
VERTEX
  5
2F16
  8
0
 10
66.279866918921627
 20
204.88314531743541
 30
0.0
  0
VERTEX
  5
2F17
  8
0
 10
66.357716172933735
 20
204.95274491608151
 30
0.0
  0
VERTEX
  5
2F18
  8
0
 10
66.336143016815342
 20
205.01521058380621
 30
0.0
  0
VERTEX
  5
2F19
  8
0
 10
66.220938414335407
 20
205.06406404078021
 30
0.0
  0
VERTEX
  5
2F1A
  8
0
 10
66.028275713324675
 20
205.09747616946709
 30
0.0
  0
VERTEX
  5
2F1B
  8
0
 10
65.779860317707204
 20
205.11648632586011
 30
0.0
  0
VERTEX
  5
2F1C
  8
0
 10
65.500001609325551
 20
205.12264795601379
 30
0.0
  0
SEQEND
  5
2F1D
  8
0
  0
POLYLINE
  5
1E15
  8
0
 66
     1
 10
0.0
 20
0.0
 30
0.0
 70
   128
  0
VERTEX
  5
2F1E
  8
0
 10
63.97056505084052
 20
204.4165452569724
 30
0.0
  0
VERTEX
  5
2F1F
  8
0
 10
64.017635956406735
 20
204.42553065717229
 30
0.0
  0
VERTEX
  5
2F20
  8
0
 10
64.232300740883929
 20
204.4515212751198
 30
0.0
  0
SEQEND
  5
2F21
  8
0
  0
POLYLINE
  5
1E16
  8
0
 66
     1
 10
0.0
 20
0.0
 30
0.0
 70
   128
  0
VERTEX
  5
2F22
  8
0
 10
63.966396450996541
 20
185.58432362973701
 30
0.0
  0
VERTEX
  5
2F23
  8
0
 10
64.017635956406735
 20
185.5744683742524
 30
0.0
  0
VERTEX
  5
2F24
  8
0
 10
64.231356553287725
 20
185.55041506860579
 30
0.0
  0
SEQEND
  5
2F25
  8
0
  0
LINE
  5
1E19
  8
0
 10
74.200520478189134
 20
189.4335040450097
 30
0.0
 11
74.197832681238793
 21
189.3079859763385
 31
0.0
  0
POLYLINE
  5
1E20
  8
0
 66
     1
 10
0.0
 20
0.0
 30
0.0
 70
   128
  0
VERTEX
  5
2F26
  8
0
 10
68.291307613253736
 20
204.93494547903549
 30
0.0
  0
VERTEX
  5
2F27
  8
0
 10
68.404027447104596
 20
204.9365386197405
 30
0.0
  0
VERTEX
  5
2F28
  8
0
 10
68.706629052758373
 20
204.93245325982591
 30
0.0
  0
SEQEND
  5
2F29
  8
0
  0
LINE
  5
1E22
  8
0
 10
60.05250156086899
 20
191.7500013113023
 30
0.0
 11
51.005187630653339
 21
191.75000131130241
 31
0.0
  0
LINE
  5
1E24
  8
0
 10
51.005187630653339
 20
198.2499995827676
 30
0.0
 11
60.05250156086899
 21
198.2499995827676
 31
0.0
  0
LINE
  5
1E27
  8
0
 10
60.897893458604813
 20
188.00000116229069
 30
0.0
 11
58.401168510317802
 21
188.00000116229069
 31
0.0
  0
LINE
  5
1E29
  8
0
 10
58.401168510317802
 20
201.99999973177921
 30
0.0
 11
60.901123285293572
 21
201.99999973177921
 31
0.0
  0
LINE
  5
1E2C
  8
0
 10
55.00000268220905
 20
209.0000008791686
 30
0.0
 11
55.00000268220905
 21
201.99999973177921
 31
0.0
  0
LINE
  5
1E2E
  8
0
 10
50.0
 20
201.99999973177921
 30
0.0
 11
50.0
 21
209.0000008791686
 31
0.0
  0
LINE
  5
1E2F
  8
0
 10
50.0
 20
209.0000008791686
 30
0.0
 11
125.0000029802322
 21
209.0000008791686
 31
0.0
  0
LINE
  5
1E30
  8
0
 10
55.00000268220905
 20
188.00000116229069
 30
0.0
 11
55.00000268220905
 21
172.00000040233141
 31
0.0
  0
LINE
  5
1E31
  8
0
 10
125.0000029802322
 20
172.00000040233141
 30
0.0
 11
50.0
 21
172.00000040233141
 31
0.0
  0
LINE
  5
1E32
  8
0
 10
50.0
 20
172.00000040233141
 30
0.0
 11
50.0
 21
188.00000116229069
 31
0.0
  0
ARC
  5
1E34
  8
0
 10
62.000001490116141
 20
205.50000040233149
 30
0.0
 40
1.75
 50
310.71847104948881
 51
282.40498590427688
  0
LINE
  5
1E36
  8
0
 10
74.500001221895246
 20
188.00000116229069
 30
0.0
 11
74.500001221895246
 21
201.99999973177921
 31
0.0
  0
LINE
  5
1E37
  8
0
 10
120.0000002980232
 20
172.00000040233141
 30
0.0
 11
120.0000002980232
 21
209.0000008791686
 31
0.0
  0
CIRCLE
  5
1E38
  8
0
 10
113.00000149011611
 20
176.00000040233141
 30
0.0
 40
1.2499999999999889
  0
CIRCLE
  5
1E39
  8
0
 10
113.00000149011611
 20
192.00000040233141
 30
0.0
 40
1.75
  0
LINE
  5
1E3A
  8
0
 10
50.0
 20
188.00000116229069
 30
0.0
 11
60.897893458604841
 21
188.00000116229069
 31
0.0
  0
LINE
  5
1E3B
  8
0
 10
73.750001564621954
 20
188.00000116229069
 30
0.0
 11
74.500001221895246
 21
188.00000116229069
 31
0.0
  0
LINE
  5
1E3C
  8
0
 10
74.500001221895246
 20
201.99999973177921
 30
0.0
 11
73.750001564621954
 21
201.99999973177921
 31
0.0
  0
LINE
  5
1E3D
  8
0
 10
60.901123285293608
 20
201.99999973177921
 30
0.0
 11
50.0
 21
201.99999973177921
 31
0.0
  0
CIRCLE
  5
1E40
  8
0
 10
62.000001490116141
 20
205.50000040233149
 30
0.0
 40
1.25
  0
CIRCLE
  5
1E41
  8
0
 10
113.00000149011611
 20
192.00000040233141
 30
0.0
 40
1.25
  0
LINE
  5
1E42
  8
0
 10
125.0000029802322
 20
209.0000008791686
 30
0.0
 11
125.0000029802322
 21
172.00000040233141
 31
0.0
  0
LINE
  5
1E45
  8
0
 10
114.2500016838311
 20
176.00000059232119
 30
0.0
 11
111.8515256792306
 21
176.00000059232119
 31
0.0
  0
POLYLINE
  5
1E46
  8
0
 66
     1
 10
0.0
 20
0.0
 30
0.0
 70
   128
  0
VERTEX
  5
2F2A
  8
0
 10
73.689007386565365
 20
187.8540964424611
 30
0.0
  0
VERTEX
  5
2F2B
  8
0
 10
73.749113082885884
 20
187.65490889549261
 30
0.0
  0
VERTEX
  5
2F2C
  8
0
 10
73.750001564622025
 20
187.64135442674171
 30
0.0
  0
SEQEND
  5
2F2D
  8
0
  0
POLYLINE
  5
1E47
  8
0
 66
     1
 10
0.0
 20
0.0
 30
0.0
 70
   128
  0
VERTEX
  5
2F2E
  8
0
 10
73.750001564622053
 20
202.35957965254801
 30
0.0
  0
VERTEX
  5
2F2F
  8
0
 10
73.749350570142411
 20
202.34799958765521
 30
0.0
  0
VERTEX
  5
2F30
  8
0
 10
73.689007386565365
 20
202.1459044516088
 30
0.0
  0
SEQEND
  5
2F31
  8
0
  0
POLYLINE
  5
1E48
  8
0
 66
     1
 10
0.0
 20
0.0
 30
0.0
 70
   128
  0
VERTEX
  5
2F32
  8
0
 10
73.009862750768818
 20
199.40000042319309
 30
0.0
  0
VERTEX
  5
2F33
  8
0
 10
73.012637160718597
 20
199.54464972019201
 30
0.0
  0
VERTEX
  5
2F34
  8
0
 10
73.063447326421894
 20
200.02750694751751
 30
0.0
  0
VERTEX
  5
2F35
  8
0
 10
73.167184554040588
 20
200.44229939579981
 30
0.0
  0
VERTEX
  5
2F36
  8
0
 10
73.302339017391361
 20
200.74691265821471
 30
0.0
  0
VERTEX
  5
2F37
  8
0
 10
73.441968485713161
 20
200.90437136590489
 30
0.0
  0
VERTEX
  5
2F38
  8
0
 10
73.561550304293789
 20
200.89303717017191
 30
0.0
  0
VERTEX
  5
2F39
  8
0
 10
73.647438734769977
 20
200.71243509650239
 30
0.0
  0
VERTEX
  5
2F3A
  8
0
 10
73.653092794120468
 20
200.6759160757066
 30
0.0
  0
SEQEND
  5
2F3B
  8
0
  0
POLYLINE
  5
1E49
  8
0
 66
     1
 10
0.0
 20
0.0
 30
0.0
 70
   128
  0
VERTEX
  5
2F3C
  8
0
 10
73.646865040064014
 20
198.1199981272222
 30
0.0
  0
VERTEX
  5
2F3D
  8
0
 10
73.609072901308693
 20
197.97693952918061
 30
0.0
  0
VERTEX
  5
2F3E
  8
0
 10
73.505912162363686
 20
197.8797262161971
 30
0.0
  0
VERTEX
  5
2F3F
  8
0
 10
73.373502306640304
 20
197.95390605926519
 30
0.0
  0
VERTEX
  5
2F40
  8
0
 10
73.230904713273205
 20
198.1925928592683
 30
0.0
  0
VERTEX
  5
2F41
  8
0
 10
73.105900734663166
 20
198.5698753595353
 30
0.0
  0
VERTEX
  5
2F42
  8
0
 10
73.027155548334278
 20
199.04014483094221
 30
0.0
  0
VERTEX
  5
2F43
  8
0
 10
73.009862750768818
 20
199.40000042319309
 30
0.0
  0
SEQEND
  5
2F44
  8
0
  0
POLYLINE
  5
1E4A
  8
0
 66
     1
 10
0.0
 20
0.0
 30
0.0
 70
   128
  0
VERTEX
  5
2F45
  8
0
 10
73.009862750768818
 20
195.00000044703489
 30
0.0
  0
VERTEX
  5
2F46
  8
0
 10
73.012637160718597
 20
195.1446497440339
 30
0.0
  0
VERTEX
  5
2F47
  8
0
 10
73.063447326421894
 20
195.62750697135931
 30
0.0
  0
VERTEX
  5
2F48
  8
0
 10
73.167184554040588
 20
196.04229941964161
 30
0.0
  0
VERTEX
  5
2F49
  8
0
 10
73.302339017391361
 20
196.34691268205651
 30
0.0
  0
VERTEX
  5
2F4A
  8
0
 10
73.441968485713161
 20
196.50437138974681
 30
0.0
  0
VERTEX
  5
2F4B
  8
0
 10
73.561550304293789
 20
196.49303719401371
 30
0.0
  0
VERTEX
  5
2F4C
  8
0
 10
73.647438734769977
 20
196.3124351203443
 30
0.0
  0
VERTEX
  5
2F4D
  8
0
 10
73.653092794120468
 20
196.2759160995484
 30
0.0
  0
SEQEND
  5
2F4E
  8
0
  0
POLYLINE
  5
1E4B
  8
0
 66
     1
 10
0.0
 20
0.0
 30
0.0
 70
   128
  0
VERTEX
  5
2F4F
  8
0
 10
73.646865040064014
 20
193.719998151064
 30
0.0
  0
VERTEX
  5
2F50
  8
0
 10
73.609072901308693
 20
193.5769395530225
 30
0.0
  0
VERTEX
  5
2F51
  8
0
 10
73.505912162363686
 20
193.47972624003901
 30
0.0
  0
VERTEX
  5
2F52
  8
0
 10
73.373502306640304
 20
193.55390608310711
 30
0.0
  0
VERTEX
  5
2F53
  8
0
 10
73.230904713273205
 20
193.7925928831101
 30
0.0
  0
VERTEX
  5
2F54
  8
0
 10
73.105900734663166
 20
194.16987538337719
 30
0.0
  0
VERTEX
  5
2F55
  8
0
 10
73.027155548334278
 20
194.6401448547841
 30
0.0
  0
VERTEX
  5
2F56
  8
0
 10
73.009862750768818
 20
195.00000044703489
 30
0.0
  0
SEQEND
  5
2F57
  8
0
  0
POLYLINE
  5
1E4C
  8
0
 66
     1
 10
0.0
 20
0.0
 30
0.0
 70
   128
  0
VERTEX
  5
2F58
  8
0
 10
73.009862750768818
 20
190.60000047087681
 30
0.0
  0
VERTEX
  5
2F59
  8
0
 10
73.012637160718597
 20
190.74464976787581
 30
0.0
  0
VERTEX
  5
2F5A
  8
0
 10
73.063447326421894
 20
191.2275069952012
 30
0.0
  0
VERTEX
  5
2F5B
  8
0
 10
73.167184554040588
 20
191.64229944348341
 30
0.0
  0
VERTEX
  5
2F5C
  8
0
 10
73.302339017391361
 20
191.9469127058984
 30
0.0
  0
VERTEX
  5
2F5D
  8
0
 10
73.441968485713161
 20
192.10437141358861
 30
0.0
  0
VERTEX
  5
2F5E
  8
0
 10
73.561550304293789
 20
192.09303721785551
 30
0.0
  0
VERTEX
  5
2F5F
  8
0
 10
73.647438734769977
 20
191.91243514418611
 30
0.0
  0
VERTEX
  5
2F60
  8
0
 10
73.653092794120468
 20
191.87591612339031
 30
0.0
  0
SEQEND
  5
2F61
  8
0
  0
POLYLINE
  5
1E4D
  8
0
 66
     1
 10
0.0
 20
0.0
 30
0.0
 70
   128
  0
VERTEX
  5
2F62
  8
0
 10
73.646865040064014
 20
189.31999817490589
 30
0.0
  0
VERTEX
  5
2F63
  8
0
 10
73.609072901308693
 20
189.1769395768643
 30
0.0
  0
VERTEX
  5
2F64
  8
0
 10
73.505912162363686
 20
189.07972626388079
 30
0.0
  0
VERTEX
  5
2F65
  8
0
 10
73.373502306640304
 20
189.15390610694891
 30
0.0
  0
VERTEX
  5
2F66
  8
0
 10
73.230904713273205
 20
189.39259290695199
 30
0.0
  0
VERTEX
  5
2F67
  8
0
 10
73.105900734663166
 20
189.7698735445739
 30
0.0
  0
VERTEX
  5
2F68
  8
0
 10
73.027155548334278
 20
190.24014487862601
 30
0.0
  0
VERTEX
  5
2F69
  8
0
 10
73.009862750768818
 20
190.60000047087681
 30
0.0
  0
SEQEND
  5
2F6A
  8
0
  0
POLYLINE
  5
1E4E
  8
0
 66
     1
 10
0.0
 20
0.0
 30
0.0
 70
   128
  0
VERTEX
  5
2F6B
  8
0
 10
60.750001296401202
 20
189.00426492094999
 30
0.0
  0
VERTEX
  5
2F6C
  8
0
 10
60.750001296401202
 20
189.00426492094999
 30
0.0
  0
VERTEX
  5
2F6D
  8
0
 10
60.864043608308009
 20
189.60408695042139
 30
0.0
  0
VERTEX
  5
2F6E
  8
0
 10
61.147504672408282
 20
190.25283321738249
 30
0.0
  0
VERTEX
  5
2F6F
  8
0
 10
61.698124930262743
 20
191.19741037487989
 30
0.0
  0
VERTEX
  5
2F70
  8
0
 10
62.40187697112578
 20
192.30915807187569
 30
0.0
  0
VERTEX
  5
2F71
  8
0
 10
62.882886454463183
 20
193.14686223864561
 30
0.0
  0
VERTEX
  5
2F72
  8
0
 10
63.284547254443339
 20
194.11566682159909
 30
0.0
  0
VERTEX
  5
2F73
  8
0
 10
63.415137305855922
 20
195.10528087615981
 30
0.0
  0
VERTEX
  5
2F74
  8
0
 10
63.370836153626612
 20
195.517527088523
 30
0.0
  0
VERTEX
  5
2F75
  8
0
 10
63.170614838600329
 20
196.22073151171219
 30
0.0
  0
VERTEX
  5
2F76
  8
0
 10
62.861469760537318
 20
196.8942472338677
 30
0.0
  0
VERTEX
  5
2F77
  8
0
 10
62.692959979176692
 20
197.201872393489
 30
0.0
  0
VERTEX
  5
2F78
  8
0
 10
62.132590636611162
 20
198.11942815780651
 30
0.0
  0
VERTEX
  5
2F79
  8
0
 10
61.594951152801691
 20
198.96845348179349
 30
0.0
  0
VERTEX
  5
2F7A
  8
0
 10
61.244960129261187
 20
199.56451110541829
 30
0.0
  0
VERTEX
  5
2F7B
  8
0
 10
60.938506573438822
 20
200.19600741565239
 30
0.0
  0
VERTEX
  5
2F7C
  8
0
 10
60.769486427307299
 20
200.7675172388555
 30
0.0
  0
VERTEX
  5
2F7D
  8
0
 10
60.750001296401059
 20
200.99032312631621
 30
0.0
  0
SEQEND
  5
2F7E
  8
0
  0
ARC
  5
1E4F
  8
0
 10
46.604699552244199
 20
198.49224496632851
 30
0.0
 40
14.19224061200312
 50
355.33879479545362
 51
4.6612052045464489
  0
ARC
  5
1E50
  8
0
 10
46.604746834783242
 20
191.49224475026151
 30
0.0
 40
14.192193410162121
 50
355.33878303080218
 51
4.6612169691977767
  0
POLYLINE
  5
1E54
  8
0
 66
     1
 10
0.0
 20
0.0
 30
0.0
 70
   128
  0
VERTEX
  5
2F7F
  8
0
 10
66.796015202999257
 20
204.4124921411277
 30
0.0
  0
VERTEX
  5
2F80
  8
0
 10
66.925701871514462
 20
204.38274569809451
 30
0.0
  0
VERTEX
  5
2F81
  8
0
 10
67.020439729094662
 20
204.29278738796719
 30
0.0
  0
VERTEX
  5
2F82
  8
0
 10
66.943436115980305
 20
204.176506176591
 30
0.0
  0
VERTEX
  5
2F83
  8
0
 10
66.701892018318333
 20
204.05091173946869
 30
0.0
  0
VERTEX
  5
2F84
  8
0
 10
66.322530806064762
 20
203.94095607101929
 30
0.0
  0
VERTEX
  5
2F85
  8
0
 10
65.851264819502987
 20
203.87212015688431
 30
0.0
  0
VERTEX
  5
2F86
  8
0
 10
65.500001609325565
 20
203.85752074420461
 30
0.0
  0
VERTEX
  5
2F87
  8
0
 10
65.346137806773342
 20
203.86030353605759
 30
0.0
  0
VERTEX
  5
2F88
  8
0
 10
64.862930402159847
 20
203.90651203691971
 30
0.0
  0
VERTEX
  5
2F89
  8
0
 10
64.449076727032818
 20
203.99937979877009
 30
0.0
  0
VERTEX
  5
2F8A
  8
0
 10
64.147225767374195
 20
204.11913670599469
 30
0.0
  0
VERTEX
  5
2F8B
  8
0
 10
63.993762433529056
 20
204.2415571957828
 30
0.0
  0
VERTEX
  5
2F8C
  8
0
 10
63.981597498059429
 20
204.30402286350741
 30
0.0
  0
VERTEX
  5
2F8D
  8
0
 10
63.981597498059429
 20
204.30402286350741
 30
0.0
  0
SEQEND
  5
2F8E
  8
0
  0
ARC
  5
1E5F
  8
0
 10
63.332714372759
 20
198.22193778899469
 30
0.0
 40
3.1453837588319389
 50
174.9282433101653
 51
195.79423627419601
  0
ARC
  5
1E60
  8
0
 10
62.63493700340797
 20
198.8425263225075
 30
0.0
 40
2.4592618324538149
 50
161.21488198460591
 51
188.00619086927341
  0
POLYLINE
  5
1E63
  8
0
 66
     1
 10
0.0
 20
0.0
 30
0.0
 70
   128
  0
VERTEX
  5
2F8F
  8
0
 10
74.042413870072025
 20
193.8750180026758
 30
0.0
  0
VERTEX
  5
2F90
  8
0
 10
73.981457576155819
 20
193.87117601931101
 30
0.0
  0
VERTEX
  5
2F91
  8
0
 10
73.87931756675259
 20
193.97296771407139
 30
0.0
  0
VERTEX
  5
2F92
  8
0
 10
73.782798089087166
 20
194.19569350779071
 30
0.0
  0
VERTEX
  5
2F93
  8
0
 10
73.709887638688244
 20
194.5106891542674
 30
0.0
  0
VERTEX
  5
2F94
  8
0
 10
73.674432188272633
 20
194.87659461796289
 30
0.0
  0
VERTEX
  5
2F95
  8
0
 10
73.674180731177486
 20
195.11655174195781
 30
0.0
  0
VERTEX
  5
2F96
  8
0
 10
73.708186112344421
 20
195.4785735905171
 30
0.0
  0
VERTEX
  5
2F97
  8
0
 10
73.777180351317085
 20
195.7863160967828
 30
0.0
  0
VERTEX
  5
2F98
  8
0
 10
73.868932388723053
 20
196.0095503926278
 30
0.0
  0
VERTEX
  5
2F99
  8
0
 10
73.969262838363804
 20
196.1234008520843
 30
0.0
  0
VERTEX
  5
2F9A
  8
0
 10
74.041466414928593
 20
196.11914470791831
 30
0.0
  0
SEQEND
  5
2F9B
  8
0
  0
POLYLINE
  5
1E64
  8
0
 66
     1
 10
0.0
 20
0.0
 30
0.0
 70
   128
  0
VERTEX
  5
2F9C
  8
0
 10
74.042413870072025
 20
198.27501800267589
 30
0.0
  0
VERTEX
  5
2F9D
  8
0
 10
73.981457576155819
 20
198.27117599546921
 30
0.0
  0
VERTEX
  5
2F9E
  8
0
 10
73.87931756675259
 20
198.3729676902295
 30
0.0
  0
VERTEX
  5
2F9F
  8
0
 10
73.782798089087166
 20
198.59569348394879
 30
0.0
  0
VERTEX
  5
2FA0
  8
0
 10
73.709887638688244
 20
198.91068913042551
 30
0.0
  0
VERTEX
  5
2FA1
  8
0
 10
73.674432188272633
 20
199.27659459412109
 30
0.0
  0
VERTEX
  5
2FA2
  8
0
 10
73.674180731177486
 20
199.51655171811589
 30
0.0
  0
VERTEX
  5
2FA3
  8
0
 10
73.708186112344421
 20
199.87857542932039
 30
0.0
  0
VERTEX
  5
2FA4
  8
0
 10
73.777180351317085
 20
200.18631607294091
 30
0.0
  0
VERTEX
  5
2FA5
  8
0
 10
73.868932388723053
 20
200.409550368786
 30
0.0
  0
VERTEX
  5
2FA6
  8
0
 10
73.969262838363804
 20
200.52340082824239
 30
0.0
  0
VERTEX
  5
2FA7
  8
0
 10
74.043874066282413
 20
200.52427436774619
 30
0.0
  0
SEQEND
  5
2FA8
  8
0
  0
POLYLINE
  5
1E65
  8
0
 66
     1
 10
0.0
 20
0.0
 30
0.0
 70
   128
  0
VERTEX
  5
2FA9
  8
0
 10
74.042413870072025
 20
189.47501800267591
 30
0.0
  0
VERTEX
  5
2FAA
  8
0
 10
73.981457576155819
 20
189.47117604315289
 30
0.0
  0
VERTEX
  5
2FAB
  8
0
 10
73.87931756675259
 20
189.57296773791319
 30
0.0
  0
VERTEX
  5
2FAC
  8
0
 10
73.782798089087166
 20
189.79569353163251
 30
0.0
  0
VERTEX
  5
2FAD
  8
0
 10
73.709887638688244
 20
190.11068917810931
 30
0.0
  0
VERTEX
  5
2FAE
  8
0
 10
73.674432188272633
 20
190.47659464180481
 30
0.0
  0
VERTEX
  5
2FAF
  8
0
 10
73.674180731177486
 20
190.71655176579961
 30
0.0
  0
VERTEX
  5
2FB0
  8
0
 10
73.708186112344421
 20
191.07857361435899
 30
0.0
  0
VERTEX
  5
2FB1
  8
0
 10
73.777180351317085
 20
191.3863161206246
 30
0.0
  0
VERTEX
  5
2FB2
  8
0
 10
73.868932388723053
 20
191.60955041646969
 30
0.0
  0
VERTEX
  5
2FB3
  8
0
 10
73.969262838363804
 20
191.7234008759261
 30
0.0
  0
VERTEX
  5
2FB4
  8
0
 10
74.043874066282413
 20
191.7242743677462
 30
0.0
  0
SEQEND
  5
2FB5
  8
0
  0
POLYLINE
  5
1E6F
  8
0
 66
     1
 10
0.0
 20
0.0
 30
0.0
 70
   128
  0
VERTEX
  5
2FB6
  8
0
 10
64.195237308740744
 20
204.40646834671509
 30
0.0
  0
VERTEX
  5
2FB7
  8
0
 10
64.082277193665647
 20
204.38122577965271
 30
0.0
  0
VERTEX
  5
2FB8
  8
0
 10
63.981597498059429
 20
204.30402286350741
 30
0.0
  0
SEQEND
  5
2FB9
  8
0
  0
POLYLINE
  5
1E74
  8
0
 66
     1
 10
0.0
 20
0.0
 30
0.0
 70
   128
  0
VERTEX
  5
2FBA
  8
0
 10
66.625126908750957
 20
204.83169154769629
 30
0.0
  0
VERTEX
  5
2FBB
  8
0
 10
66.628574579954304
 20
204.77778665721431
 30
0.0
  0
VERTEX
  5
2FBC
  8
0
 10
66.526140272617496
 20
204.68890123069301
 30
0.0
  0
VERTEX
  5
2FBD
  8
0
 10
66.303323209285892
 20
204.60470594465741
 30
0.0
  0
VERTEX
  5
2FBE
  8
0
 10
65.988558530807651
 20
204.54096622765081
 30
0.0
  0
VERTEX
  5
2FBF
  8
0
 10
65.622580423951305
 20
204.509927108884
 30
0.0
  0
VERTEX
  5
2FC0
  8
0
 10
65.383869409561314
 20
204.50971849262729
 30
0.0
  0
VERTEX
  5
2FC1
  8
0
 10
65.021322295069851
 20
204.53959532082089
 30
0.0
  0
VERTEX
  5
2FC2
  8
0
 10
64.713030308485187
 20
204.60023932158961
 30
0.0
  0
VERTEX
  5
2FC3
  8
0
 10
64.489747583866276
 20
204.68066461384311
 30
0.0
  0
VERTEX
  5
2FC4
  8
0
 10
64.376381412148632
 20
204.76814188063159
 30
0.0
  0
VERTEX
  5
2FC5
  8
0
 10
64.381255954504169
 20
204.8283500224353
 30
0.0
  0
SEQEND
  5
2FC6
  8
0
  0
ARC
  5
1E78
  8
0
 10
71.747005865331019
 20
187.53420345865069
 30
0.0
 40
1.9682115903145521
 50
270.8199681527604
 51
321.09560684605623
  0
ARC
  5
1E79
  8
0
 10
71.747002931611306
 20
202.4657948142254
 30
0.0
 40
1.9682151033252779
 50
38.889185798728917
 51
89.179969388005958
  0
POLYLINE
  5
1E92
  8
0
 66
     1
 10
0.0
 20
0.0
 30
0.0
 70
   128
  0
VERTEX
  5
2FC7
  8
0
 10
475.31678564178122
 20
185.30961449232609
 30
0.0
  0
VERTEX
  5
2FC8
  8
0
 10
475.30003742772931
 20
185.34999355673801
 30
0.0
  0
VERTEX
  5
2FC9
  8
0
 10
475.25068105656499
 20
185.4202562570573
 30
0.0
  0
VERTEX
  5
2FCA
  8
0
 10
475.1954163749873
 20
185.46630457043659
 30
0.0
  0
VERTEX
  5
2FCB
  8
0
 10
475.14151514965891
 20
185.49390897154819
 30
0.0
  0
VERTEX
  5
2FCC
  8
0
 10
475.0943194468677
 20
185.50799801945701
 30
0.0
  0
VERTEX
  5
2FCD
  8
0
 10
475.05747260052561
 20
185.51341086626061
 30
0.0
  0
VERTEX
  5
2FCE
  8
0
 10
475.03306449848998
 20
185.51445767283451
 30
0.0
  0
VERTEX
  5
2FCF
  8
0
 10
475.02475337583422
 20
185.51436081528669
 30
0.0
  0
VERTEX
  5
2FD0
  8
0
 10
475.02170236307973
 20
185.51426768302929
 30
0.0
  0
VERTEX
  5
2FD1
  8
0
 10
475.02023087341178
 20
185.51421180367481
 30
0.0
  0
VERTEX
  5
2FD2
  8
0
 10
475.01901456204001
 20
185.51419376404769
 30
0.0
  0
VERTEX
  5
2FD3
  8
0
 10
475.01901456204001
 20
185.51419376404769
 30
0.0
  0
VERTEX
  5
2FD4
  8
0
 10
475.01901456204001
 20
185.51419376404769
 30
0.0
  0
VERTEX
  5
2FD5
  8
0
 10
475.01901456204001
 20
185.51419376404769
 30
0.0
  0
SEQEND
  5
2FD6
  8
0
  0
ARC
  5
1E93
  8
0
 10
478.04248083056018
 20
185.86291141477281
 30
0.0
 40
0.2998188930208123
 50
111.7182799957159
 51
185.61193695207771
  0
ARC
  5
1E94
  8
0
 10
476.49993781644702
 20
185.71291454388009
 30
0.0
 40
1.249999999999996
 50
0.0
 51
5.5400782981853069
  0
ARC
  5
1E95
  8
0
 10
476.49993738278579
 20
185.7129143620698
 30
0.0
 40
1.2499995308710701
 50
198.82265727764221
 51
214.4779916031431
  0
ARC
  5
1E96
  8
0
 10
476.5016786870321
 20
185.71283618184191
 30
0.0
 40
1.248259131874587
 50
349.66051315324989
 51
0.0035968605813477
  0
ARC
  5
1E97
  8
0
 10
477.43499597006308
 20
185.54508650944391
 30
0.0
 40
0.299999999999996
 50
287.24573713803312
 51
349.18565377807499
  0
ARC
  5
1E98
  8
0
 10
475.7168464220087
 20
185.1750782607474
 30
0.0
 40
0.3000000000000063
 50
214.4661266251421
 51
276.93493329679688
  0
ARC
  5
1E99
  8
0
 10
469.95018266430162
 20
185.9699447257961
 30
0.0
 40
0.2999973107153843
 50
358.45669278991028
 51
77.421515385985671
  0
POLYLINE
  5
1E9A
  8
0
 66
     1
 10
0.0
 20
0.0
 30
0.0
 70
   128
  0
VERTEX
  5
2FD7
  8
0
 10
472.96546438358308
 20
185.62474944616611
 30
0.0
  0
VERTEX
  5
2FD8
  8
0
 10
472.96546438358308
 20
185.62474944616611
 30
0.0
  0
VERTEX
  5
2FD9
  8
0
 10
472.96546438358308
 20
185.62474944616611
 30
0.0
  0
VERTEX
  5
2FDA
  8
0
 10
472.96546438358308
 20
185.62474944616611
 30
0.0
  0
VERTEX
  5
2FDB
  8
0
 10
472.96546438358308
 20
185.62474944616611
 30
0.0
  0
VERTEX
  5
2FDC
  8
0
 10
472.96546438358308
 20
185.62474944616611
 30
0.0
  0
VERTEX
  5
2FDD
  8
0
 10
472.96546438358308
 20
185.62474944616611
 30
0.0
  0
VERTEX
  5
2FDE
  8
0
 10
472.9649733145892
 20
185.62475979328161
 30
0.0
  0
VERTEX
  5
2FDF
  8
0
 10
472.96241031486392
 20
185.62511369585999
 30
0.0
  0
VERTEX
  5
2FE0
  8
0
 10
472.95516462523341
 20
185.6259891390801
 30
0.0
  0
VERTEX
  5
2FE1
  8
0
 10
472.8666442771613
 20
185.6224389374257
 30
0.0
  0
VERTEX
  5
2FE2
  8
0
 10
472.80377627808451
 20
185.6031233072282
 30
0.0
  0
VERTEX
  5
2FE3
  8
0
 10
472.72420780259961
 20
185.5526046454907
 30
0.0
  0
VERTEX
  5
2FE4
  8
0
 10
472.6611572642982
 20
185.4745300114156
 30
0.0
  0
VERTEX
  5
2FE5
  8
0
 10
472.64646115772092
 20
185.44452034213219
 30
0.0
  0
SEQEND
  5
2FE6
  8
0
  0
ARC
  5
1E9B
  8
0
 10
471.4943831652364
 20
185.94239456417429
 30
0.0
 40
1.2444643367851651
 50
179.10353278748909
 51
192.9564649085099
  0
ARC
  5
1E9C
  8
0
 10
471.6652254452905
 20
185.85775711153559
 30
0.0
 40
1.064700967847628
 50
319.94926416437011
 51
337.16213552117358
  0
ARC
  5
1E9D
  8
0
 10
470.5724616205863
 20
185.7368429832913
 30
0.0
 40
0.2999953936128723
 50
194.176255879244
 51
257.89594309095742
  0
ARC
  5
1E9E
  8
0
 10
472.24599776159431
 20
185.35931698927971
 30
0.0
 40
0.2995077217339835
 50
254.87320410011441
 51
321.44853063462068
  0
LINE
  5
1E9F
  8
0
 10
476.41962127286791
 20
185.69597989320761
 30
0.0
 11
477.74931894142031
 21
186.0729904472829
 31
0.0
  0
POLYLINE
  5
1EA0
  8
0
 66
     1
 10
0.0
 20
0.0
 30
0.0
 70
   128
  0
VERTEX
  5
2FE7
  8
0
 10
475.50506622988581
 20
185.55332362651831
 30
0.0
  0
VERTEX
  5
2FE8
  8
0
 10
475.99883110720509
 20
185.61877697706231
 30
0.0
  0
VERTEX
  5
2FE9
  8
0
 10
476.41962127286791
 20
185.69597989320761
 30
0.0
  0
SEQEND
  5
2FEA
  8
0
  0
ARC
  5
1EA1
  8
0
 10
474.49994905647731
 20
195.00007784952859
 30
0.0
 40
9.5000750461374146
 50
256.73499768089039
 51
276.07331593189809
  0
ARC
  5
1EA2
  8
0
 10
474.50001831156459
 20
194.9996472646788
 30
0.0
 40
10.1996370100268
 50
277.05675628536881
 51
287.2458967068759
  0
ARC
  5
1EA3
  8
0
 10
452.98221709156348
 20
103.71975124258989
 30
0.0
 40
83.582184121458269
 50
76.729890680561283
 51
77.895119165257483
  0
LINE
  5
2484
  8
1
 10
486.4996362686731
 20
195.00000040233149
 30
0.0
 11
408.49186906117791
 21
195.00000040233149
 31
0.0
  0
LINE
  5
2485
  8
1
 10
420.99993781644719
 20
222.00000219047081
 30
0.0
 11
420.99993781644719
 21
167.00000040233141
 31
0.0
  0
LINE
  5
24D6
  8
0
 10
176.0365843911826
 20
204.3750119954349
 30
0.0
 11
175.70255424983759
 21
204.37586614791951
 31
0.0
  0
LINE
  5
24DB
  8
1
 10
162.50023760588391
 20
195.00000040233149
 30
0.0
 11
240.5080048133791
 21
195.00000040233149
 31
0.0
  0
LINE
  5
24DC
  8
1
 10
227.99993605810991
 20
222.00000219047081
 30
0.0
 11
227.99993605810991
 21
167.00000040233141
 31
0.0
  0
LINE
  5
2531
  8
2
 10
302.99993741411561
 20
216.4765021904708
 30
0.0
 11
302.99993741411561
 21
202.00000219047081
 31
0.0
  0
LINE
  5
2532
  8
2
 10
302.3234374141158
 20
215.80000219047079
 30
0.0
 11
302.32343741411569
 21
198.00000219047081
 31
0.0
  0
LINE
  5
2533
  8
2
 10
295.67643741411553
 20
215.80000219047091
 30
0.0
 11
295.67643741411553
 21
198.00000219047081
 31
0.0
  0
LINE
  5
2534
  8
2
 10
294.99993741411561
 20
216.4765021904708
 30
0.0
 11
294.99993741411561
 21
202.00000219047081
 31
0.0
  0
LINE
  5
2535
  8
2
 10
295.67643741411541
 20
198.00000219047081
 30
0.0
 11
298.99993741411561
 21
196.0030419231326
 31
0.0
  0
LINE
  5
2536
  8
2
 10
302.3234374141158
 20
198.00000219047081
 30
0.0
 11
298.99993741411561
 21
196.0030419231326
 31
0.0
  0
LINE
  5
2537
  8
2
 10
302.99993741411561
 20
202.00000219047081
 30
0.0
 11
294.99993741411561
 21
202.00000219047081
 31
0.0
  0
LINE
  5
2538
  8
2
 10
302.32343741411569
 20
198.00000219047081
 30
0.0
 11
295.67643741411553
 21
198.00000219047081
 31
0.0
  0
LINE
  5
2539
  8
2
 10
294.99993741411561
 20
202.00000219047081
 30
0.0
 11
295.67643741411553
 21
200.82826981915059
 31
0.0
  0
LINE
  5
253A
  8
2
 10
302.99993741411549
 20
202.00000219047081
 30
0.0
 11
302.32343741411557
 21
200.82826981915059
 31
0.0
  0
LINE
  5
253B
  8
2
 10
295.67643741411558
 20
215.80000219047079
 30
0.0
 11
302.32343741411569
 21
215.80000219047079
 31
0.0
  0
LINE
  5
253C
  8
2
 10
295.67643741411558
 20
215.80000219047079
 30
0.0
 11
294.47643741411559
 21
217.00000219047081
 31
0.0
  0
LINE
  5
253D
  8
2
 10
302.32343741411557
 20
215.80000219047079
 30
0.0
 11
303.52343741411568
 21
217.00000219047081
 31
0.0
  0
LINE
  5
2583
  8
1
 10
298.99993741411572
 20
193.5030419231326
 30
0.0
 11
298.99993741411572
 21
219.50000219047081
 31
0.0
  0
LINE
  5
25CA
  8
2
 10
305.49993693727851
 20
197.0000008791686
 30
0.0
 11
305.49993693727851
 21
209.0000008791686
 31
0.0
  0
LINE
  5
25CB
  8
2
 10
316.49993693727851
 20
197.0000008791686
 30
0.0
 11
316.49993693727851
 21
209.0000008791686
 31
0.0
  0
LINE
  5
25CC
  8
2
 10
305.49993693727851
 20
197.0000008791686
 30
0.0
 11
316.49993693727851
 21
197.0000008791686
 31
0.0
  0
LINE
  5
25CD
  8
2
 10
307.69993693727849
 20
197.0000008791686
 30
0.0
 11
307.69993693727849
 21
172.00000040233141
 31
0.0
  0
LINE
  5
25CE
  8
2
 10
314.29993693727857
 20
197.0000008791686
 30
0.0
 11
314.29993693727857
 21
172.00000040233141
 31
0.0
  0
LINE
  5
2655
  8
1
 10
310.99993693727851
 20
169.50000040233141
 30
0.0
 11
310.99993693727851
 21
211.5000008791686
 31
0.0
  0
ARC
  5
269D
  8
0
 10
339.13070431531372
 20
200.17085867778661
 30
0.0
 40
1.33565640702598
 50
194.48141100589609
 51
212.15620468342991
  0
LINE
  5
26E2
  8
1
 10
349.99993693727851
 20
204.49999973177921
 30
0.0
 11
349.99993693727851
 21
185.50000116229069
 31
0.0
  0
ARC
  5
26EA
  8
0
 10
60.552483546652347
 20
190.05045076272859
 30
0.0
 40
0.2263476893045836
 50
29.234301939682179
 51
81.190114884818243
  0
ARC
  5
26EB
  8
0
 10
60.556478993591263
 20
192.94386140173671
 30
0.0
 40
0.2201630169587903
 50
277.88651472949971
 51
331.52142848488978
  0
ARC
  5
26EC
  8
0
 10
60.831560896401911
 20
191.5000004917384
 30
0.0
 40
1.2500000000000191
 50
101.29721151573
 51
115.5148504021012
  0
ARC
  5
26ED
  8
0
 10
60.831560896401911
 20
191.5000004917384
 30
0.0
 40
1.2500000000000271
 50
244.39656249728179
 51
258.72439457105122
  0
POLYLINE
  5
26EE
  8
0
 66
     1
 10
0.0
 20
0.0
 30
0.0
 70
   128
  0
VERTEX
  5
2FEB
  8
0
 10
60.291386078733758
 20
190.37274223989141
 30
0.0
  0
VERTEX
  5
2FEC
  8
0
 10
60.214390233159243
 20
190.42592138052001
 30
0.0
  0
VERTEX
  5
2FED
  8
0
 10
60.150332003832041
 20
190.50413571298131
 30
0.0
  0
VERTEX
  5
2FEE
  8
0
 10
60.109979659319102
 20
190.5906872451306
 30
0.0
  0
VERTEX
  5
2FEF
  8
0
 10
60.079430416226558
 20
190.7181368768216
 30
0.0
  0
VERTEX
  5
2FF0
  8
0
 10
60.058529675007037
 20
190.9585447609426
 30
0.0
  0
VERTEX
  5
2FF1
  8
0
 10
60.05249097943323
 20
191.2218147516252
 30
0.0
  0
VERTEX
  5
2FF2
  8
0
 10
60.05130447447317
 20
191.50158405303961
 30
0.0
  0
SEQEND
  5
2FF3
  8
0
  0
POLYLINE
  5
26EF
  8
0
 66
     1
 10
0.0
 20
0.0
 30
0.0
 70
   128
  0
VERTEX
  5
2FF4
  8
0
 10
60.053055360913447
 20
191.79560631513601
 30
0.0
  0
VERTEX
  5
2FF5
  8
0
 10
60.055176913738421
 20
191.93995758891111
 30
0.0
  0
VERTEX
  5
2FF6
  8
0
 10
60.068023577332667
 20
192.18854621052751
 30
0.0
  0
VERTEX
  5
2FF7
  8
0
 10
60.11284068226832
 20
192.41740755736839
 30
0.0
  0
VERTEX
  5
2FF8
  8
0
 10
60.173179209232501
 20
192.52906940877449
 30
0.0
  0
VERTEX
  5
2FF9
  8
0
 10
60.265741497278391
 20
192.6128437370063
 30
0.0
  0
VERTEX
  5
2FFA
  8
0
 10
60.293129618912431
 20
192.62809257992151
 30
0.0
  0
SEQEND
  5
2FFB
  8
0
  0
POLYLINE
  5
26F0
  8
0
 66
     1
 10
0.0
 20
0.0
 30
0.0
 70
   128
  0
VERTEX
  5
2FFC
  8
0
 10
60.053055360913447
 20
191.79560631513601
 30
0.0
  0
VERTEX
  5
2FFD
  8
0
 10
60.052625089883982
 20
191.77733004093179
 30
0.0
  0
VERTEX
  5
2FFE
  8
0
 10
60.051371529698542
 20
191.50000080466279
 30
0.0
  0
SEQEND
  5
2FFF
  8
0
  0
ARC
  5
26F1
  8
0
 10
63.332714372759
 20
191.77806310507509
 30
0.0
 40
3.1453837588319389
 50
164.20576372580061
 51
185.071756689838
  0
ARC
  5
26F2
  8
0
 10
62.63493700340797
 20
191.1574745715624
 30
0.0
 40
2.4592618324538149
 50
171.99380913072989
 51
198.78511801539071
  0
ARC
  5
26F5
  8
0
 10
71.948402971724008
 20
204.58235003570249
 30
0.0
 40
0.2281967801428907
 50
191.9175162378705
 51
228.1031567987695
  0
POLYLINE
  5
26F6
  8
0
 66
     1
 10
0.0
 20
0.0
 30
0.0
 70
   128
  0
VERTEX
  5
3000
  8
0
 10
69.274477846920647
 20
204.53797854483139
 30
0.0
  0
VERTEX
  5
3001
  8
0
 10
69.220381043851532
 20
204.4270878285171
 30
0.0
  0
VERTEX
  5
3002
  8
0
 10
69.195237196982035
 20
204.40646834671509
 30
0.0
  0
VERTEX
  5
3003
  8
0
 10
69.195237196982035
 20
204.40646834671509
 30
0.0
  0
SEQEND
  5
3004
  8
0
  0
ARC
  5
26F7
  8
0
 10
70.206157307975062
 20
204.36019146212831
 30
0.0
 40
0.9484908354468302
 50
150.42367212067711
 51
169.1964563562874
  0
ARC
  5
26F8
  8
0
 10
70.500001378357581
 20
204.2870882128349
 30
0.0
 40
1.2500000000000011
 50
11.44988488445982
 51
25.8287410520587
  0
POLYLINE
  5
26F9
  8
0
 66
     1
 10
0.0
 20
0.0
 30
0.0
 70
   128
  0
VERTEX
  5
3005
  8
0
 10
71.625126796992248
 20
204.83169154769629
 30
0.0
  0
VERTEX
  5
3006
  8
0
 10
71.604425273835815
 20
204.86720107495799
 30
0.0
  0
VERTEX
  5
3007
  8
0
 10
71.526566706597961
 20
204.95249904692179
 30
0.0
  0
VERTEX
  5
3008
  8
0
 10
71.428153850138344
 20
205.01286737620839
 30
0.0
  0
VERTEX
  5
3009
  8
0
 10
71.278184838593134
 20
205.06290920078769
 30
0.0
  0
VERTEX
  5
300A
  8
0
 10
71.023905836045884
 20
205.10260961949839
 30
0.0
  0
VERTEX
  5
300B
  8
0
 10
70.744104869663843
 20
205.1206325739623
 30
0.0
  0
VERTEX
  5
300C
  8
0
 10
70.500023849308633
 20
205.12492410838621
 30
0.0
  0
SEQEND
  5
300D
  8
0
  0
POLYLINE
  5
26FA
  8
0
 66
     1
 10
0.0
 20
0.0
 30
0.0
 70
   128
  0
VERTEX
  5
300E
  8
0
 10
70.500023849308633
 20
205.12492410838621
 30
0.0
  0
VERTEX
  5
300F
  8
0
 10
70.339266397059106
 20
205.12309126555931
 30
0.0
  0
VERTEX
  5
3010
  8
0
 10
70.041258074343347
 20
205.10844342410579
 30
0.0
  0
VERTEX
  5
3011
  8
0
 10
69.77884676307454
 20
205.07506482303151
 30
0.0
  0
VERTEX
  5
3012
  8
0
 10
69.536229781806625
 20
204.99471403658401
 30
0.0
  0
VERTEX
  5
3013
  8
0
 10
69.419384188950218
 20
204.89933915436279
 30
0.0
  0
VERTEX
  5
3014
  8
0
 10
69.38125584274546
 20
204.8283500224353
 30
0.0
  0
SEQEND
  5
3015
  8
0
  0
POLYLINE
  5
26FB
  8
0
 66
     1
 10
0.0
 20
0.0
 30
0.0
 70
   128
  0
VERTEX
  5
3016
  8
0
 10
70.500001497566842
 20
205.12264795601379
 30
0.0
  0
VERTEX
  5
3017
  8
0
 10
70.216404460370683
 20
205.11631123721611
 30
0.0
  0
VERTEX
  5
3018
  8
0
 10
69.960896112024926
 20
205.09620212018501
 30
0.0
  0
VERTEX
  5
3019
  8
0
 10
69.765901379287399
 20
205.06049148738401
 30
0.0
  0
VERTEX
  5
301A
  8
0
 10
69.656761549413361
 20
205.00899679958829
 30
0.0
  0
VERTEX
  5
301B
  8
0
 10
69.646049477160133
 20
204.94519375264659
 30
0.0
  0
VERTEX
  5
301C
  8
0
 10
69.73220799118296
 20
204.87669683992871
 30
0.0
  0
VERTEX
  5
301D
  8
0
 10
69.901902414858498
 20
204.81372080743321
 30
0.0
  0
VERTEX
  5
301E
  8
0
 10
70.13620454818026
 20
204.7662345319988
 30
0.0
  0
VERTEX
  5
301F
  8
0
 10
70.411741919815697
 20
204.74284343421471
 30
0.0
  0
VERTEX
  5
3020
  8
0
 10
70.593161694705643
 20
204.74300362169751
 30
0.0
  0
VERTEX
  5
3021
  8
0
 10
70.871304906904854
 20
204.767311140895
 30
0.0
  0
VERTEX
  5
3022
  8
0
 10
71.110526286065735
 20
204.8172225803138
 30
0.0
  0
VERTEX
  5
3023
  8
0
 10
71.279866807162918
 20
204.88314531743541
 30
0.0
  0
VERTEX
  5
3024
  8
0
 10
71.357716061175026
 20
204.95274491608151
 30
0.0
  0
VERTEX
  5
3025
  8
0
 10
71.336142905056633
 20
205.01521058380621
 30
0.0
  0
VERTEX
  5
3026
  8
0
 10
71.220938302576698
 20
205.06406404078021
 30
0.0
  0
VERTEX
  5
3027
  8
0
 10
71.028275601565966
 20
205.09747616946709
 30
0.0
  0
VERTEX
  5
3028
  8
0
 10
70.779860205948495
 20
205.11648632586011
 30
0.0
  0
VERTEX
  5
3029
  8
0
 10
70.500001497566842
 20
205.12264795601379
 30
0.0
  0
SEQEND
  5
302A
  8
0
  0
POLYLINE
  5
26FC
  8
0
 66
     1
 10
0.0
 20
0.0
 30
0.0
 70
   128
  0
VERTEX
  5
302B
  8
0
 10
71.796015091240534
 20
204.4124921411277
 30
0.0
  0
VERTEX
  5
302C
  8
0
 10
71.925701759755754
 20
204.38274569809451
 30
0.0
  0
VERTEX
  5
302D
  8
0
 10
72.020439617335953
 20
204.29278738796719
 30
0.0
  0
VERTEX
  5
302E
  8
0
 10
71.943436004221596
 20
204.176506176591
 30
0.0
  0
VERTEX
  5
302F
  8
0
 10
71.701891906559624
 20
204.05091173946869
 30
0.0
  0
VERTEX
  5
3030
  8
0
 10
71.322530694306053
 20
203.94095607101929
 30
0.0
  0
VERTEX
  5
3031
  8
0
 10
70.851264707744278
 20
203.87212015688431
 30
0.0
  0
VERTEX
  5
3032
  8
0
 10
70.500001497566856
 20
203.85752074420461
 30
0.0
  0
VERTEX
  5
3033
  8
0
 10
70.346137695014633
 20
203.86030353605759
 30
0.0
  0
VERTEX
  5
3034
  8
0
 10
69.862930290401138
 20
203.90651203691971
 30
0.0
  0
VERTEX
  5
3035
  8
0
 10
69.449076615274109
 20
203.99937979877009
 30
0.0
  0
VERTEX
  5
3036
  8
0
 10
69.147225655615486
 20
204.11913670599469
 30
0.0
  0
VERTEX
  5
3037
  8
0
 10
68.993762321770348
 20
204.2415571957828
 30
0.0
  0
VERTEX
  5
3038
  8
0
 10
68.98159738630072
 20
204.30402286350741
 30
0.0
  0
VERTEX
  5
3039
  8
0
 10
68.98159738630072
 20
204.30402286350741
 30
0.0
  0
SEQEND
  5
303A
  8
0
  0
POLYLINE
  5
26FD
  8
0
 66
     1
 10
0.0
 20
0.0
 30
0.0
 70
   128
  0
VERTEX
  5
303B
  8
0
 10
69.195237196982035
 20
204.40646834671509
 30
0.0
  0
VERTEX
  5
303C
  8
0
 10
69.082277081906923
 20
204.38122577965271
 30
0.0
  0
VERTEX
  5
303D
  8
0
 10
68.98159738630072
 20
204.30402286350741
 30
0.0
  0
SEQEND
  5
303E
  8
0
  0
POLYLINE
  5
26FE
  8
0
 66
     1
 10
0.0
 20
0.0
 30
0.0
 70
   128
  0
VERTEX
  5
303F
  8
0
 10
71.625126796992248
 20
204.83169154769629
 30
0.0
  0
VERTEX
  5
3040
  8
0
 10
71.628574468195595
 20
204.77778665721431
 30
0.0
  0
VERTEX
  5
3041
  8
0
 10
71.526140160858787
 20
204.68890123069301
 30
0.0
  0
VERTEX
  5
3042
  8
0
 10
71.303323097527183
 20
204.60470594465741
 30
0.0
  0
VERTEX
  5
3043
  8
0
 10
70.988558419048942
 20
204.54096622765081
 30
0.0
  0
VERTEX
  5
3044
  8
0
 10
70.622580312192596
 20
204.509927108884
 30
0.0
  0
VERTEX
  5
3045
  8
0
 10
70.383869297802605
 20
204.50971849262729
 30
0.0
  0
VERTEX
  5
3046
  8
0
 10
70.021322183311142
 20
204.53959532082089
 30
0.0
  0
VERTEX
  5
3047
  8
0
 10
69.713030196726478
 20
204.60023932158961
 30
0.0
  0
VERTEX
  5
3048
  8
0
 10
69.489747472107567
 20
204.68066461384311
 30
0.0
  0
VERTEX
  5
3049
  8
0
 10
69.376381300389923
 20
204.76814188063159
 30
0.0
  0
VERTEX
  5
304A
  8
0
 10
69.38125584274546
 20
204.8283500224353
 30
0.0
  0
SEQEND
  5
304B
  8
0
  0
LINE
  5
2700
  8
0
 10
69.255949184298643
 20
185.5000016838313
 30
0.0
 11
66.735583648249474
 21
185.5000016838313
 31
0.0
  0
ARC
  5
2701
  8
0
 10
66.948403083482717
 20
185.41765085836741
 30
0.0
 40
0.2281967801428907
 50
131.8968432012291
 51
168.0824837621328
  0
POLYLINE
  5
2702
  8
0
 66
     1
 10
0.0
 20
0.0
 30
0.0
 70
   128
  0
VERTEX
  5
304C
  8
0
 10
64.274477958679356
 20
185.46202234923851
 30
0.0
  0
VERTEX
  5
304D
  8
0
 10
64.220381155610241
 20
185.5729130655528
 30
0.0
  0
VERTEX
  5
304E
  8
0
 10
64.195237308740744
 20
185.59353254735481
 30
0.0
  0
VERTEX
  5
304F
  8
0
 10
64.195237308740744
 20
185.59353254735481
 30
0.0
  0
SEQEND
  5
3050
  8
0
  0
ARC
  5
2703
  8
0
 10
65.206157419733771
 20
185.6398094319415
 30
0.0
 40
0.9484908354468302
 50
190.8035436437159
 51
209.57632787931951
  0
ARC
  5
2704
  8
0
 10
65.50000149011629
 20
185.712912681235
 30
0.0
 40
1.2500000000000011
 50
334.17125894794481
 51
348.55011511554682
  0
POLYLINE
  5
2705
  8
0
 66
     1
 10
0.0
 20
0.0
 30
0.0
 70
   128
  0
VERTEX
  5
3051
  8
0
 10
66.625126908750957
 20
185.1683093463736
 30
0.0
  0
VERTEX
  5
3052
  8
0
 10
66.604425385594524
 20
185.13279981911191
 30
0.0
  0
VERTEX
  5
3053
  8
0
 10
66.52656681835667
 20
185.047501847148
 30
0.0
  0
VERTEX
  5
3054
  8
0
 10
66.428153961897053
 20
184.98713351786151
 30
0.0
  0
VERTEX
  5
3055
  8
0
 10
66.278184950351843
 20
184.93709169328221
 30
0.0
  0
VERTEX
  5
3056
  8
0
 10
66.023905947804593
 20
184.8973912745715
 30
0.0
  0
VERTEX
  5
3057
  8
0
 10
65.744104981422566
 20
184.8793683201076
 30
0.0
  0
VERTEX
  5
3058
  8
0
 10
65.500023961067342
 20
184.87507678568369
 30
0.0
  0
SEQEND
  5
3059
  8
0
  0
POLYLINE
  5
2706
  8
0
 66
     1
 10
0.0
 20
0.0
 30
0.0
 70
   128
  0
VERTEX
  5
305A
  8
0
 10
65.500023961067342
 20
184.87507678568369
 30
0.0
  0
VERTEX
  5
305B
  8
0
 10
65.339266508817815
 20
184.87690962851059
 30
0.0
  0
VERTEX
  5
305C
  8
0
 10
65.041258186102056
 20
184.89155746996411
 30
0.0
  0
VERTEX
  5
305D
  8
0
 10
64.778846874833235
 20
184.9249360710383
 30
0.0
  0
VERTEX
  5
305E
  8
0
 10
64.536229893565334
 20
185.00528685748591
 30
0.0
  0
VERTEX
  5
305F
  8
0
 10
64.419384300708927
 20
185.10066173970711
 30
0.0
  0
VERTEX
  5
3060
  8
0
 10
64.381255954504169
 20
185.1716508716346
 30
0.0
  0
SEQEND
  5
3061
  8
0
  0
ARC
  5
2707
  8
0
 10
67.72985787533591
 20
185.63099076598829
 30
0.0
 40
0.4198698924855594
 50
198.1784895307724
 51
213.46368565793861
  0
ARC
  5
2708
  8
0
 10
68.141457533600445
 20
186.0665408284803
 30
0.0
 40
1.0126342279999769
 50
221.20438693943271
 51
278.50990939547978
  0
ARC
  5
2709
  8
0
 10
68.703113319369606
 20
187.0121925648383
 30
0.0
 40
1.9446481086477829
 50
270.10358521621839
 51
290.14901054321422
  0
POLYLINE
  5
270A
  8
0
 66
     1
 10
0.0
 20
0.0
 30
0.0
 70
   128
  0
VERTEX
  5
3062
  8
0
 10
65.500001609325551
 20
184.87735293805611
 30
0.0
  0
VERTEX
  5
3063
  8
0
 10
65.216404572129392
 20
184.88368965685379
 30
0.0
  0
VERTEX
  5
3064
  8
0
 10
64.960896223783635
 20
184.90379877388489
 30
0.0
  0
VERTEX
  5
3065
  8
0
 10
64.765901491046108
 20
184.93950940668589
 30
0.0
  0
VERTEX
  5
3066
  8
0
 10
64.656761661172069
 20
184.99100409448161
 30
0.0
  0
VERTEX
  5
3067
  8
0
 10
64.646049588918842
 20
185.05480714142331
 30
0.0
  0
VERTEX
  5
3068
  8
0
 10
64.732208102941669
 20
185.1233040541411
 30
0.0
  0
VERTEX
  5
3069
  8
0
 10
64.901902526617206
 20
185.1862800866366
 30
0.0
  0
VERTEX
  5
306A
  8
0
 10
65.136204659938969
 20
185.23376636207109
 30
0.0
  0
VERTEX
  5
306B
  8
0
 10
65.411742031574406
 20
185.25715745985519
 30
0.0
  0
VERTEX
  5
306C
  8
0
 10
65.593161806464352
 20
185.2569972723723
 30
0.0
  0
VERTEX
  5
306D
  8
0
 10
65.871305018663563
 20
185.2326897531749
 30
0.0
  0
VERTEX
  5
306E
  8
0
 10
66.110526397824444
 20
185.1827783137561
 30
0.0
  0
VERTEX
  5
306F
  8
0
 10
66.279866918921627
 20
185.11685557663449
 30
0.0
  0
VERTEX
  5
3070
  8
0
 10
66.357716172933735
 20
185.0472559779883
 30
0.0
  0
VERTEX
  5
3071
  8
0
 10
66.336143016815342
 20
184.98479031026369
 30
0.0
  0
VERTEX
  5
3072
  8
0
 10
66.220938414335407
 20
184.93593685328969
 30
0.0
  0
VERTEX
  5
3073
  8
0
 10
66.028275713324675
 20
184.90252472460281
 30
0.0
  0
VERTEX
  5
3074
  8
0
 10
65.779860317707204
 20
184.8835145682097
 30
0.0
  0
VERTEX
  5
3075
  8
0
 10
65.500001609325551
 20
184.87735293805611
 30
0.0
  0
SEQEND
  5
3076
  8
0
  0
POLYLINE
  5
270C
  8
0
 66
     1
 10
0.0
 20
0.0
 30
0.0
 70
   128
  0
VERTEX
  5
3077
  8
0
 10
68.291307613253736
 20
185.06505541503441
 30
0.0
  0
VERTEX
  5
3078
  8
0
 10
68.404027447104596
 20
185.06346227432931
 30
0.0
  0
VERTEX
  5
3079
  8
0
 10
68.706629052758373
 20
185.06754763424399
 30
0.0
  0
SEQEND
  5
307A
  8
0
  0
POLYLINE
  5
270D
  8
0
 66
     1
 10
0.0
 20
0.0
 30
0.0
 70
   128
  0
VERTEX
  5
307B
  8
0
 10
66.796015202999257
 20
185.5875087529422
 30
0.0
  0
VERTEX
  5
307C
  8
0
 10
66.925701871514462
 20
185.61725519597539
 30
0.0
  0
VERTEX
  5
307D
  8
0
 10
67.020439729094662
 20
185.7072135061027
 30
0.0
  0
VERTEX
  5
307E
  8
0
 10
66.943436115980305
 20
185.82349471747881
 30
0.0
  0
VERTEX
  5
307F
  8
0
 10
66.701892018318333
 20
185.94908915460121
 30
0.0
  0
VERTEX
  5
3080
  8
0
 10
66.322530806064762
 20
186.05904482305061
 30
0.0
  0
VERTEX
  5
3081
  8
0
 10
65.851264819502987
 20
186.12788073718559
 30
0.0
  0
VERTEX
  5
3082
  8
0
 10
65.500001609325565
 20
186.14248014986521
 30
0.0
  0
VERTEX
  5
3083
  8
0
 10
65.346137806773342
 20
186.13969735801231
 30
0.0
  0
VERTEX
  5
3084
  8
0
 10
64.862930402159847
 20
186.09348885715019
 30
0.0
  0
VERTEX
  5
3085
  8
0
 10
64.449076727032818
 20
186.00062109529981
 30
0.0
  0
VERTEX
  5
3086
  8
0
 10
64.147225767374195
 20
185.88086418807521
 30
0.0
  0
VERTEX
  5
3087
  8
0
 10
63.993762433529056
 20
185.7584436982871
 30
0.0
  0
VERTEX
  5
3088
  8
0
 10
63.981597498059429
 20
185.69597803056249
 30
0.0
  0
VERTEX
  5
3089
  8
0
 10
63.981597498059429
 20
185.69597803056249
 30
0.0
  0
SEQEND
  5
308A
  8
0
  0
POLYLINE
  5
270E
  8
0
 66
     1
 10
0.0
 20
0.0
 30
0.0
 70
   128
  0
VERTEX
  5
308B
  8
0
 10
64.195237308740744
 20
185.59353254735481
 30
0.0
  0
VERTEX
  5
308C
  8
0
 10
64.082277193665647
 20
185.61877511441719
 30
0.0
  0
VERTEX
  5
308D
  8
0
 10
63.981597498059429
 20
185.69597803056249
 30
0.0
  0
SEQEND
  5
308E
  8
0
  0
POLYLINE
  5
270F
  8
0
 66
     1
 10
0.0
 20
0.0
 30
0.0
 70
   128
  0
VERTEX
  5
308F
  8
0
 10
66.625126908750957
 20
185.1683093463736
 30
0.0
  0
VERTEX
  5
3090
  8
0
 10
66.628574579954304
 20
185.22221423685559
 30
0.0
  0
VERTEX
  5
3091
  8
0
 10
66.526140272617496
 20
185.31109966337689
 30
0.0
  0
VERTEX
  5
3092
  8
0
 10
66.303323209285892
 20
185.3952949494124
 30
0.0
  0
VERTEX
  5
3093
  8
0
 10
65.988558530807651
 20
185.45903466641909
 30
0.0
  0
VERTEX
  5
3094
  8
0
 10
65.622580423951305
 20
185.4900737851859
 30
0.0
  0
VERTEX
  5
3095
  8
0
 10
65.383869409561314
 20
185.49028240144261
 30
0.0
  0
VERTEX
  5
3096
  8
0
 10
65.021322295069851
 20
185.46040557324901
 30
0.0
  0
VERTEX
  5
3097
  8
0
 10
64.713030308485187
 20
185.39976157248029
 30
0.0
  0
VERTEX
  5
3098
  8
0
 10
64.489747583866276
 20
185.31933628022679
 30
0.0
  0
VERTEX
  5
3099
  8
0
 10
64.376381412148632
 20
185.23185901343831
 30
0.0
  0
VERTEX
  5
309A
  8
0
 10
64.381255954504169
 20
185.1716508716346
 30
0.0
  0
SEQEND
  5
309B
  8
0
  0
ARC
  5
2712
  8
0
 10
71.948402971724008
 20
185.41765085836741
 30
0.0
 40
0.2281967801428907
 50
131.8968432012291
 51
168.0824837621328
  0
POLYLINE
  5
2713
  8
0
 66
     1
 10
0.0
 20
0.0
 30
0.0
 70
   128
  0
VERTEX
  5
309C
  8
0
 10
69.274477846920647
 20
185.46202234923851
 30
0.0
  0
VERTEX
  5
309D
  8
0
 10
69.220381043851532
 20
185.5729130655528
 30
0.0
  0
VERTEX
  5
309E
  8
0
 10
69.195237196982035
 20
185.59353254735481
 30
0.0
  0
VERTEX
  5
309F
  8
0
 10
69.195237196982035
 20
185.59353254735481
 30
0.0
  0
SEQEND
  5
30A0
  8
0
  0
ARC
  5
2714
  8
0
 10
70.206157307975062
 20
185.6398094319415
 30
0.0
 40
0.9484908354468302
 50
190.8035436437159
 51
209.57632787931951
  0
ARC
  5
2715
  8
0
 10
70.500001378357581
 20
185.712912681235
 30
0.0
 40
1.2500000000000011
 50
334.17125894794481
 51
348.55011511554682
  0
POLYLINE
  5
2716
  8
0
 66
     1
 10
0.0
 20
0.0
 30
0.0
 70
   128
  0
VERTEX
  5
30A1
  8
0
 10
71.625126796992248
 20
185.1683093463736
 30
0.0
  0
VERTEX
  5
30A2
  8
0
 10
71.604425273835815
 20
185.13279981911191
 30
0.0
  0
VERTEX
  5
30A3
  8
0
 10
71.526566706597961
 20
185.047501847148
 30
0.0
  0
VERTEX
  5
30A4
  8
0
 10
71.428153850138344
 20
184.98713351786151
 30
0.0
  0
VERTEX
  5
30A5
  8
0
 10
71.278184838593134
 20
184.93709169328221
 30
0.0
  0
VERTEX
  5
30A6
  8
0
 10
71.023905836045884
 20
184.8973912745715
 30
0.0
  0
VERTEX
  5
30A7
  8
0
 10
70.744104869663843
 20
184.8793683201076
 30
0.0
  0
VERTEX
  5
30A8
  8
0
 10
70.500023849308633
 20
184.87507678568369
 30
0.0
  0
SEQEND
  5
30A9
  8
0
  0
POLYLINE
  5
2717
  8
0
 66
     1
 10
0.0
 20
0.0
 30
0.0
 70
   128
  0
VERTEX
  5
30AA
  8
0
 10
70.500023849308633
 20
184.87507678568369
 30
0.0
  0
VERTEX
  5
30AB
  8
0
 10
70.339266397059106
 20
184.87690962851059
 30
0.0
  0
VERTEX
  5
30AC
  8
0
 10
70.041258074343347
 20
184.89155746996411
 30
0.0
  0
VERTEX
  5
30AD
  8
0
 10
69.77884676307454
 20
184.9249360710383
 30
0.0
  0
VERTEX
  5
30AE
  8
0
 10
69.536229781806625
 20
185.00528685748591
 30
0.0
  0
VERTEX
  5
30AF
  8
0
 10
69.419384188950218
 20
185.10066173970711
 30
0.0
  0
VERTEX
  5
30B0
  8
0
 10
69.38125584274546
 20
185.1716508716346
 30
0.0
  0
SEQEND
  5
30B1
  8
0
  0
POLYLINE
  5
2718
  8
0
 66
     1
 10
0.0
 20
0.0
 30
0.0
 70
   128
  0
VERTEX
  5
30B2
  8
0
 10
70.500001497566842
 20
184.87735293805611
 30
0.0
  0
VERTEX
  5
30B3
  8
0
 10
70.216404460370683
 20
184.88368965685379
 30
0.0
  0
VERTEX
  5
30B4
  8
0
 10
69.960896112024926
 20
184.90379877388489
 30
0.0
  0
VERTEX
  5
30B5
  8
0
 10
69.765901379287399
 20
184.93950940668589
 30
0.0
  0
VERTEX
  5
30B6
  8
0
 10
69.656761549413361
 20
184.99100409448161
 30
0.0
  0
VERTEX
  5
30B7
  8
0
 10
69.646049477160133
 20
185.05480714142331
 30
0.0
  0
VERTEX
  5
30B8
  8
0
 10
69.73220799118296
 20
185.1233040541411
 30
0.0
  0
VERTEX
  5
30B9
  8
0
 10
69.901902414858498
 20
185.1862800866366
 30
0.0
  0
VERTEX
  5
30BA
  8
0
 10
70.13620454818026
 20
185.23376636207109
 30
0.0
  0
VERTEX
  5
30BB
  8
0
 10
70.411741919815697
 20
185.25715745985519
 30
0.0
  0
VERTEX
  5
30BC
  8
0
 10
70.593161694705643
 20
185.2569972723723
 30
0.0
  0
VERTEX
  5
30BD
  8
0
 10
70.871304906904854
 20
185.2326897531749
 30
0.0
  0
VERTEX
  5
30BE
  8
0
 10
71.110526286065735
 20
185.1827783137561
 30
0.0
  0
VERTEX
  5
30BF
  8
0
 10
71.279866807162918
 20
185.11685557663449
 30
0.0
  0
VERTEX
  5
30C0
  8
0
 10
71.357716061175026
 20
185.0472559779883
 30
0.0
  0
VERTEX
  5
30C1
  8
0
 10
71.336142905056633
 20
184.98479031026369
 30
0.0
  0
VERTEX
  5
30C2
  8
0
 10
71.220938302576698
 20
184.93593685328969
 30
0.0
  0
VERTEX
  5
30C3
  8
0
 10
71.028275601565966
 20
184.90252472460281
 30
0.0
  0
VERTEX
  5
30C4
  8
0
 10
70.779860205948495
 20
184.8835145682097
 30
0.0
  0
VERTEX
  5
30C5
  8
0
 10
70.500001497566842
 20
184.87735293805611
 30
0.0
  0
SEQEND
  5
30C6
  8
0
  0
POLYLINE
  5
2719
  8
0
 66
     1
 10
0.0
 20
0.0
 30
0.0
 70
   128
  0
VERTEX
  5
30C7
  8
0
 10
71.796015091240534
 20
185.5875087529422
 30
0.0
  0
VERTEX
  5
30C8
  8
0
 10
71.925701759755754
 20
185.61725519597539
 30
0.0
  0
VERTEX
  5
30C9
  8
0
 10
72.020439617335953
 20
185.7072135061027
 30
0.0
  0
VERTEX
  5
30CA
  8
0
 10
71.943436004221596
 20
185.82349471747881
 30
0.0
  0
VERTEX
  5
30CB
  8
0
 10
71.701891906559624
 20
185.94908915460121
 30
0.0
  0
VERTEX
  5
30CC
  8
0
 10
71.322530694306053
 20
186.05904482305061
 30
0.0
  0
VERTEX
  5
30CD
  8
0
 10
70.851264707744278
 20
186.12788073718559
 30
0.0
  0
VERTEX
  5
30CE
  8
0
 10
70.500001497566856
 20
186.14248014986521
 30
0.0
  0
VERTEX
  5
30CF
  8
0
 10
70.346137695014633
 20
186.13969735801231
 30
0.0
  0
VERTEX
  5
30D0
  8
0
 10
69.862930290401138
 20
186.09348885715019
 30
0.0
  0
VERTEX
  5
30D1
  8
0
 10
69.449076615274109
 20
186.00062109529981
 30
0.0
  0
VERTEX
  5
30D2
  8
0
 10
69.147225655615486
 20
185.88086418807521
 30
0.0
  0
VERTEX
  5
30D3
  8
0
 10
68.993762321770348
 20
185.7584436982871
 30
0.0
  0
VERTEX
  5
30D4
  8
0
 10
68.98159738630072
 20
185.69597803056249
 30
0.0
  0
VERTEX
  5
30D5
  8
0
 10
68.98159738630072
 20
185.69597803056249
 30
0.0
  0
SEQEND
  5
30D6
  8
0
  0
POLYLINE
  5
271A
  8
0
 66
     1
 10
0.0
 20
0.0
 30
0.0
 70
   128
  0
VERTEX
  5
30D7
  8
0
 10
69.195237196982035
 20
185.59353254735481
 30
0.0
  0
VERTEX
  5
30D8
  8
0
 10
69.082277081906923
 20
185.61877511441719
 30
0.0
  0
VERTEX
  5
30D9
  8
0
 10
68.98159738630072
 20
185.69597803056249
 30
0.0
  0
SEQEND
  5
30DA
  8
0
  0
POLYLINE
  5
271B
  8
0
 66
     1
 10
0.0
 20
0.0
 30
0.0
 70
   128
  0
VERTEX
  5
30DB
  8
0
 10
71.625126796992248
 20
185.1683093463736
 30
0.0
  0
VERTEX
  5
30DC
  8
0
 10
71.628574468195595
 20
185.22221423685559
 30
0.0
  0
VERTEX
  5
30DD
  8
0
 10
71.526140160858787
 20
185.31109966337689
 30
0.0
  0
VERTEX
  5
30DE
  8
0
 10
71.303323097527183
 20
185.3952949494124
 30
0.0
  0
VERTEX
  5
30DF
  8
0
 10
70.988558419048942
 20
185.45903466641909
 30
0.0
  0
VERTEX
  5
30E0
  8
0
 10
70.622580312192596
 20
185.4900737851859
 30
0.0
  0
VERTEX
  5
30E1
  8
0
 10
70.383869297802605
 20
185.49028240144261
 30
0.0
  0
VERTEX
  5
30E2
  8
0
 10
70.021322183311142
 20
185.46040557324901
 30
0.0
  0
VERTEX
  5
30E3
  8
0
 10
69.713030196726478
 20
185.39976157248029
 30
0.0
  0
VERTEX
  5
30E4
  8
0
 10
69.489747472107567
 20
185.31933628022679
 30
0.0
  0
VERTEX
  5
30E5
  8
0
 10
69.376381300389923
 20
185.23185901343831
 30
0.0
  0
VERTEX
  5
30E6
  8
0
 10
69.38125584274546
 20
185.1716508716346
 30
0.0
  0
SEQEND
  5
30E7
  8
0
  0
LINE
  5
2763
  8
1
 10
113.0000010132789
 20
219.50000219047081
 30
0.0
 11
113.0000010132789
 21
169.50000040233141
 31
0.0
  0
LINE
  5
2767
  8
1
 10
109.25000149011611
 20
176.00000040233141
 30
0.0
 11
116.75000149011611
 21
176.00000040233141
 31
0.0
  0
LINE
  5
276A
  8
1
 10
366.99993842739462
 20
113.000001013279
 30
0.0
 11
281.99993544716227
 21
113.000001013279
 31
0.0
  0
LINE
  5
276D
  8
1
 10
349.99993693727851
 20
118.8000010132791
 30
0.0
 11
349.99993693727851
 21
107.20000101327901
 31
0.0
  0
LINE
  5
276E
  8
1
 10
310.99993693727851
 20
130.80000101327909
 30
0.0
 11
310.99993693727851
 21
119.20000101327901
 31
0.0
  0
LINE
  5
276F
  8
1
 10
305.19993693727838
 20
125.0000010132791
 30
0.0
 11
316.79993693727857
 21
125.0000010132791
 31
0.0
  0
LINE
  5
2770
  8
1
 10
305.19993693727838
 20
101.0000010132791
 30
0.0
 11
316.79993693727857
 21
101.0000010132791
 31
0.0
  0
LINE
  5
2774
  8
1
 10
310.99993693727851
 20
106.8000010132791
 30
0.0
 11
310.99993693727851
 21
95.200001013279007
 31
0.0
  0
LINE
  5
27BE
  8
0
 10
349.40580481190079
 20
59.666394442319927
 30
0.0
 11
349.42895570436963
 21
59.574386663946711
 31
0.0
  0
LINE
  5
288C
  8
1
 10
298.99993741411572
 20
286.50000157952309
 30
0.0
 11
298.99993741411572
 21
265.50000157952309
 31
0.0
  0
CIRCLE
  5
288D
  8
0
 10
298.99993693727839
 20
276.00000157952309
 30
0.0
 40
3.3234995231629791
  0
CIRCLE
  5
288E
  8
3
 10
298.99993693727839
 20
276.00000157952309
 30
0.0
 40
3.9999995231628409
  0
LINE
  5
288F
  8
1
 10
281.99993544716227
 20
276.00000157952309
 30
0.0
 11
366.99993842739462
 21
276.00000157952309
 31
0.0
  0
LINE
  5
2899
  8
1
 10
310.99993693727851
 20
296.00000157952309
 30
0.0
 11
310.99993693727851
 21
280.00000157952309
 31
0.0
  0
LINE
  5
289A
  8
1
 10
349.99993693727851
 20
284.50000157952309
 30
0.0
 11
349.99993693727851
 21
267.50000157952309
 31
0.0
  0
LINE
  5
289B
  8
1
 10
302.99993693727851
 20
288.0000015795232
 30
0.0
 11
318.99993693727851
 21
288.0000015795232
 31
0.0
  0
LINE
  5
289C
  8
1
 10
302.99993693727851
 20
264.00000157952309
 30
0.0
 11
318.99993693727851
 21
264.00000157952309
 31
0.0
  0
LINE
  5
28A0
  8
1
 10
310.99993693727851
 20
272.00000157952309
 30
0.0
 11
310.99993693727851
 21
256.00000157952309
 31
0.0
  0
ENDSEC
  0
EOF
