  0
SECTION
  2
HEADER
  9
$ACADVER
  1
AC1009
  9
$INSBASE
 10
0.0
 20
0.0
 30
0.0
  9
$EXTMIN
 10
0.0
 20
-2.960436562073669
 30
0.0
  9
$EXTMAX
 10
260.0
 20
250.0
 30
0.0
  9
$LIMMIN
 10
0.0
 20
0.0
  9
$LIMMAX
 10
375.0
 20
270.0
  9
$ORTHOMODE
 70
     1
  9
$REGENMODE
 70
     1
  9
$FILLMODE
 70
     1
  9
$QTEXTMODE
 70
     0
  9
$MIRRTEXT
 70
     0
  9
$DRAGMODE
 70
     2
  9
$LTSCALE
 40
10.0
  9
$OSMODE
 70
  3071
  9
$ATTMODE
 70
     1
  9
$TEXTSIZE
 40
0.2
  9
$TRACEWID
 40
0.05
  9
$TEXTSTYLE
  7
STANDARD
  9
$CLAYER
  8
0
  9
$CELTYPE
  6
BYLAYER
  9
$CECOLOR
 62
   256
  9
$DIMSCALE
 40
1.0
  9
$DIMASZ
 40
3.0
  9
$DIMEXO
 40
2.0
  9
$DIMDLI
 40
0.38
  9
$DIMRND
 40
0.0
  9
$DIMDLE
 40
0.0
  9
$DIMEXE
 40
2.0
  9
$DIMTP
 40
0.0
  9
$DIMTM
 40
0.0
  9
$DIMTXT
 40
3.2000000000000002
  9
$DIMCEN
 40
0.0
  9
$DIMTSZ
 40
0.0
  9
$DIMTOL
 70
     0
  9
$DIMLIM
 70
     0
  9
$DIMTIH
 70
     0
  9
$DIMTOH
 70
     0
  9
$DIMSE1
 70
     0
  9
$DIMSE2
 70
     0
  9
$DIMTAD
 70
     1
  9
$DIMZIN
 70
     0
  9
$DIMBLK
  1

  9
$DIMASO
 70
     0
  9
$DIMSHO
 70
     0
  9
$DIMPOST
  1

  9
$DIMAPOST
  1

  9
$DIMALT
 70
     0
  9
$DIMALTD
 70
     2
  9
$DIMALTF
 40
25.399999999999999
  9
$DIMLFAC
 40
1.0
  9
$DIMTOFL
 70
     1
  9
$DIMTVP
 40
1.6000000000000001
  9
$DIMTIX
 70
     1
  9
$DIMSOXD
 70
     0
  9
$DIMSAH
 70
     0
  9
$DIMBLK1
  1

  9
$DIMBLK2
  1

  9
$DIMSTYLE
  2
STANDARD
  9
$DIMCLRD
 70
     0
  9
$DIMCLRE
 70
     0
  9
$DIMCLRT
 70
     0
  9
$DIMTFAC
 40
1.0
  9
$DIMGAP
 40
0.09
  9
$LUNITS
 70
     2
  9
$LUPREC
 70
     4
  9
$SKETCHINC
 40
0.1
  9
$FILLETRAD
 40
0.0
  9
$AUNITS
 70
     0
  9
$AUPREC
 70
     4
  9
$MENU
  1
E:\r13\win\SUPPORT\ACAD
  9
$ELEVATION
 40
0.0
  9
$PELEVATION
 40
0.0
  9
$THICKNESS
 40
0.0
  9
$LIMCHECK
 70
     0
  9
$BLIPMODE
 70
     0
  9
$CHAMFERA
 40
0.0
  9
$CHAMFERB
 40
0.0
  9
$SKPOLY
 70
     0
  9
$TDCREATE
 40
2449839.7606018521
  9
$TDUPDATE
 40
2456597.668545845
  9
$TDINDWG
 40
0.0049489699
  9
$TDUSRTIMER
 40
0.0049489699
  9
$USRTIMER
 70
     1
  9
$ANGBASE
 50
0.0
  9
$ANGDIR
 70
     0
  9
$PDMODE
 70
     0
  9
$PDSIZE
 40
0.0
  9
$PLINEWID
 40
0.0
  9
$COORDS
 70
     1
  9
$SPLFRAME
 70
     0
  9
$SPLINETYPE
 70
     6
  9
$SPLINESEGS
 70
     8
  9
$ATTDIA
 70
     0
  9
$ATTREQ
 70
     1
  9
$HANDLING
 70
     1
  9
$HANDSEED
  5
5AB
  9
$SURFTAB1
 70
     6
  9
$SURFTAB2
 70
     6
  9
$SURFTYPE
 70
     6
  9
$SURFU
 70
     6
  9
$SURFV
 70
     6
  9
$UCSNAME
  2

  9
$UCSORG
 10
0.0
 20
0.0
 30
0.0
  9
$UCSXDIR
 10
1.0
 20
0.0
 30
0.0
  9
$UCSYDIR
 10
0.0
 20
1.0
 30
0.0
  9
$PUCSNAME
  2

  9
$PUCSORG
 10
0.0
 20
0.0
 30
0.0
  9
$PUCSXDIR
 10
1.0
 20
0.0
 30
0.0
  9
$PUCSYDIR
 10
0.0
 20
1.0
 30
0.0
  9
$USERI1
 70
     0
  9
$USERI2
 70
     1
  9
$USERI3
 70
     0
  9
$USERI4
 70
     0
  9
$USERI5
 70
     0
  9
$USERR1
 40
0.0
  9
$USERR2
 40
0.0
  9
$USERR3
 40
0.0
  9
$USERR4
 40
0.0
  9
$USERR5
 40
0.0
  9
$WORLDVIEW
 70
     1
  9
$SHADEDGE
 70
     3
  9
$SHADEDIF
 70
    70
  9
$TILEMODE
 70
     1
  9
$MAXACTVP
 70
    16
  9
$PLIMCHECK
 70
     0
  9
$PEXTMIN
 10
1.0000000000000000E+020
 20
1.0000000000000000E+020
 30
1.0000000000000000E+020
  9
$PEXTMAX
 10
-1.0000000000000000E+020
 20
-1.0000000000000000E+020
 30
-1.0000000000000000E+020
  9
$PLIMMIN
 10
0.0
 20
0.0
  9
$PLIMMAX
 10
12.0
 20
9.0
  9
$UNITMODE
 70
     0
  9
$VISRETAIN
 70
     0
  9
$PLINEGEN
 70
     0
  9
$PSLTSCALE
 70
     0
  0
ENDSEC
  0
SECTION
  2
TABLES
  0
TABLE
  2
VPORT
 70
     1
  0
VPORT
  2
*ACTIVE
 70
     0
 10
0.0
 20
0.0
 11
1.0
 21
1.0
 12
195.0581083320873
 22
133.5127261426681
 13
0.0
 23
0.0
 14
10.0
 24
10.0
 15
10.0
 25
10.0
 16
0.0
 26
0.0
 36
1.0
 17
0.0
 27
0.0
 37
0.0
 40
275.42274993631997
 41
1.831871345029239
 42
50.0
 43
0.0
 44
0.0
 50
0.0
 51
0.0
 71
     0
 72
   500
 73
     1
 74
     0
 75
     0
 76
     0
 77
     0
 78
     2
  0
ENDTAB
  0
TABLE
  2
LTYPE
 70
     4
  0
LTYPE
  2
CONTINUOUS
 70
     0
  3
Solid Line
 72
    65
 73
     0
 40
0.0
  0
LTYPE
  2
CENTER
 70
     0
  3
____ _ ____ _ ____ _ ____ _ ____ _ ____ _ ____
 72
    65
 73
     4
 40
2.0
 49
1.25
 49
-0.25
 49
0.25
 49
-0.25
  0
LTYPE
  2
HIDDEN
 70
     0
  3
_ _ _ _ _ _ _ _ _ _ _ _ _ _ _ _ _ _ _ _ _ _ _
 72
    65
 73
     2
 40
0.375
 49
0.25
 49
-0.125
  0
LTYPE
  2
PHANTOM2
 70
     0
  3
___ _ _ ___ _ _ ___ _ _ ___ _ _
 72
    65
 73
     6
 40
1.25
 49
0.625
 49
-0.125
 49
0.125
 49
-0.125
 49
0.125
 49
-0.125
  0
ENDTAB
  0
TABLE
  2
LAYER
 70
     4
  0
LAYER
  2
0
 70
     0
 62
     7
  6
CONTINUOUS
  0
LAYER
  2
1
 70
     0
 62
     1
  6
CENTER
  0
LAYER
  2
3
 70
     0
 62
     3
  6
CONTINUOUS
  0
LAYER
  2
2
 70
     0
 62
     2
  6
HIDDEN
  0
ENDTAB
  0
TABLE
  2
STYLE
 70
     2
  0
STYLE
  2
STANDARD
 70
     0
 40
0.0
 41
1.0
 50
0.0
 71
     0
 42
0.2
  3
TXT
  4
BIGFONT
  0
STYLE
  2
STANDARD1
 70
     0
 40
0.0
 41
1.0
 50
0.0
 71
     0
 42
3.0
  3
txt
  4

  0
ENDTAB
  0
TABLE
  2
VIEW
 70
     1
  0
VIEW
  2
ALL
 70
     0
 40
270.0
 10
220.99159663865549
 20
135.0
 41
0.0
 11
0.0
 21
0.0
 31
1.0
 12
0.0
 22
0.0
 32
0.0
 42
0.0
 43
0.0
 44
0.0
 50
0.0
 71
     0
  0
ENDTAB
  0
TABLE
  2
UCS
 70
     0
  0
ENDTAB
  0
TABLE
  2
APPID
 70
     3
  0
APPID
  2
ACAD
 70
     0
  0
APPID
  2
ACAD_MLEADERVER
 70
     0
  0
APPID
  2
ACAD_NAV_VCDISPLAY
 70
     0
  0
ENDTAB
  0
TABLE
  2
DIMSTYLE
 70
     1
  0
DIMSTYLE
  2
STANDARD
 70
     0
  3

  4

  5

  6

  7

 40
1.0
 41
0.18
 42
0.0625
 43
0.38
 44
0.18
 45
0.0
 46
0.0
 47
0.0
 48
0.0
140
0.18
141
0.09
142
0.0
143
25.399999999999999
144
1.0
145
0.0
146
1.0
147
0.09
 71
     0
 72
     0
 73
     1
 74
     1
 75
     0
 76
     0
 77
     0
 78
     0
170
     0
171
     2
172
     0
173
     0
174
     0
175
     0
176
     0
177
     0
178
     0
  0
ENDTAB
  0
ENDSEC
  0
SECTION
  2
BLOCKS
  0
BLOCK
  8
0
  2
$MODEL_SPACE
 70
     0
 10
0.0
 20
0.0
 30
0.0
  3
$MODEL_SPACE
  1

  0
ENDBLK
  5
2D4
  8
0
  0
BLOCK
 67
     1
  8
0
  2
$PAPER_SPACE
 70
     0
 10
0.0
 20
0.0
 30
0.0
  3
$PAPER_SPACE
  1

  0
ENDBLK
  5
2D2
 67
     1
  8
0
  0
ENDSEC
  0
SECTION
  2
ENTITIES
  0
CIRCLE
  5
23F
  8
0
 10
150.0
 20
220.0
 30
0.0
 40
15.0
  0
LINE
  5
240
  8
1
 10
150.0
 20
250.0
 30
0.0
 11
150.0
 21
190.0
 31
0.0
  0
LINE
  5
241
  8
1
 10
180.0
 20
220.0
 30
0.0
 11
120.0
 21
220.0
 31
0.0
  0
CIRCLE
  5
242
  8
0
 10
150.0
 20
220.0
 30
0.0
 40
5.0
  0
LINE
  5
243
  8
0
 10
167.3205080756874
 20
220.0000000000023
 30
0.0
 11
158.660254037843
 21
235.0000000000023
 31
0.0
  0
LINE
  5
244
  8
0
 10
169.94735621166049
 20
221.4501655647293
 30
0.0
 11
161.2295583245793
 21
236.5498344352707
 31
0.0
  0
LINE
  5
245
  8
0
 10
158.6602540378457
 20
205.0000000000023
 30
0.0
 11
167.3205080756901
 21
220.00000000000239
 31
0.0
  0
LINE
  5
246
  8
0
 10
161.22955832457919
 20
203.4501655647293
 30
0.0
 11
169.94735621166049
 21
218.54983443527081
 31
0.0
  0
LINE
  5
247
  8
0
 10
141.3397459621583
 20
205.0
 30
0.0
 11
158.6602540378471
 21
205.0
 31
0.0
  0
LINE
  5
248
  8
0
 10
141.2822021129187
 20
202.0
 30
0.0
 11
158.7177978870813
 21
202.0
 31
0.0
  0
LINE
  5
249
  8
0
 10
132.67949192431249
 20
219.9999999999977
 30
0.0
 11
141.339745962157
 21
204.9999999999977
 31
0.0
  0
LINE
  5
24A
  8
0
 10
130.0526437883394
 20
218.54983443527081
 30
0.0
 11
138.77044167542081
 21
203.4501655647293
 31
0.0
  0
LINE
  5
24B
  8
0
 10
141.33974596215421
 20
234.99999999999761
 30
0.0
 11
132.67949192430979
 21
219.9999999999977
 31
0.0
  0
LINE
  5
24C
  8
0
 10
138.7704416754207
 20
236.54983443527081
 30
0.0
 11
130.0526437883394
 21
221.4501655647293
 31
0.0
  0
LINE
  5
24D
  8
0
 10
158.7177978870813
 20
238.0
 30
0.0
 11
141.2822021129187
 21
238.0
 31
0.0
  0
LINE
  5
24E
  8
0
 10
158.6602540378417
 20
235.0
 30
0.0
 11
141.3397459621529
 21
235.0
 31
0.0
  0
CIRCLE
  5
24F
  8
0
 10
150.0
 20
220.0
 30
0.0
 40
20.0
  0
LINE
  5
3A3
  8
2
 10
250.0
 20
139.9999999998295
 30
0.0
 11
250.0
 21
88.866025403615822
 31
0.0
  0
LINE
  5
3A4
  8
2
 10
250.0
 20
88.866025403615822
 30
0.0
 11
248.49999999999611
 21
87.999999999829015
 31
0.0
  0
LINE
  5
3A5
  8
2
 10
230.0
 20
139.9999999998295
 30
0.0
 11
250.0
 21
139.9999999998295
 31
0.0
  0
LINE
  5
3A6
  8
2
 10
230.00000000000011
 20
88.866025403615822
 30
0.0
 11
250.0
 21
88.866025403615822
 31
0.0
  0
LINE
  5
3A7
  8
2
 10
249.00000337089401
 20
141.9999999998299
 30
0.0
 11
249.00000337089401
 21
140.79999999982959
 31
0.0
  0
ARC
  5
3A8
  8
0
 10
249.8000033708939
 20
142.19999999982971
 30
0.0
 40
0.8
 50
90.0
 51
180.0
  0
ARC
  5
3A9
  8
2
 10
249.80000337089399
 20
140.79999999982959
 30
0.0
 40
0.8
 50
180.0
 51
270.0
  0
LINE
  5
3AA
  8
2
 10
249.187999999998
 20
88.397216985032628
 30
0.0
 11
249.187999999998
 21
140.2847797808958
 31
0.0
  0
LINE
  5
3AB
  8
2
 10
230.812000000002
 20
88.397216985032628
 30
0.0
 11
230.812000000002
 21
140.2847797808958
 31
0.0
  0
LINE
  5
3AC
  8
2
 10
230.0
 20
88.866025403615822
 30
0.0
 11
231.50000000000389
 21
87.999999999829015
 31
0.0
  0
LINE
  5
3AD
  8
2
 10
230.0
 20
139.9999999998295
 30
0.0
 11
230.0
 21
88.866025403615822
 31
0.0
  0
ARC
  5
3AE
  8
2
 10
230.1999966291059
 20
140.79999999982959
 30
0.0
 40
0.8
 50
270.0
 51
0.0
  0
ARC
  5
3AF
  8
0
 10
230.1999966291061
 20
142.19999999982971
 30
0.0
 40
0.8
 50
0.0
 51
90.0
  0
LINE
  5
3B0
  8
0
 10
230.99999662910599
 20
142.19999999982971
 30
0.0
 11
230.99999662910599
 21
141.9999999998299
 31
0.0
  0
LINE
  5
3B1
  8
2
 10
248.49999999999611
 20
87.999999999829015
 30
0.0
 11
231.50000000000389
 21
87.999999999829015
 31
0.0
  0
LINE
  5
3B2
  8
0
 10
255.0
 20
143.4999999998295
 30
0.0
 11
254.5
 21
142.99999999982941
 31
0.0
  0
LINE
  5
3B3
  8
0
 10
255.00001348699189
 20
149.99999999982899
 30
0.0
 11
255.0
 21
143.4999999998295
 31
0.0
  0
ARC
  5
3B4
  8
0
 10
247.5000053535619
 20
128.33731125640679
 30
0.0
 40
21.66268874342278
 50
69.743856159371376
 51
110.2561438406286
  0
ARC
  5
3B5
  8
0
 10
232.49999464643821
 20
128.33731125640679
 30
0.0
 40
21.66268874342278
 50
69.743856159371376
 51
110.2561438406286
  0
LINE
  5
3B6
  8
0
 10
224.9999865130082
 20
149.99999999982899
 30
0.0
 11
225.0
 21
143.4999999998295
 31
0.0
  0
LINE
  5
3B7
  8
0
 10
225.0
 20
143.4999999998295
 30
0.0
 11
225.5
 21
142.99999999982941
 31
0.0
  0
LINE
  5
3B8
  8
0
 10
255.00001348699189
 20
149.99999999982899
 30
0.0
 11
224.9999865130082
 21
149.99999999982899
 31
0.0
  0
LINE
  5
3B9
  8
0
 10
254.5
 20
142.99999999982941
 30
0.0
 11
225.5
 21
142.99999999982941
 31
0.0
  0
LINE
  5
3BA
  8
1
 10
240.0
 20
159.999999999794
 30
0.0
 11
240.0
 21
40.000000000000909
 31
0.0
  0
LINE
  5
3BB
  8
0
 10
240.0
 20
148.66025403768111
 30
0.0
 11
240.0
 21
142.99999999982941
 31
0.0
  0
LINE
  5
3CC
  8
0
 10
219.999999932733
 20
120.999999999769
 30
0.0
 11
221.999999932733
 21
120.999999999769
 31
0.0
  0
LINE
  5
3CD
  8
0
 10
220.9999999999994
 20
80.0
 30
0.0
 11
259.00000000000068
 21
80.0
 31
0.0
  0
LINE
  5
3CE
  8
0
 10
259.00000000000068
 20
80.0
 30
0.0
 11
260.0
 21
80.999999999999545
 31
0.0
  0
LINE
  5
3CF
  8
0
 10
260.0
 20
80.999999999999545
 30
0.0
 11
259.99999993273292
 21
120.999999999769
 31
0.0
  0
LINE
  5
3D0
  8
0
 10
220.00000000000011
 20
80.999999999999545
 30
0.0
 11
219.999999932733
 21
120.999999999769
 31
0.0
  0
LINE
  5
3D1
  8
0
 10
220.9999999999994
 20
80.0
 30
0.0
 11
220.00000000000011
 21
80.999999999999545
 31
0.0
  0
LINE
  5
3D2
  8
0
 10
257.99999993273292
 20
134.42264973063041
 30
0.0
 11
256.99999993273309
 21
134.99999999981989
 31
0.0
  0
LINE
  5
3D3
  8
0
 10
257.99999993273292
 20
134.42264973063041
 30
0.0
 11
257.99999993273292
 21
120.999999999769
 31
0.0
  0
LINE
  5
3D4
  8
0
 10
254.99999993274361
 20
141.9999999998299
 30
0.0
 11
254.99999993274361
 21
134.99999999981989
 31
0.0
  0
ARC
  5
3D5
  8
0
 10
247.5000052863054
 20
120.33731125640401
 30
0.0
 40
21.66268874342278
 50
69.743856159371376
 51
110.2561438406286
  0
ARC
  5
3D6
  8
0
 10
247.5000052863054
 20
156.66268874324979
 30
0.0
 40
21.66268874342278
 50
249.7438561593714
 51
290.25614384062862
  0
ARC
  5
3D7
  8
0
 10
248.99999993273281
 20
109.1635754535227
 30
0.0
 40
25.25907427711627
 50
72.608697954022333
 51
107.3913020459776
  0
LINE
  5
3D8
  8
0
 10
257.99999993273292
 20
133.26794919226271
 30
0.0
 11
256.54983436800512
 21
133.26794919226271
 31
0.0
  0
LINE
  5
3D9
  8
0
 10
256.54983436800512
 20
133.26794919226271
 30
0.0
 11
256.54983436800512
 21
120.999999999769
 31
0.0
  0
LINE
  5
3DA
  8
0
 10
241.4501654974608
 20
133.26794919226271
 30
0.0
 11
241.4501654974608
 21
120.999999999769
 31
0.0
  0
LINE
  5
3DB
  8
0
 10
238.54983436800489
 20
133.26794919226271
 30
0.0
 11
238.54983436800489
 21
120.999999999769
 31
0.0
  0
LINE
  5
3DC
  8
0
 10
223.45016549746069
 20
133.26794919226271
 30
0.0
 11
223.45016549746069
 21
120.999999999769
 31
0.0
  0
LINE
  5
3DD
  8
0
 10
221.999999932733
 20
133.26794919226271
 30
0.0
 11
223.45016549746069
 21
133.26794919226271
 31
0.0
  0
ARC
  5
3DE
  8
0
 10
230.99999993273269
 20
109.1635754535227
 30
0.0
 40
25.25907427711627
 50
72.608697954022333
 51
107.3913020459776
  0
ARC
  5
3DF
  8
0
 10
232.4999945791603
 20
156.66268874324979
 30
0.0
 40
21.66268874342278
 50
249.7438561593714
 51
290.25614384062862
  0
ARC
  5
3E0
  8
0
 10
232.4999945791603
 20
120.33731125640401
 30
0.0
 40
21.66268874342278
 50
69.743856159371376
 51
110.2561438406286
  0
LINE
  5
3E1
  8
0
 10
224.9999999327222
 20
141.9999999998299
 30
0.0
 11
224.9999999327222
 21
134.99999999981989
 31
0.0
  0
LINE
  5
3E2
  8
0
 10
221.99999993273281
 20
134.42264973063041
 30
0.0
 11
221.999999932733
 21
120.999999999769
 31
0.0
  0
LINE
  5
3E3
  8
0
 10
221.999999932733
 20
134.42264973063041
 30
0.0
 11
222.99999993273269
 21
134.99999999981989
 31
0.0
  0
LINE
  5
3E4
  8
0
 10
254.99999993274361
 20
141.9999999998299
 30
0.0
 11
224.9999999327222
 21
141.9999999998299
 31
0.0
  0
LINE
  5
3E5
  8
0
 10
256.99999993273309
 20
134.99999999981989
 30
0.0
 11
222.99999993273269
 21
134.99999999981989
 31
0.0
  0
LINE
  5
3E6
  8
0
 10
241.4501654974608
 20
133.26794919226271
 30
0.0
 11
238.54983436800489
 21
133.26794919226271
 31
0.0
  0
LINE
  5
3E7
  8
0
 10
240.0
 20
140.66025406249901
 30
0.0
 11
240.0
 21
136.3397459371549
 31
0.0
  0
LINE
  5
3E8
  8
0
 10
257.99999993273269
 20
120.999999999769
 30
0.0
 11
259.99999993273292
 21
120.999999999769
 31
0.0
  0
LINE
  5
3E9
  8
0
 10
241.4501654974608
 20
120.999999999769
 30
0.0
 11
256.54983436800512
 21
120.999999999769
 31
0.0
  0
LINE
  5
3EA
  8
0
 10
223.45016549746069
 20
120.999999999769
 30
0.0
 11
238.54983436800489
 21
120.999999999769
 31
0.0
  0
LINE
  5
3EB
  8
2
 10
140.0000006712084
 20
88.866025403626494
 30
0.0
 11
160.0000006712084
 21
88.866025403626494
 31
0.0
  0
LINE
  5
3EC
  8
2
 10
158.50000067120479
 20
87.999999999839929
 30
0.0
 11
141.50000067121249
 21
87.999999999839929
 31
0.0
  0
LINE
  5
3ED
  8
2
 10
140.00002737269909
 20
139.9999999998297
 30
0.0
 11
160.00002737269909
 21
139.9999999998297
 31
0.0
  0
LINE
  5
3EE
  8
2
 10
141.00002400180529
 20
141.9999999998299
 30
0.0
 11
141.00002400180529
 21
140.79999999982959
 31
0.0
  0
ARC
  5
3EF
  8
0
 10
140.2000240018051
 20
142.19999999982971
 30
0.0
 40
0.8
 50
0.0
 51
90.0
  0
ARC
  5
3F0
  8
2
 10
140.2000240018051
 20
140.79999999982959
 30
0.0
 40
0.8
 50
270.0
 51
0.0
  0
LINE
  5
3F1
  8
2
 10
140.00002737269909
 20
139.9999999998297
 30
0.0
 11
140.00002737269909
 21
88.866025403626494
 31
0.0
  0
LINE
  5
3F2
  8
2
 10
140.0000006712084
 20
88.866025403626494
 30
0.0
 11
141.50000067121209
 21
87.999999999839929
 31
0.0
  0
LINE
  5
3F3
  8
2
 10
140.81202737270081
 20
88.397201568930768
 30
0.0
 11
140.81202737270081
 21
140.2847797808958
 31
0.0
  0
LINE
  5
3F4
  8
2
 10
159.18802737269689
 20
88.397232401156316
 30
0.0
 11
159.18802737269689
 21
140.2847797808958
 31
0.0
  0
LINE
  5
3F5
  8
2
 10
160.0000006712084
 20
88.866025403626494
 30
0.0
 11
158.50000067120479
 21
87.999999999839929
 31
0.0
  0
LINE
  5
3F6
  8
2
 10
160.00002737269909
 20
139.9999999998297
 30
0.0
 11
160.00002737269909
 21
88.866025403626494
 31
0.0
  0
ARC
  5
3F7
  8
2
 10
159.8000307435932
 20
140.79999999982959
 30
0.0
 40
0.8
 50
180.0
 51
270.0
  0
ARC
  5
3F8
  8
0
 10
162.99039494245741
 20
142.3325317545343
 30
0.0
 40
7.6674682452978322
 50
64.384247467911734
 51
124.3842474678689
  0
ARC
  5
3F9
  8
0
 10
137.00963282895691
 20
142.3325317545343
 30
0.0
 40
7.6674682452978322
 50
124.384247467775
 51
124.3842474678689
  0
ARC
  5
3FA
  8
0
 10
137.00963282895691
 20
142.3325317545343
 30
0.0
 40
7.6674682452978322
 50
55.615752532131062
 51
115.6157525321173
  0
ARC
  5
3FB
  8
0
 10
150.0000138857076
 20
121.33974596193001
 30
0.0
 40
28.660254037902249
 50
72.412046226065115
 51
107.5879537739349
  0
ARC
  5
3FC
  8
0
 10
162.99039494245741
 20
142.3325317545343
 30
0.0
 40
7.6674682452978322
 50
55.615752532131062
 51
55.615752532196133
  0
LINE
  5
3FD
  8
0
 10
165.00001388570709
 20
149.99999999982899
 30
0.0
 11
135.00001388570709
 21
149.99999999982899
 31
0.0
  0
LINE
  5
3FE
  8
0
 10
132.6795058100474
 20
148.66025403769001
 30
0.0
 11
135.00001388570709
 21
149.99999999982899
 31
0.0
  0
LINE
  5
3FF
  8
0
 10
167.32052196136689
 20
148.66025403769001
 30
0.0
 11
165.00001388570709
 21
149.99999999982899
 31
0.0
  0
LINE
  5
400
  8
0
 10
141.33975984788819
 20
148.6602540376777
 30
0.0
 11
141.33975984788819
 21
142.9999999998297
 31
0.0
  0
LINE
  5
401
  8
0
 10
158.66026792354791
 20
148.6602540376777
 30
0.0
 11
158.66026792354791
 21
142.9999999998297
 31
0.0
  0
LINE
  5
402
  8
0
 10
167.32052196137781
 20
143.4999999998297
 30
0.0
 11
167.32052196137781
 21
148.6602540376839
 31
0.0
  0
LINE
  5
403
  8
0
 10
132.67953291855471
 20
143.4999999998297
 30
0.0
 11
132.67953291855471
 21
148.6602540376839
 31
0.0
  0
LINE
  5
404
  8
0
 10
166.82052196137781
 20
142.9999999998297
 30
0.0
 11
133.17953291855471
 21
142.9999999998297
 31
0.0
  0
LINE
  5
405
  8
0
 10
166.82052196137781
 20
142.9999999998297
 30
0.0
 11
167.32052196137781
 21
143.4999999998297
 31
0.0
  0
LINE
  5
406
  8
0
 10
133.17953291855471
 20
142.9999999998297
 30
0.0
 11
132.67953291855471
 21
143.4999999998297
 31
0.0
  0
ARC
  5
407
  8
0
 10
159.8000307435932
 20
142.19999999982971
 30
0.0
 40
0.8
 50
90.0
 51
180.0
  0
LINE
  5
408
  8
0
 10
159.00003074359299
 20
142.19999999982971
 30
0.0
 11
159.00003074359299
 21
141.9999999998299
 31
0.0
  0
LINE
  5
40A
  8
1
 10
150.0
 20
159.99999999982899
 30
0.0
 11
150.0
 21
39.999999999884267
 31
0.0
  0
LINE
  5
40B
  8
0
 10
169.00000000000091
 20
80.0
 30
0.0
 11
170.0
 21
80.999999999999318
 31
0.0
  0
LINE
  5
40C
  8
0
 10
170.0
 20
80.999999999999318
 30
0.0
 11
169.99999993273281
 21
133.2679491922508
 31
0.0
  0
LINE
  5
40D
  8
0
 10
169.99999993273281
 20
133.2679491922508
 30
0.0
 11
166.99999993273281
 21
134.99999999981969
 31
0.0
  0
LINE
  5
40E
  8
0
 10
129.99999993273281
 20
133.2679491922508
 30
0.0
 11
132.99999993273281
 21
134.99999999981969
 31
0.0
  0
LINE
  5
40F
  8
0
 10
130.0
 20
80.999999999999318
 30
0.0
 11
129.99999993275279
 21
133.26794919226219
 31
0.0
  0
LINE
  5
410
  8
0
 10
130.99999999999909
 20
80.0
 30
0.0
 11
130.0
 21
80.999999999999318
 31
0.0
  0
LINE
  5
411
  8
0
 10
166.99999993273281
 20
134.99999999981969
 30
0.0
 11
132.99999993273281
 21
134.99999999981969
 31
0.0
  0
LINE
  5
412
  8
0
 10
169.00000000000091
 20
80.0
 30
0.0
 11
130.99999999999909
 21
80.0
 31
0.0
  0
LINE
  5
413
  8
0
 10
169.99999993273281
 20
120.99999999976851
 30
0.0
 11
161.22955825731199
 21
120.99999999976851
 31
0.0
  0
ARC
  5
414
  8
0
 10
164.99999993272559
 20
126.9170962311434
 30
0.0
 40
8.0829037686761218
 50
51.786789298318674
 51
51.786789298355238
  0
ARC
  5
415
  8
0
 10
165.61477909501261
 20
125.51839516569559
 30
0.0
 40
8.9042545676815692
 50
60.495888572197238
 51
119.5041114278027
  0
ARC
  5
416
  8
0
 10
149.99999993273289
 20
100.9363341175588
 30
0.0
 40
33.48631561307996
 50
74.90981482059604
 51
105.0901851794039
  0
ARC
  5
417
  8
0
 10
134.38522077045309
 20
125.51839516569559
 30
0.0
 40
8.9042545676815692
 50
60.495888572197238
 51
119.5041114278027
  0
LINE
  5
418
  8
0
 10
161.22955825731199
 20
133.26794919226219
 30
0.0
 11
158.71779781981419
 21
133.26794919226219
 31
0.0
  0
LINE
  5
419
  8
0
 10
158.71779781981419
 20
133.26794919226219
 30
0.0
 11
158.71779781981419
 21
120.99999999976851
 31
0.0
  0
LINE
  5
41A
  8
0
 10
161.22955825731199
 20
120.99999999976851
 30
0.0
 11
161.22955825731199
 21
133.26794919226219
 31
0.0
  0
LINE
  5
41B
  8
0
 10
138.77044160815331
 20
120.99999999976851
 30
0.0
 11
138.77044160815331
 21
133.26794919226219
 31
0.0
  0
LINE
  5
41C
  8
0
 10
141.2822020456515
 20
133.26794919226219
 30
0.0
 11
141.2822020456515
 21
120.99999999976851
 31
0.0
  0
LINE
  5
41D
  8
0
 10
138.77044160815331
 20
133.26794919226219
 30
0.0
 11
141.2822020456515
 21
133.26794919226219
 31
0.0
  0
LINE
  5
42D
  8
0
 10
167.32050800838169
 20
140.66025403769089
 30
0.0
 11
164.99999993272189
 21
141.9999999998299
 31
0.0
  0
LINE
  5
42E
  8
0
 10
167.32050800839261
 20
136.3397459619689
 30
0.0
 11
164.99999993273281
 21
134.9999999998299
 31
0.0
  0
LINE
  5
42F
  8
0
 10
167.32050800839261
 20
136.3397459619689
 30
0.0
 11
167.32050800839261
 21
140.66025403768481
 31
0.0
  0
LINE
  5
430
  8
0
 10
132.67949185707309
 20
136.3397459619689
 30
0.0
 11
132.67949185707309
 21
140.66025403768481
 31
0.0
  0
LINE
  5
431
  8
0
 10
132.67949185707309
 20
136.3397459619689
 30
0.0
 11
134.99999993273281
 21
134.9999999998299
 31
0.0
  0
LINE
  5
432
  8
0
 10
132.6794918570622
 20
140.66025403769089
 30
0.0
 11
134.99999993272189
 21
141.9999999998299
 31
0.0
  0
LINE
  5
433
  8
0
 10
164.99999993272189
 20
141.9999999998299
 30
0.0
 11
134.99999993272189
 21
141.9999999998299
 31
0.0
  0
ARC
  5
434
  8
0
 10
162.99038098947219
 20
134.33253175453521
 30
0.0
 40
7.6674682452978322
 50
55.615752532131062
 51
55.615752532196133
  0
ARC
  5
435
  8
0
 10
149.9999999327224
 20
113.3397459619309
 30
0.0
 40
28.660254037902249
 50
72.412046226065115
 51
107.5879537739349
  0
ARC
  5
436
  8
0
 10
137.00961887597171
 20
134.33253175453521
 30
0.0
 40
7.6674682452978322
 50
55.615752532131062
 51
115.6157525321173
  0
ARC
  5
437
  8
0
 10
137.00961887597171
 20
134.33253175453521
 30
0.0
 40
7.6674682452978322
 50
124.384247467775
 51
124.3842474678689
  0
ARC
  5
438
  8
0
 10
162.99038098947219
 20
134.33253175453521
 30
0.0
 40
7.6674682452978322
 50
64.384247467911734
 51
124.3842474678689
  0
ARC
  5
439
  8
0
 10
162.9903809894831
 20
142.66746824512461
 30
0.0
 40
7.6674682452978322
 50
235.6157525321311
 51
295.61575253208821
  0
ARC
  5
43A
  8
0
 10
137.0096188759826
 20
142.66746824512461
 30
0.0
 40
7.6674682452978322
 50
244.3842474678826
 51
304.38424746786887
  0
ARC
  5
43B
  8
0
 10
149.99999993273289
 20
163.66025403772909
 30
0.0
 40
28.660254037902249
 50
252.41204622606509
 51
287.58795377393488
  0
LINE
  5
43C
  8
0
 10
158.66025397056271
 20
140.66025403767841
 30
0.0
 11
158.66025397056271
 21
136.33974596197501
 31
0.0
  0
LINE
  5
43D
  8
0
 10
141.33974589490299
 20
140.66025403767841
 30
0.0
 11
141.33974589490299
 21
136.33974596197501
 31
0.0
  0
LINE
  5
43E
  8
0
 10
158.71779781981419
 20
120.99999999976851
 30
0.0
 11
141.2822020456515
 21
120.99999999976851
 31
0.0
  0
LINE
  5
43F
  8
0
 10
138.77044160815331
 20
120.99999999976851
 30
0.0
 11
129.99999993273281
 21
120.99999999976851
 31
0.0
  0
LINE
  5
440
  8
0
 10
144.00002710818521
 20
76.000000000000014
 30
0.0
 11
156.00002710818521
 21
76.000000000000014
 31
0.0
  0
ARC
  5
441
  8
0
 10
155.6000271081852
 20
76.799999999999969
 30
0.0
 40
0.8
 50
180.0
 51
270.0
  0
ARC
  5
442
  8
0
 10
144.40002710818521
 20
76.799999999999969
 30
0.0
 40
0.8
 50
270.0
 51
0.0
  0
LINE
  5
443
  8
3
 10
144.94702710818521
 20
51.053000000000132
 30
0.0
 11
144.94702710818521
 21
76.000000000000014
 31
0.0
  0
LINE
  5
444
  8
0
 10
144.00002710818521
 20
52.000000000000007
 30
0.0
 11
144.00002710818521
 21
76.000000000000014
 31
0.0
  0
LINE
  5
445
  8
0
 10
156.00002710818521
 20
52.000000000000007
 30
0.0
 11
156.00002710818521
 21
76.000000000000014
 31
0.0
  0
LINE
  5
446
  8
3
 10
155.0530271081852
 20
51.053000000000011
 30
0.0
 11
155.0530271081852
 21
76.000000000000014
 31
0.0
  0
LINE
  5
447
  8
0
 10
154.00002710818521
 20
50.000000000000007
 30
0.0
 11
146.00002710818521
 21
50.000000000000007
 31
0.0
  0
LINE
  5
448
  8
0
 10
156.00002710818521
 20
52.000000000000007
 30
0.0
 11
154.00002710818521
 21
50.000000000000007
 31
0.0
  0
LINE
  5
449
  8
0
 10
146.00002710818521
 20
50.000000000000007
 30
0.0
 11
144.00002710818521
 21
52.000000000000007
 31
0.0
  0
LINE
  5
44A
  8
0
 10
156.00002710818521
 20
52.000000000000007
 30
0.0
 11
144.00002710818509
 21
52.000000000000007
 31
0.0
  0
LINE
  5
44B
  8
0
 10
145.2000271081852
 20
80.0
 30
0.0
 11
145.2000271081852
 21
76.799999999999969
 31
0.0
  0
LINE
  5
44C
  8
0
 10
154.80002710818539
 20
80.0
 30
0.0
 11
154.80002710818539
 21
76.799999999999969
 31
0.0
  0
LINE
  5
44D
  8
0
 10
141.00002400180529
 20
142.19999999982971
 30
0.0
 11
141.00002400180529
 21
141.9999999998299
 31
0.0
  0
LINE
  5
44E
  8
2
 10
159.00003074359299
 20
141.9999999998299
 30
0.0
 11
159.00003074359299
 21
140.79999999982959
 31
0.0
  0
LINE
  5
453
  8
0
 10
244.8000271081855
 20
80.0
 30
0.0
 11
244.8000271081855
 21
76.799999999999969
 31
0.0
  0
LINE
  5
454
  8
0
 10
235.2000271081852
 20
80.0
 30
0.0
 11
235.2000271081852
 21
76.799999999999969
 31
0.0
  0
LINE
  5
455
  8
0
 10
246.00002710818529
 20
52.000000000000007
 30
0.0
 11
234.00002710818521
 21
52.000000000000007
 31
0.0
  0
LINE
  5
456
  8
0
 10
236.00002710818529
 20
50.000000000000007
 30
0.0
 11
234.00002710818529
 21
52.000000000000007
 31
0.0
  0
LINE
  5
457
  8
0
 10
246.00002710818529
 20
52.000000000000007
 30
0.0
 11
244.00002710818529
 21
50.000000000000007
 31
0.0
  0
LINE
  5
458
  8
0
 10
244.00002710818529
 20
50.000000000000007
 30
0.0
 11
236.00002710818529
 21
50.000000000000007
 31
0.0
  0
LINE
  5
459
  8
3
 10
245.05302710818529
 20
51.053000000000011
 30
0.0
 11
245.05302710818529
 21
76.000000000000014
 31
0.0
  0
LINE
  5
45A
  8
0
 10
246.00002710818529
 20
52.000000000000007
 30
0.0
 11
246.00002710818529
 21
76.000000000000014
 31
0.0
  0
LINE
  5
45B
  8
0
 10
234.00002710818529
 20
52.000000000000007
 30
0.0
 11
234.00002710818529
 21
76.000000000000014
 31
0.0
  0
LINE
  5
45C
  8
3
 10
234.9470271081853
 20
51.053000000000132
 30
0.0
 11
234.9470271081853
 21
76.000000000000014
 31
0.0
  0
ARC
  5
45D
  8
0
 10
234.4000271081853
 20
76.799999999999969
 30
0.0
 40
0.8
 50
270.0
 51
0.0
  0
ARC
  5
45E
  8
0
 10
245.60002710818529
 20
76.799999999999969
 30
0.0
 40
0.8
 50
180.0
 51
270.0
  0
LINE
  5
45F
  8
0
 10
234.00002710818529
 20
76.000000000000014
 30
0.0
 11
246.00002710818529
 21
76.000000000000014
 31
0.0
  0
LINE
  5
460
  8
2
 10
230.99999662910599
 20
141.9999999998299
 30
0.0
 11
230.99999662910599
 21
140.79999999982959
 31
0.0
  0
LINE
  5
461
  8
0
 10
249.00000337089401
 20
142.19999999982971
 30
0.0
 11
249.00000337089401
 21
141.9999999998299
 31
0.0
  0
LINE
  5
469
  8
0
 10
130.0
 20
80.999999999999318
 30
0.0
 11
170.0
 21
81.000000051477997
 31
0.0
  0
LINE
  5
46A
  8
0
 10
220.00000000000011
 20
80.999999999999545
 30
0.0
 11
260.0
 21
81.000000067266683
 31
0.0
  0
TEXT
  5
51A
  8
0
 62
     3
 10
0.0
 20
0.0
 30
0.0
 40
10.0
  1
BJ330-12070
  7
STANDARD1
  0
ENDSEC
  0
EOF
