  0
SECTION
  2
HEADER
  9
$ACADVER
  1
AC1009
  9
$INSBASE
 10
0.0
 20
0.0
 30
0.0
  9
$EXTMIN
 10
0.0
 20
-2.960436562073669
 30
0.0
  9
$EXTMAX
 10
249.99999999999989
 20
230.0
 30
0.0
  9
$LIMMIN
 10
0.0
 20
0.0
  9
$LIMMAX
 10
375.0
 20
270.0
  9
$ORTHOMODE
 70
     1
  9
$REGENMODE
 70
     1
  9
$FILLMODE
 70
     1
  9
$QTEXTMODE
 70
     0
  9
$MIRRTEXT
 70
     0
  9
$DRAGMODE
 70
     2
  9
$LTSCALE
 40
10.0
  9
$OSMODE
 70
  3071
  9
$ATTMODE
 70
     1
  9
$TEXTSIZE
 40
0.2
  9
$TRACEWID
 40
0.05
  9
$TEXTSTYLE
  7
STANDARD
  9
$CLAYER
  8
0
  9
$CELTYPE
  6
BYLAYER
  9
$CECOLOR
 62
   256
  9
$DIMSCALE
 40
1.0
  9
$DIMASZ
 40
3.0
  9
$DIMEXO
 40
2.0
  9
$DIMDLI
 40
0.38
  9
$DIMRND
 40
0.0
  9
$DIMDLE
 40
0.0
  9
$DIMEXE
 40
2.0
  9
$DIMTP
 40
0.0
  9
$DIMTM
 40
0.0
  9
$DIMTXT
 40
3.2000000000000002
  9
$DIMCEN
 40
0.0
  9
$DIMTSZ
 40
0.0
  9
$DIMTOL
 70
     0
  9
$DIMLIM
 70
     0
  9
$DIMTIH
 70
     0
  9
$DIMTOH
 70
     0
  9
$DIMSE1
 70
     0
  9
$DIMSE2
 70
     0
  9
$DIMTAD
 70
     1
  9
$DIMZIN
 70
     0
  9
$DIMBLK
  1

  9
$DIMASO
 70
     0
  9
$DIMSHO
 70
     0
  9
$DIMPOST
  1

  9
$DIMAPOST
  1

  9
$DIMALT
 70
     0
  9
$DIMALTD
 70
     2
  9
$DIMALTF
 40
25.399999999999999
  9
$DIMLFAC
 40
1.0
  9
$DIMTOFL
 70
     1
  9
$DIMTVP
 40
1.6000000000000001
  9
$DIMTIX
 70
     1
  9
$DIMSOXD
 70
     0
  9
$DIMSAH
 70
     0
  9
$DIMBLK1
  1

  9
$DIMBLK2
  1

  9
$DIMSTYLE
  2
STANDARD
  9
$DIMCLRD
 70
     0
  9
$DIMCLRE
 70
     0
  9
$DIMCLRT
 70
     0
  9
$DIMTFAC
 40
1.0
  9
$DIMGAP
 40
0.09
  9
$LUNITS
 70
     2
  9
$LUPREC
 70
     4
  9
$SKETCHINC
 40
0.1
  9
$FILLETRAD
 40
0.0
  9
$AUNITS
 70
     0
  9
$AUPREC
 70
     4
  9
$MENU
  1
E:\r13\win\SUPPORT\ACAD
  9
$ELEVATION
 40
0.0
  9
$PELEVATION
 40
0.0
  9
$THICKNESS
 40
0.0
  9
$LIMCHECK
 70
     0
  9
$BLIPMODE
 70
     0
  9
$CHAMFERA
 40
0.0
  9
$CHAMFERB
 40
0.0
  9
$SKPOLY
 70
     0
  9
$TDCREATE
 40
2449839.760555556
  9
$TDUPDATE
 40
2456597.6685050349
  9
$TDINDWG
 40
0.0044700694
  9
$TDUSRTIMER
 40
0.0044700694
  9
$USRTIMER
 70
     1
  9
$ANGBASE
 50
0.0
  9
$ANGDIR
 70
     0
  9
$PDMODE
 70
     0
  9
$PDSIZE
 40
0.0
  9
$PLINEWID
 40
0.0
  9
$COORDS
 70
     1
  9
$SPLFRAME
 70
     0
  9
$SPLINETYPE
 70
     6
  9
$SPLINESEGS
 70
     8
  9
$ATTDIA
 70
     0
  9
$ATTREQ
 70
     1
  9
$HANDLING
 70
     1
  9
$HANDSEED
  5
4F4
  9
$SURFTAB1
 70
     6
  9
$SURFTAB2
 70
     6
  9
$SURFTYPE
 70
     6
  9
$SURFU
 70
     6
  9
$SURFV
 70
     6
  9
$UCSNAME
  2

  9
$UCSORG
 10
0.0
 20
0.0
 30
0.0
  9
$UCSXDIR
 10
1.0
 20
0.0
 30
0.0
  9
$UCSYDIR
 10
0.0
 20
1.0
 30
0.0
  9
$PUCSNAME
  2

  9
$PUCSORG
 10
0.0
 20
0.0
 30
0.0
  9
$PUCSXDIR
 10
1.0
 20
0.0
 30
0.0
  9
$PUCSYDIR
 10
0.0
 20
1.0
 30
0.0
  9
$USERI1
 70
     0
  9
$USERI2
 70
     1
  9
$USERI3
 70
     0
  9
$USERI4
 70
     0
  9
$USERI5
 70
     0
  9
$USERR1
 40
0.0
  9
$USERR2
 40
0.0
  9
$USERR3
 40
0.0
  9
$USERR4
 40
0.0
  9
$USERR5
 40
0.0
  9
$WORLDVIEW
 70
     1
  9
$SHADEDGE
 70
     3
  9
$SHADEDIF
 70
    70
  9
$TILEMODE
 70
     1
  9
$MAXACTVP
 70
    16
  9
$PLIMCHECK
 70
     0
  9
$PEXTMIN
 10
1.0000000000000000E+020
 20
1.0000000000000000E+020
 30
1.0000000000000000E+020
  9
$PEXTMAX
 10
-1.0000000000000000E+020
 20
-1.0000000000000000E+020
 30
-1.0000000000000000E+020
  9
$PLIMMIN
 10
0.0
 20
0.0
  9
$PLIMMAX
 10
12.0
 20
9.0
  9
$UNITMODE
 70
     0
  9
$VISRETAIN
 70
     0
  9
$PLINEGEN
 70
     0
  9
$PSLTSCALE
 70
     0
  0
ENDSEC
  0
SECTION
  2
TABLES
  0
TABLE
  2
VPORT
 70
     1
  0
VPORT
  2
*ACTIVE
 70
     0
 10
0.0
 20
0.0
 11
1.0
 21
1.0
 12
195.0581083320873
 22
133.5127261426681
 13
0.0
 23
0.0
 14
10.0
 24
10.0
 15
10.0
 25
10.0
 16
0.0
 26
0.0
 36
1.0
 17
0.0
 27
0.0
 37
0.0
 40
275.42274993631997
 41
1.831871345029239
 42
50.0
 43
0.0
 44
0.0
 50
0.0
 51
0.0
 71
     0
 72
   500
 73
     1
 74
     0
 75
     0
 76
     0
 77
     0
 78
     2
  0
ENDTAB
  0
TABLE
  2
LTYPE
 70
     4
  0
LTYPE
  2
CONTINUOUS
 70
     0
  3
Solid Line
 72
    65
 73
     0
 40
0.0
  0
LTYPE
  2
CENTER
 70
     0
  3
____ _ ____ _ ____ _ ____ _ ____ _ ____ _ ____
 72
    65
 73
     4
 40
2.0
 49
1.25
 49
-0.25
 49
0.25
 49
-0.25
  0
LTYPE
  2
HIDDEN
 70
     0
  3
_ _ _ _ _ _ _ _ _ _ _ _ _ _ _ _ _ _ _ _ _ _ _
 72
    65
 73
     2
 40
0.375
 49
0.25
 49
-0.125
  0
LTYPE
  2
PHANTOM2
 70
     0
  3
___ _ _ ___ _ _ ___ _ _ ___ _ _
 72
    65
 73
     6
 40
1.25
 49
0.625
 49
-0.125
 49
0.125
 49
-0.125
 49
0.125
 49
-0.125
  0
ENDTAB
  0
TABLE
  2
LAYER
 70
     4
  0
LAYER
  2
0
 70
     0
 62
     7
  6
CONTINUOUS
  0
LAYER
  2
1
 70
     0
 62
     1
  6
CENTER
  0
LAYER
  2
3
 70
     0
 62
     3
  6
CONTINUOUS
  0
LAYER
  2
2
 70
     0
 62
     2
  6
HIDDEN
  0
ENDTAB
  0
TABLE
  2
STYLE
 70
     2
  0
STYLE
  2
STANDARD
 70
     0
 40
0.0
 41
1.0
 50
0.0
 71
     0
 42
0.2
  3
TXT
  4
BIGFONT
  0
STYLE
  2
STANDARD1
 70
     0
 40
0.0
 41
1.0
 50
0.0
 71
     0
 42
3.0
  3
txt
  4

  0
ENDTAB
  0
TABLE
  2
VIEW
 70
     1
  0
VIEW
  2
ALL
 70
     0
 40
270.0
 10
220.99159663865549
 20
135.0
 41
0.0
 11
0.0
 21
0.0
 31
1.0
 12
0.0
 22
0.0
 32
0.0
 42
0.0
 43
0.0
 44
0.0
 50
0.0
 71
     0
  0
ENDTAB
  0
TABLE
  2
UCS
 70
     0
  0
ENDTAB
  0
TABLE
  2
APPID
 70
     3
  0
APPID
  2
ACAD
 70
     0
  0
APPID
  2
ACAD_MLEADERVER
 70
     0
  0
APPID
  2
ACAD_NAV_VCDISPLAY
 70
     0
  0
ENDTAB
  0
TABLE
  2
DIMSTYLE
 70
     1
  0
DIMSTYLE
  2
STANDARD
 70
     0
  3

  4

  5

  6

  7

 40
1.0
 41
0.18
 42
0.0625
 43
0.38
 44
0.18
 45
0.0
 46
0.0
 47
0.0
 48
0.0
140
0.18
141
0.09
142
0.0
143
25.399999999999999
144
1.0
145
0.0
146
1.0
147
0.09
 71
     0
 72
     0
 73
     1
 74
     1
 75
     0
 76
     0
 77
     0
 78
     0
170
     0
171
     2
172
     0
173
     0
174
     0
175
     0
176
     0
177
     0
178
     0
  0
ENDTAB
  0
ENDSEC
  0
SECTION
  2
BLOCKS
  0
BLOCK
  8
0
  2
$MODEL_SPACE
 70
     0
 10
0.0
 20
0.0
 30
0.0
  3
$MODEL_SPACE
  1

  0
ENDBLK
  5
223
  8
0
  0
BLOCK
 67
     1
  8
0
  2
$PAPER_SPACE
 70
     0
 10
0.0
 20
0.0
 30
0.0
  3
$PAPER_SPACE
  1

  0
ENDBLK
  5
221
 67
     1
  8
0
  0
ENDSEC
  0
SECTION
  2
ENTITIES
  0
CIRCLE
  5
196
  8
0
 10
150.0
 20
200.0
 30
0.0
 40
15.0
  0
LINE
  5
197
  8
1
 10
150.0
 20
230.0
 30
0.0
 11
150.0
 21
170.0
 31
0.0
  0
LINE
  5
198
  8
1
 10
180.0
 20
200.0
 30
0.0
 11
120.0
 21
200.0
 31
0.0
  0
CIRCLE
  5
199
  8
0
 10
150.0
 20
200.0
 30
0.0
 40
5.0
  0
LINE
  5
19A
  8
0
 10
167.3205080756874
 20
200.0000000000023
 30
0.0
 11
158.660254037843
 21
215.0000000000023
 31
0.0
  0
LINE
  5
19B
  8
0
 10
169.94735621166049
 20
201.45016556472919
 30
0.0
 11
161.2295583245793
 21
216.5498344352707
 31
0.0
  0
LINE
  5
19C
  8
0
 10
158.6602540378457
 20
185.0000000000023
 30
0.0
 11
167.3205080756901
 21
200.0000000000023
 31
0.0
  0
LINE
  5
19D
  8
0
 10
161.22955832457919
 20
183.4501655647293
 30
0.0
 11
169.94735621166049
 21
198.5498344352707
 31
0.0
  0
LINE
  5
19E
  8
0
 10
141.3397459621583
 20
185.0
 30
0.0
 11
158.6602540378471
 21
185.0
 31
0.0
  0
LINE
  5
19F
  8
0
 10
141.2822021129187
 20
182.0
 30
0.0
 11
158.7177978870813
 21
182.0
 31
0.0
  0
LINE
  5
1A0
  8
0
 10
132.67949192431249
 20
199.9999999999977
 30
0.0
 11
141.339745962157
 21
184.99999999999761
 31
0.0
  0
LINE
  5
1A1
  8
0
 10
130.0526437883394
 20
198.54983443527081
 30
0.0
 11
138.77044167542081
 21
183.4501655647293
 31
0.0
  0
LINE
  5
1A2
  8
0
 10
141.33974596215421
 20
214.9999999999977
 30
0.0
 11
132.67949192430979
 21
199.99999999999761
 31
0.0
  0
LINE
  5
1A3
  8
0
 10
138.7704416754207
 20
216.54983443527081
 30
0.0
 11
130.0526437883394
 21
201.45016556472919
 31
0.0
  0
LINE
  5
1A4
  8
0
 10
158.7177978870813
 20
218.0
 30
0.0
 11
141.2822021129187
 21
218.0
 31
0.0
  0
LINE
  5
1A5
  8
0
 10
158.6602540378417
 20
215.0
 30
0.0
 11
141.3397459621529
 21
215.0
 31
0.0
  0
CIRCLE
  5
1A6
  8
0
 10
150.0
 20
200.0
 30
0.0
 40
20.0
  0
LINE
  5
2BE
  8
0
 10
154.79997275892219
 20
80.000000000000114
 30
0.0
 11
154.79997275892219
 21
76.800000000000082
 31
0.0
  0
LINE
  5
2BF
  8
0
 10
145.19997275892189
 20
80.000000000000114
 30
0.0
 11
145.19997275892189
 21
76.800000000000082
 31
0.0
  0
LINE
  5
2C0
  8
0
 10
155.99997275892201
 20
52.000000000000128
 30
0.0
 11
143.9999727589219
 21
52.000000000000128
 31
0.0
  0
LINE
  5
2C1
  8
0
 10
145.99997275892201
 20
50.000000000000128
 30
0.0
 11
143.99997275892201
 21
52.000000000000128
 31
0.0
  0
LINE
  5
2C2
  8
0
 10
155.99997275892201
 20
52.000000000000128
 30
0.0
 11
153.99997275892201
 21
50.000000000000128
 31
0.0
  0
LINE
  5
2C3
  8
0
 10
153.99997275892201
 20
50.000000000000128
 30
0.0
 11
145.99997275892201
 21
50.000000000000128
 31
0.0
  0
LINE
  5
2C4
  8
3
 10
155.05297275892201
 20
51.053000000000132
 30
0.0
 11
155.05297275892201
 21
76.000000000000114
 31
0.0
  0
LINE
  5
2C5
  8
0
 10
155.99997275892201
 20
52.000000000000128
 30
0.0
 11
155.99997275892201
 21
76.000000000000114
 31
0.0
  0
LINE
  5
2C6
  8
0
 10
143.99997275892201
 20
52.000000000000128
 30
0.0
 11
143.99997275892201
 21
76.000000000000114
 31
0.0
  0
LINE
  5
2C7
  8
3
 10
144.94697275892199
 20
51.053000000000239
 30
0.0
 11
144.94697275892199
 21
76.000000000000114
 31
0.0
  0
ARC
  5
2C8
  8
0
 10
144.39997275892199
 20
76.800000000000082
 30
0.0
 40
0.8
 50
270.0
 51
0.0
  0
ARC
  5
2C9
  8
0
 10
155.59997275892201
 20
76.800000000000082
 30
0.0
 40
0.8
 50
180.0
 51
270.0
  0
LINE
  5
2CA
  8
0
 10
143.99997275892201
 20
76.000000000000114
 30
0.0
 11
155.99997275892201
 21
76.000000000000114
 31
0.0
  0
LINE
  5
2F2
  8
1
 10
230.0
 20
139.99999999994509
 30
0.0
 11
229.99999999999989
 21
40.000000000000128
 31
0.0
  0
LINE
  5
2F3
  8
0
 10
209.99999993273289
 20
100.99999999988449
 30
0.0
 11
211.99999993273289
 21
100.99999999988449
 31
0.0
  0
LINE
  5
2F4
  8
0
 10
210.99999999999929
 20
80.0
 30
0.0
 11
249.00000000000051
 21
80.0
 31
0.0
  0
LINE
  5
2F5
  8
0
 10
249.00000000000051
 20
80.0
 30
0.0
 11
249.99999999999989
 21
80.999999999999545
 31
0.0
  0
LINE
  5
2F6
  8
0
 10
249.99999999999989
 20
80.999999999999545
 30
0.0
 11
249.99999993273269
 21
100.99999999988449
 31
0.0
  0
LINE
  5
2F7
  8
0
 10
210.0
 20
80.999999999999545
 30
0.0
 11
209.99999993273289
 21
100.99999999988449
 31
0.0
  0
LINE
  5
2F8
  8
0
 10
210.99999999999929
 20
80.0
 30
0.0
 11
210.0
 21
80.999999999999545
 31
0.0
  0
LINE
  5
2F9
  8
0
 10
247.99999993273269
 20
114.4226497307459
 30
0.0
 11
246.99999993273281
 21
114.9999999999354
 31
0.0
  0
LINE
  5
2FA
  8
0
 10
247.99999993273269
 20
114.4226497307459
 30
0.0
 11
247.99999993273269
 21
100.99999999988449
 31
0.0
  0
LINE
  5
2FB
  8
0
 10
244.99999993274349
 20
121.9999999999459
 30
0.0
 11
244.99999993274349
 21
114.9999999999354
 31
0.0
  0
ARC
  5
2FC
  8
0
 10
237.50000528630531
 20
100.33731125652
 30
0.0
 40
21.66268874342278
 50
69.743856159371376
 51
110.2561438406286
  0
ARC
  5
2FD
  8
0
 10
237.50000528630531
 20
136.66268874336541
 30
0.0
 40
21.66268874342278
 50
249.7438561593714
 51
290.25614384062862
  0
ARC
  5
2FE
  8
0
 10
238.99999993273269
 20
89.163575453638259
 30
0.0
 40
25.25907427711627
 50
72.608697954022333
 51
107.3913020459776
  0
LINE
  5
2FF
  8
0
 10
247.99999993273269
 20
113.2679491923782
 30
0.0
 11
246.54983436800501
 21
113.2679491923782
 31
0.0
  0
LINE
  5
300
  8
0
 10
246.54983436800501
 20
113.2679491923782
 30
0.0
 11
246.54983436800501
 21
100.99999999988449
 31
0.0
  0
LINE
  5
301
  8
0
 10
231.4501654974606
 20
113.2679491923782
 30
0.0
 11
231.4501654974606
 21
100.99999999988449
 31
0.0
  0
LINE
  5
302
  8
0
 10
228.54983436800489
 20
113.2679491923782
 30
0.0
 11
228.54983436800489
 21
100.99999999988449
 31
0.0
  0
LINE
  5
303
  8
0
 10
213.4501654974606
 20
113.2679491923782
 30
0.0
 11
213.4501654974606
 21
100.99999999988449
 31
0.0
  0
LINE
  5
304
  8
0
 10
211.99999993273289
 20
113.2679491923782
 30
0.0
 11
213.4501654974606
 21
113.2679491923782
 31
0.0
  0
ARC
  5
305
  8
0
 10
220.99999993273261
 20
89.163575453638259
 30
0.0
 40
25.25907427711627
 50
72.608697954022333
 51
107.3913020459776
  0
ARC
  5
306
  8
0
 10
222.4999945791601
 20
136.66268874336541
 30
0.0
 40
21.66268874342278
 50
249.7438561593714
 51
290.25614384062862
  0
ARC
  5
307
  8
0
 10
222.4999945791601
 20
100.33731125652
 30
0.0
 40
21.66268874342278
 50
69.743856159371376
 51
110.2561438406286
  0
LINE
  5
308
  8
0
 10
214.99999993272189
 20
121.9999999999459
 30
0.0
 11
214.99999993272189
 21
114.9999999999354
 31
0.0
  0
LINE
  5
309
  8
0
 10
211.99999993273261
 20
114.4226497307459
 30
0.0
 11
211.99999993273289
 21
100.99999999988449
 31
0.0
  0
LINE
  5
30A
  8
0
 10
211.99999993273289
 20
114.4226497307459
 30
0.0
 11
212.99999993273261
 21
114.9999999999354
 31
0.0
  0
LINE
  5
30B
  8
0
 10
244.99999993274349
 20
121.9999999999459
 30
0.0
 11
214.99999993272189
 21
121.9999999999459
 31
0.0
  0
LINE
  5
30C
  8
0
 10
246.99999993273281
 20
114.9999999999354
 30
0.0
 11
212.99999993273261
 21
114.9999999999354
 31
0.0
  0
LINE
  5
30D
  8
0
 10
231.4501654974606
 20
113.2679491923782
 30
0.0
 11
228.54983436800489
 21
113.2679491923782
 31
0.0
  0
LINE
  5
31D
  8
0
 10
230.0
 20
120.660254062615
 30
0.0
 11
230.0
 21
116.33974593727039
 31
0.0
  0
LINE
  5
31E
  8
0
 10
247.99999993273269
 20
100.99999999988449
 30
0.0
 11
249.99999993273269
 21
100.99999999988449
 31
0.0
  0
LINE
  5
31F
  8
0
 10
231.4501654974606
 20
100.99999999988449
 30
0.0
 11
246.54983436800501
 21
100.99999999988449
 31
0.0
  0
LINE
  5
320
  8
0
 10
213.4501654974606
 20
100.99999999988449
 30
0.0
 11
228.54983436800489
 21
100.99999999988449
 31
0.0
  0
LINE
  5
321
  8
1
 10
149.99997275892201
 20
139.99999999994509
 30
0.0
 11
149.99997275892201
 21
40.000000000000128
 31
0.0
  0
LINE
  5
322
  8
0
 10
168.99997275892289
 20
80.000000000000114
 30
0.0
 11
169.99997275892201
 21
80.999999999999417
 31
0.0
  0
LINE
  5
323
  8
0
 10
169.99997275892201
 20
80.999999999999417
 30
0.0
 11
169.9999726916549
 21
113.2679491923667
 31
0.0
  0
LINE
  5
324
  8
0
 10
169.9999726916549
 20
113.2679491923667
 30
0.0
 11
166.99997269165479
 21
114.9999999999353
 31
0.0
  0
LINE
  5
325
  8
0
 10
129.9999726916549
 20
113.2679491923667
 30
0.0
 11
132.9999726916549
 21
114.9999999999353
 31
0.0
  0
LINE
  5
326
  8
0
 10
129.99997275892201
 20
80.999999999999417
 30
0.0
 11
129.99997269167491
 21
113.2679491923781
 31
0.0
  0
LINE
  5
327
  8
0
 10
130.9999727589211
 20
80.000000000000114
 30
0.0
 11
129.99997275892201
 21
80.999999999999417
 31
0.0
  0
LINE
  5
328
  8
0
 10
166.99997269165479
 20
114.9999999999353
 30
0.0
 11
132.9999726916549
 21
114.9999999999353
 31
0.0
  0
LINE
  5
329
  8
0
 10
168.99997275892289
 20
80.000000000000114
 30
0.0
 11
130.9999727589211
 21
80.000000000000114
 31
0.0
  0
LINE
  5
32A
  8
0
 10
169.9999726916549
 20
100.99999999988439
 30
0.0
 11
161.22953101623401
 21
100.99999999988439
 31
0.0
  0
ARC
  5
32B
  8
0
 10
164.9999726916476
 20
106.91709623125929
 30
0.0
 40
8.0829037686761218
 50
51.786789298318674
 51
51.786789298355238
  0
ARC
  5
32C
  8
0
 10
165.61475185393459
 20
105.5183951658115
 30
0.0
 40
8.9042545676815692
 50
60.495888572197238
 51
119.5041114278027
  0
ARC
  5
32D
  8
0
 10
149.9999726916549
 20
80.936334117674406
 30
0.0
 40
33.48631561307996
 50
74.90981482059604
 51
105.0901851794039
  0
ARC
  5
32E
  8
0
 10
134.3851935293751
 20
105.5183951658115
 30
0.0
 40
8.9042545676815692
 50
60.495888572197238
 51
119.5041114278027
  0
LINE
  5
32F
  8
0
 10
161.22953101623401
 20
113.2679491923781
 30
0.0
 11
158.71777057873621
 21
113.2679491923781
 31
0.0
  0
LINE
  5
330
  8
0
 10
158.71777057873621
 20
113.2679491923781
 30
0.0
 11
158.71777057873621
 21
100.99999999988439
 31
0.0
  0
LINE
  5
331
  8
0
 10
161.22953101623401
 20
100.99999999988439
 30
0.0
 11
161.22953101623401
 21
113.2679491923781
 31
0.0
  0
LINE
  5
332
  8
0
 10
138.77041436707529
 20
100.99999999988439
 30
0.0
 11
138.77041436707529
 21
113.2679491923781
 31
0.0
  0
LINE
  5
333
  8
0
 10
141.28217480457349
 20
113.2679491923781
 30
0.0
 11
141.28217480457349
 21
100.99999999988439
 31
0.0
  0
LINE
  5
334
  8
0
 10
138.77041436707529
 20
113.2679491923781
 30
0.0
 11
141.28217480457349
 21
113.2679491923781
 31
0.0
  0
LINE
  5
335
  8
0
 10
167.32048076730371
 20
120.66025403780679
 30
0.0
 11
164.9999726916439
 21
121.9999999999457
 31
0.0
  0
LINE
  5
336
  8
0
 10
167.32048076731459
 20
116.33974596208471
 30
0.0
 11
164.99997269165479
 21
114.9999999999457
 31
0.0
  0
LINE
  5
337
  8
0
 10
167.32048076731459
 20
116.33974596208471
 30
0.0
 11
167.32048076731459
 21
120.6602540378006
 31
0.0
  0
LINE
  5
338
  8
0
 10
132.6794646159951
 20
116.33974596208471
 30
0.0
 11
132.6794646159951
 21
120.6602540378006
 31
0.0
  0
LINE
  5
339
  8
0
 10
132.6794646159951
 20
116.33974596208471
 30
0.0
 11
134.99997269165479
 21
114.9999999999457
 31
0.0
  0
LINE
  5
33A
  8
0
 10
132.67946461598419
 20
120.66025403780679
 30
0.0
 11
134.9999726916439
 21
121.9999999999457
 31
0.0
  0
LINE
  5
33B
  8
0
 10
164.9999726916439
 20
121.9999999999457
 30
0.0
 11
134.9999726916439
 21
121.9999999999457
 31
0.0
  0
ARC
  5
33C
  8
0
 10
162.9903537483942
 20
114.3325317546511
 30
0.0
 40
7.6674682452978322
 50
55.615752532131062
 51
55.615752532196133
  0
ARC
  5
33D
  8
0
 10
149.99997269164439
 20
93.339745962046777
 30
0.0
 40
28.660254037902249
 50
72.412046226065115
 51
107.5879537739349
  0
ARC
  5
33E
  8
0
 10
137.0095916348937
 20
114.3325317546511
 30
0.0
 40
7.6674682452978322
 50
55.615752532131062
 51
115.6157525321173
  0
ARC
  5
33F
  8
0
 10
137.0095916348937
 20
114.3325317546511
 30
0.0
 40
7.6674682452978322
 50
124.384247467775
 51
124.3842474678689
  0
ARC
  5
340
  8
0
 10
162.9903537483942
 20
114.3325317546511
 30
0.0
 40
7.6674682452978322
 50
64.384247467911734
 51
124.3842474678689
  0
ARC
  5
341
  8
0
 10
162.99035374840511
 20
122.6674682452404
 30
0.0
 40
7.6674682452978322
 50
235.6157525321311
 51
295.61575253208821
  0
ARC
  5
342
  8
0
 10
137.00959163490461
 20
122.6674682452404
 30
0.0
 40
7.6674682452978322
 50
244.3842474678826
 51
304.38424746786887
  0
ARC
  5
343
  8
0
 10
149.9999726916549
 20
143.66025403784499
 30
0.0
 40
28.660254037902249
 50
252.41204622606509
 51
287.58795377393488
  0
LINE
  5
344
  8
0
 10
158.66022672948469
 20
120.6602540377943
 30
0.0
 11
158.66022672948469
 21
116.3397459620909
 31
0.0
  0
LINE
  5
345
  8
0
 10
141.339718653825
 20
120.6602540377943
 30
0.0
 11
141.339718653825
 21
116.3397459620909
 31
0.0
  0
LINE
  5
355
  8
0
 10
158.71777057873621
 20
100.99999999988439
 30
0.0
 11
141.28217480457349
 21
100.99999999988439
 31
0.0
  0
LINE
  5
356
  8
0
 10
138.77041436707529
 20
100.99999999988439
 30
0.0
 11
129.9999726916549
 21
100.99999999988439
 31
0.0
  0
LINE
  5
358
  8
0
 10
159.00000337089429
 20
122.1999999999458
 30
0.0
 11
159.00000337089429
 21
121.9999999999457
 31
0.0
  0
ARC
  5
359
  8
0
 10
159.80000337089399
 20
122.1999999999458
 30
0.0
 40
0.8
 50
90.0
 51
180.0
  0
LINE
  5
35A
  8
0
 10
133.17950554585599
 20
122.9999999999457
 30
0.0
 11
132.67950554585599
 21
123.4999999999457
 31
0.0
  0
LINE
  5
35B
  8
0
 10
166.82049458867911
 20
122.9999999999457
 30
0.0
 11
167.32049458867911
 21
123.4999999999457
 31
0.0
  0
LINE
  5
35C
  8
0
 10
166.82049458867911
 20
122.9999999999457
 30
0.0
 11
133.17950554585599
 21
122.9999999999457
 31
0.0
  0
LINE
  5
35D
  8
0
 10
132.67950554585599
 20
123.4999999999457
 30
0.0
 11
132.67950554585599
 21
128.66025403779989
 31
0.0
  0
LINE
  5
35E
  8
0
 10
167.32049458867911
 20
123.4999999999457
 30
0.0
 11
167.32049458867911
 21
128.66025403779989
 31
0.0
  0
LINE
  5
35F
  8
0
 10
158.66024055084921
 20
128.66025403779381
 30
0.0
 11
158.66024055084921
 21
122.9999999999457
 31
0.0
  0
LINE
  5
360
  8
0
 10
141.33973247518949
 20
128.66025403779381
 30
0.0
 11
141.33973247518949
 21
122.9999999999457
 31
0.0
  0
LINE
  5
361
  8
0
 10
167.3204945886682
 20
128.66025403780611
 30
0.0
 11
164.99998651300851
 21
129.99999999994509
 31
0.0
  0
LINE
  5
362
  8
0
 10
132.67947843734871
 20
128.66025403780611
 30
0.0
 11
134.99998651300851
 21
129.99999999994509
 31
0.0
  0
LINE
  5
363
  8
0
 10
164.99998651300851
 20
129.99999999994509
 30
0.0
 11
134.99998651300851
 21
129.99999999994509
 31
0.0
  0
ARC
  5
364
  8
0
 10
162.99036756975869
 20
122.3325317546504
 30
0.0
 40
7.6674682452978322
 50
55.615752532131062
 51
55.615752532196133
  0
ARC
  5
365
  8
0
 10
149.99998651300839
 20
101.33974596204609
 30
0.0
 40
28.660254037902249
 50
72.412046226065115
 51
107.5879537739349
  0
ARC
  5
366
  8
0
 10
137.00960545625821
 20
122.3325317546504
 30
0.0
 40
7.6674682452978322
 50
55.615752532131062
 51
115.6157525321173
  0
ARC
  5
367
  8
0
 10
137.00960545625821
 20
122.3325317546504
 30
0.0
 40
7.6674682452978322
 50
124.384247467775
 51
124.3842474678689
  0
ARC
  5
368
  8
0
 10
162.99036756975869
 20
122.3325317546504
 30
0.0
 40
7.6674682452978322
 50
64.384247467911734
 51
124.3842474678689
  0
ARC
  5
369
  8
2
 10
159.80000337089399
 20
120.7999999999457
 30
0.0
 40
0.8
 50
180.0
 51
270.0
  0
LINE
  5
36A
  8
2
 10
160.0
 20
119.9999999999457
 30
0.0
 11
160.0
 21
88.866025403742583
 31
0.0
  0
LINE
  5
36B
  8
2
 10
159.9999732985097
 20
88.866025403742583
 30
0.0
 11
158.49997329850561
 21
87.999999999956003
 31
0.0
  0
LINE
  5
36C
  8
2
 10
159.18799999999831
 20
88.397232401272277
 30
0.0
 11
159.18799999999831
 21
120.28477978099831
 31
0.0
  0
LINE
  5
36D
  8
2
 10
140.8120000000022
 20
88.397201569046729
 30
0.0
 11
140.8120000000022
 21
120.28477978099831
 31
0.0
  0
LINE
  5
36E
  8
2
 10
139.9999732985097
 20
88.866025403742583
 30
0.0
 11
141.4999732985134
 21
87.999999999956003
 31
0.0
  0
LINE
  5
36F
  8
2
 10
140.0
 20
119.9999999999457
 30
0.0
 11
140.0
 21
88.866025403742583
 31
0.0
  0
ARC
  5
370
  8
2
 10
140.19999662910641
 20
120.7999999999457
 30
0.0
 40
0.8
 50
270.0
 51
0.0
  0
ARC
  5
371
  8
0
 10
140.19999662910641
 20
122.1999999999458
 30
0.0
 40
0.8
 50
0.0
 51
90.0
  0
LINE
  5
372
  8
2
 10
140.99999662910611
 20
121.9999999999457
 30
0.0
 11
140.99999662910611
 21
120.7999999999457
 31
0.0
  0
LINE
  5
373
  8
2
 10
140.0
 20
119.9999999999457
 30
0.0
 11
160.0
 21
119.9999999999457
 31
0.0
  0
LINE
  5
374
  8
2
 10
158.49997329850561
 20
87.999999999956003
 30
0.0
 11
141.4999732985134
 21
87.999999999956003
 31
0.0
  0
LINE
  5
375
  8
2
 10
139.9999732985097
 20
88.866025403742583
 30
0.0
 11
159.9999732985097
 21
88.866025403742583
 31
0.0
  0
LINE
  5
376
  8
0
 10
229.99999999999989
 20
128.66025403779761
 30
0.0
 11
229.99999999999989
 21
122.9999999999459
 31
0.0
  0
LINE
  5
378
  8
0
 10
244.49999999999989
 20
122.9999999999459
 30
0.0
 11
215.49999999999989
 21
122.9999999999459
 31
0.0
  0
LINE
  5
379
  8
0
 10
245.0000134869918
 20
129.999999999945
 30
0.0
 11
214.9999865130082
 21
129.999999999945
 31
0.0
  0
LINE
  5
37A
  8
0
 10
214.99999999999989
 20
123.4999999999459
 30
0.0
 11
215.49999999999989
 21
122.9999999999459
 31
0.0
  0
LINE
  5
37B
  8
0
 10
214.9999865130082
 20
129.999999999945
 30
0.0
 11
214.99999999999989
 21
123.4999999999459
 31
0.0
  0
ARC
  5
37C
  8
0
 10
222.4999946464381
 20
108.3373112565227
 30
0.0
 40
21.66268874342278
 50
69.743856159371376
 51
110.2561438406286
  0
ARC
  5
37D
  8
0
 10
237.5000053535617
 20
108.3373112565227
 30
0.0
 40
21.66268874342278
 50
69.743856159371376
 51
110.2561438406286
  0
LINE
  5
37E
  8
0
 10
245.0000134869918
 20
129.999999999945
 30
0.0
 11
244.99999999999989
 21
123.4999999999459
 31
0.0
  0
LINE
  5
37F
  8
0
 10
244.99999999999989
 20
123.4999999999459
 30
0.0
 11
244.49999999999989
 21
122.9999999999459
 31
0.0
  0
LINE
  5
380
  8
2
 10
238.49999999999599
 20
87.999999999944976
 30
0.0
 11
221.50000000000381
 21
87.999999999944976
 31
0.0
  0
LINE
  5
381
  8
2
 10
220.99999662910599
 20
121.9999999999458
 30
0.0
 11
220.99999662910599
 21
120.7999999999456
 31
0.0
  0
ARC
  5
382
  8
0
 10
220.1999966291061
 20
122.1999999999457
 30
0.0
 40
0.8
 50
0.0
 51
90.0
  0
ARC
  5
383
  8
2
 10
220.19999662910581
 20
120.7999999999456
 30
0.0
 40
0.8
 50
270.0
 51
0.0
  0
LINE
  5
384
  8
2
 10
219.99999999999989
 20
119.9999999999459
 30
0.0
 11
219.99999999999989
 21
88.866025403731783
 31
0.0
  0
LINE
  5
385
  8
2
 10
219.99999999999989
 20
88.866025403731783
 30
0.0
 11
221.50000000000381
 21
87.999999999944976
 31
0.0
  0
LINE
  5
386
  8
2
 10
220.8120000000018
 20
88.397216985148589
 30
0.0
 11
220.8120000000018
 21
120.28477978099841
 31
0.0
  0
LINE
  5
387
  8
2
 10
239.187999999998
 20
88.397216985148589
 30
0.0
 11
239.187999999998
 21
120.28477978099841
 31
0.0
  0
ARC
  5
388
  8
2
 10
239.8000033708939
 20
120.7999999999456
 30
0.0
 40
0.8
 50
180.0
 51
270.0
  0
ARC
  5
389
  8
0
 10
239.8000033708939
 20
122.1999999999457
 30
0.0
 40
0.8
 50
90.0
 51
180.0
  0
LINE
  5
38A
  8
0
 10
239.00000337089401
 20
122.1999999999457
 30
0.0
 11
239.00000337089401
 21
121.9999999999458
 31
0.0
  0
LINE
  5
38B
  8
2
 10
220.00000000000011
 20
88.866025403731783
 30
0.0
 11
239.99999999999989
 21
88.866025403731783
 31
0.0
  0
LINE
  5
38C
  8
2
 10
219.99999999999989
 20
119.9999999999459
 30
0.0
 11
239.99999999999989
 21
119.9999999999459
 31
0.0
  0
LINE
  5
38D
  8
2
 10
239.99999999999989
 20
88.866025403731783
 30
0.0
 11
238.49999999999599
 21
87.999999999944976
 31
0.0
  0
LINE
  5
38E
  8
2
 10
239.99999999999989
 20
119.9999999999459
 30
0.0
 11
239.99999999999989
 21
88.866025403731783
 31
0.0
  0
LINE
  5
38F
  8
0
 10
224.00002710818509
 20
76.000000000000142
 30
0.0
 11
236.00002710818509
 21
76.000000000000142
 31
0.0
  0
ARC
  5
390
  8
0
 10
235.6000271081852
 20
76.800000000000097
 30
0.0
 40
0.8
 50
180.0
 51
270.0
  0
ARC
  5
391
  8
0
 10
224.4000271081851
 20
76.800000000000097
 30
0.0
 40
0.8
 50
270.0
 51
0.0
  0
LINE
  5
392
  8
3
 10
224.94702710818521
 20
51.053000000000253
 30
0.0
 11
224.94702710818521
 21
76.000000000000142
 31
0.0
  0
LINE
  5
393
  8
0
 10
224.00002710818509
 20
52.000000000000142
 30
0.0
 11
224.00002710818509
 21
76.000000000000142
 31
0.0
  0
LINE
  5
394
  8
0
 10
236.00002710818509
 20
52.000000000000142
 30
0.0
 11
236.00002710818509
 21
76.000000000000142
 31
0.0
  0
LINE
  5
395
  8
3
 10
235.0530271081852
 20
51.053000000000132
 30
0.0
 11
235.0530271081852
 21
76.000000000000142
 31
0.0
  0
LINE
  5
396
  8
0
 10
234.00002710818509
 20
50.000000000000142
 30
0.0
 11
226.00002710818509
 21
50.000000000000142
 31
0.0
  0
LINE
  5
397
  8
0
 10
236.00002710818509
 20
52.000000000000142
 30
0.0
 11
234.00002710818509
 21
50.000000000000142
 31
0.0
  0
LINE
  5
398
  8
0
 10
226.00002710818509
 20
50.000000000000142
 30
0.0
 11
224.00002710818509
 21
52.000000000000142
 31
0.0
  0
LINE
  5
399
  8
0
 10
236.00002710818509
 20
52.000000000000142
 30
0.0
 11
224.00002710818501
 21
52.000000000000142
 31
0.0
  0
LINE
  5
39A
  8
0
 10
225.20002710818511
 20
80.000000000000114
 30
0.0
 11
225.20002710818511
 21
76.800000000000097
 31
0.0
  0
LINE
  5
39B
  8
0
 10
234.8000271081853
 20
80.000000000000114
 30
0.0
 11
234.8000271081853
 21
76.800000000000097
 31
0.0
  0
LINE
  5
39C
  8
2
 10
158.99994888873789
 20
121.9999999999457
 30
0.0
 11
158.99994888873789
 21
120.7999999999457
 31
0.0
  0
LINE
  5
39D
  8
0
 10
140.99994214694971
 20
122.1999999999458
 30
0.0
 11
140.99994214694971
 21
121.9999999999457
 31
0.0
  0
LINE
  5
3A0
  8
0
 10
220.99999662910599
 20
122.1999999999457
 30
0.0
 11
220.99999662910599
 21
121.9999999999458
 31
0.0
  0
LINE
  5
3A1
  8
2
 10
239.00000337089401
 20
121.9999999999458
 30
0.0
 11
239.00000337089401
 21
120.7999999999456
 31
0.0
  0
LINE
  5
3B2
  8
0
 10
129.99997275892201
 20
80.999999999999417
 30
0.0
 11
169.99997275892201
 21
81.000000083385146
 31
0.0
  0
LINE
  5
3B3
  8
0
 10
210.0
 20
80.999999999999545
 30
0.0
 11
249.99999999999989
 21
81.000000134533821
 31
0.0
  0
TEXT
  5
463
  8
0
 62
     3
 10
0.0
 20
0.0
 30
0.0
 40
10.0
  1
BJ330-12050
  7
STANDARD1
  0
ENDSEC
  0
EOF
