  0
SECTION
  2
HEADER
  9
$ACADVER
  1
AC1009
  9
$INSBASE
 10
0.0
 20
0.0
 30
0.0
  9
$EXTMIN
 10
0.0
 20
-2.960436562073669
 30
0.0
  9
$EXTMAX
 10
295.00000000000011
 20
215.99504207305279
 30
0.0
  9
$LIMMIN
 10
0.0
 20
0.0
  9
$LIMMAX
 10
375.0
 20
270.0
  9
$ORTHOMODE
 70
     1
  9
$REGENMODE
 70
     1
  9
$FILLMODE
 70
     1
  9
$QTEXTMODE
 70
     0
  9
$MIRRTEXT
 70
     0
  9
$DRAGMODE
 70
     2
  9
$LTSCALE
 40
5.0
  9
$OSMODE
 70
  3071
  9
$ATTMODE
 70
     1
  9
$TEXTSIZE
 40
0.2
  9
$TRACEWID
 40
0.05
  9
$TEXTSTYLE
  7
ST
  9
$CLAYER
  8
4
  9
$CELTYPE
  6
BYLAYER
  9
$CECOLOR
 62
   256
  9
$DIMSCALE
 40
1.0
  9
$DIMASZ
 40
3.0
  9
$DIMEXO
 40
2.0
  9
$DIMDLI
 40
0.3799999999999999
  9
$DIMRND
 40
0.0
  9
$DIMDLE
 40
0.0
  9
$DIMEXE
 40
2.0
  9
$DIMTP
 40
0.0
  9
$DIMTM
 40
0.0
  9
$DIMTXT
 40
3.0
  9
$DIMCEN
 40
0.09
  9
$DIMTSZ
 40
0.0
  9
$DIMTOL
 70
     0
  9
$DIMLIM
 70
     0
  9
$DIMTIH
 70
     0
  9
$DIMTOH
 70
     0
  9
$DIMSE1
 70
     0
  9
$DIMSE2
 70
     0
  9
$DIMTAD
 70
     1
  9
$DIMZIN
 70
     0
  9
$DIMBLK
  1

  9
$DIMASO
 70
     0
  9
$DIMSHO
 70
     0
  9
$DIMPOST
  1

  9
$DIMAPOST
  1

  9
$DIMALT
 70
     0
  9
$DIMALTD
 70
     2
  9
$DIMALTF
 40
25.399999999999999
  9
$DIMLFAC
 40
1.0
  9
$DIMTOFL
 70
     1
  9
$DIMTVP
 40
1.6000000000000001
  9
$DIMTIX
 70
     1
  9
$DIMSOXD
 70
     0
  9
$DIMSAH
 70
     0
  9
$DIMBLK1
  1

  9
$DIMBLK2
  1

  9
$DIMSTYLE
  2
STANDARD
  9
$DIMCLRD
 70
     0
  9
$DIMCLRE
 70
     0
  9
$DIMCLRT
 70
     0
  9
$DIMTFAC
 40
1.0
  9
$DIMGAP
 40
1.1999999999999991
  9
$LUNITS
 70
     2
  9
$LUPREC
 70
     4
  9
$SKETCHINC
 40
0.1
  9
$FILLETRAD
 40
1.5
  9
$AUNITS
 70
     0
  9
$AUPREC
 70
     4
  9
$MENU
  1
ACAD
  9
$ELEVATION
 40
0.0
  9
$PELEVATION
 40
0.0
  9
$THICKNESS
 40
0.0
  9
$LIMCHECK
 70
     0
  9
$BLIPMODE
 70
     0
  9
$CHAMFERA
 40
0.0
  9
$CHAMFERB
 40
0.0
  9
$SKPOLY
 70
     0
  9
$TDCREATE
 40
2448586.4078643522
  9
$TDUPDATE
 40
2456597.665347835
  9
$TDINDWG
 40
0.2723901273
  9
$TDUSRTIMER
 40
0.2723901273
  9
$USRTIMER
 70
     1
  9
$ANGBASE
 50
0.0
  9
$ANGDIR
 70
     0
  9
$PDMODE
 70
     0
  9
$PDSIZE
 40
0.0
  9
$PLINEWID
 40
0.0
  9
$COORDS
 70
     1
  9
$SPLFRAME
 70
     0
  9
$SPLINETYPE
 70
     6
  9
$SPLINESEGS
 70
     8
  9
$ATTDIA
 70
     0
  9
$ATTREQ
 70
     1
  9
$HANDLING
 70
     1
  9
$HANDSEED
  5
A65
  9
$SURFTAB1
 70
     6
  9
$SURFTAB2
 70
     6
  9
$SURFTYPE
 70
     6
  9
$SURFU
 70
     6
  9
$SURFV
 70
     6
  9
$UCSNAME
  2

  9
$UCSORG
 10
0.0
 20
0.0
 30
0.0
  9
$UCSXDIR
 10
1.0
 20
0.0
 30
0.0
  9
$UCSYDIR
 10
0.0
 20
1.0
 30
0.0
  9
$PUCSNAME
  2

  9
$PUCSORG
 10
0.0
 20
0.0
 30
0.0
  9
$PUCSXDIR
 10
1.0
 20
0.0
 30
0.0
  9
$PUCSYDIR
 10
0.0
 20
1.0
 30
0.0
  9
$USERI1
 70
     0
  9
$USERI2
 70
     1
  9
$USERI3
 70
     1
  9
$USERI4
 70
     0
  9
$USERI5
 70
     0
  9
$USERR1
 40
0.0
  9
$USERR2
 40
0.0
  9
$USERR3
 40
0.0
  9
$USERR4
 40
0.0
  9
$USERR5
 40
0.0
  9
$WORLDVIEW
 70
     1
  9
$SHADEDGE
 70
     3
  9
$SHADEDIF
 70
    70
  9
$TILEMODE
 70
     1
  9
$MAXACTVP
 70
    16
  9
$PLIMCHECK
 70
     0
  9
$PEXTMIN
 10
1.0000000000000000E+020
 20
1.0000000000000000E+020
 30
1.0000000000000000E+020
  9
$PEXTMAX
 10
-1.0000000000000000E+020
 20
-1.0000000000000000E+020
 30
-1.0000000000000000E+020
  9
$PLIMMIN
 10
0.0
 20
0.0
  9
$PLIMMAX
 10
12.0
 20
9.0
  9
$UNITMODE
 70
     0
  9
$VISRETAIN
 70
     0
  9
$PLINEGEN
 70
     1
  9
$PSLTSCALE
 70
     0
  0
ENDSEC
  0
SECTION
  2
TABLES
  0
TABLE
  2
VPORT
 70
     1
  0
VPORT
  2
*ACTIVE
 70
     0
 10
0.0
 20
0.0
 11
1.0
 21
1.0
 12
195.0581083320873
 22
133.5127261426681
 13
0.0
 23
0.0
 14
5.0
 24
5.0
 15
10.0
 25
10.0
 16
0.0
 26
0.0
 36
1.0
 17
0.0
 27
0.0
 37
0.0
 40
275.42274993631997
 41
1.831871345029239
 42
50.0
 43
0.0
 44
0.0
 50
0.0
 51
0.0
 71
     0
 72
   500
 73
     1
 74
     0
 75
     0
 76
     0
 77
     0
 78
     2
  0
ENDTAB
  0
TABLE
  2
LTYPE
 70
     4
  0
LTYPE
  2
CONTINUOUS
 70
     0
  3
実線
 72
    65
 73
     0
 40
0.0
  0
LTYPE
  2
CENTER
 70
     0
  3
____ _ ____ _ ____ _ ____ _ ____ _ ____ _ ____
 72
    65
 73
     4
 40
2.0
 49
1.25
 49
-0.25
 49
0.25
 49
-0.25
  0
LTYPE
  2
HIDDEN
 70
     0
  3
_ _ _ _ _ _ _ _ _ _ _ _ _ _ _ _ _ _ _ _ _ _ _
 72
    65
 73
     2
 40
0.375
 49
0.25
 49
-0.125
  0
LTYPE
  2
PHANTOM2
 70
     0
  3
___ _ _ ___ _ _ ___ _ _ ___ _ _
 72
    65
 73
     6
 40
1.25
 49
0.625
 49
-0.125
 49
0.125
 49
-0.125
 49
0.125
 49
-0.125
  0
ENDTAB
  0
TABLE
  2
LAYER
 70
     6
  0
LAYER
  2
0
 70
     0
 62
     7
  6
CONTINUOUS
  0
LAYER
  2
1
 70
     0
 62
     1
  6
CENTER
  0
LAYER
  2
4
 70
     0
 62
     4
  6
CONTINUOUS
  0
LAYER
  2
2
 70
     0
 62
     2
  6
HIDDEN
  0
LAYER
  2
11
 70
     0
 62
     3
  6
CONTINUOUS
  0
LAYER
  2
3
 70
     0
 62
     3
  6
CONTINUOUS
  0
ENDTAB
  0
TABLE
  2
STYLE
 70
     4
  0
STYLE
  2
STANDARD
 70
     0
 40
0.0
 41
1.0
 50
0.0
 71
     0
 42
5.0
  3
simplex.shx
  4
BIGFONT.shx
  0
STYLE
  2
07500
 70
     0
 40
0.0
 41
0.75
 50
0.0
 71
     0
 42
0.2
  3
simplex.shx
  4
BIGFONT.shx
  0
STYLE
  2
ST
 70
     0
 40
0.0
 41
1.0
 50
0.0
 71
     0
 42
0.2
  3
simplex.shx
  4
BIGFONT.shx
  0
STYLE
  2
STANDARD1
 70
     0
 40
0.0
 41
1.0
 50
0.0
 71
     0
 42
3.0
  3
txt
  4

  0
ENDTAB
  0
TABLE
  2
VIEW
 70
     1
  0
VIEW
  2
ALL
 70
     0
 40
270.0
 10
220.99159663865549
 20
135.0
 41
0.0
 11
0.0
 21
0.0
 31
1.0
 12
0.0
 22
0.0
 32
0.0
 42
0.0
 43
0.0
 44
0.0
 50
0.0
 71
     0
  0
ENDTAB
  0
TABLE
  2
UCS
 70
     0
  0
ENDTAB
  0
TABLE
  2
APPID
 70
     3
  0
APPID
  2
ACAD
 70
     0
  0
APPID
  2
ACAD_MLEADERVER
 70
     0
  0
APPID
  2
ACAD_NAV_VCDISPLAY
 70
     0
  0
ENDTAB
  0
TABLE
  2
DIMSTYLE
 70
     1
  0
DIMSTYLE
  2
STANDARD
 70
     0
  3

  4

  5

  6

  7

 40
1.0
 41
0.18
 42
0.0625
 43
0.38
 44
0.18
 45
0.0
 46
0.0
 47
0.0
 48
0.0
140
0.18
141
0.09
142
0.0
143
25.399999999999999
144
1.0
145
0.0
146
1.0
147
0.09
 71
     0
 72
     0
 73
     1
 74
     1
 75
     0
 76
     0
 77
     0
 78
     0
170
     0
171
     2
172
     0
173
     0
174
     0
175
     0
176
     0
177
     0
178
     0
  0
ENDTAB
  0
ENDSEC
  0
SECTION
  2
BLOCKS
  0
BLOCK
  8
0
  2
$MODEL_SPACE
 70
     0
 10
0.0
 20
0.0
 30
0.0
  3
$MODEL_SPACE
  1

  0
ENDBLK
  5
12
  8
0
  0
BLOCK
 67
     1
  8
0
  2
$PAPER_SPACE
 70
     0
 10
0.0
 20
0.0
 30
0.0
  3
$PAPER_SPACE
  1

  0
ENDBLK
  5
1C
 67
     1
  8
0
  0
ENDSEC
  0
SECTION
  2
ENTITIES
  0
ARC
  5
71
  8
0
 10
175.00000000000011
 20
140.89143665402091
 30
0.0
 40
30.000000000000021
 50
270.95497387378413
 51
328.03428124920299
  0
LINE
  5
72
  8
0
 10
224.5
 20
126.89143665402089
 30
0.0
 11
225.0
 21
126.39143665402089
 31
0.0
  0
LINE
  5
73
  8
0
 10
224.5
 20
126.89143665402089
 30
0.0
 11
203.8444102037121
 21
126.89143665402089
 31
0.0
  0
ARC
  5
74
  8
0
 10
203.8444102037121
 20
122.89143665402089
 30
0.0
 40
4.0
 50
90.0
 51
148.0342812492031
  0
CIRCLE
  5
75
  8
0
 10
216.00000000000011
 20
205.99504207305279
 30
0.0
 40
5.0
  0
LINE
  5
76
  8
0
 10
218.16506350946111
 20
204.7450420730527
 30
0.0
 11
216.0
 21
203.49504207305279
 31
0.0
  0
LINE
  5
77
  8
0
 10
218.16506350946119
 20
207.24504207305279
 30
0.0
 11
218.16506350946111
 21
204.74504207305279
 31
0.0
  0
LINE
  5
78
  8
0
 10
216.00000000000011
 20
208.49504207305279
 30
0.0
 11
218.16506350946119
 21
207.24504207305279
 31
0.0
  0
LINE
  5
79
  8
0
 10
213.83493649053901
 20
207.24504207305279
 30
0.0
 11
216.0000000000002
 21
208.49504207305279
 31
0.0
  0
LINE
  5
7A
  8
0
 10
213.83493649053901
 20
204.74504207305279
 30
0.0
 11
213.83493649053901
 21
207.24504207305279
 31
0.0
  0
LINE
  5
7B
  8
0
 10
216.00000000000011
 20
203.49504207305279
 30
0.0
 11
213.83493649053901
 21
204.74504207305279
 31
0.0
  0
LINE
  5
7C
  8
0
 10
218.16506350946111
 20
183.2450420730529
 30
0.0
 11
216.0
 21
184.49504207305279
 31
0.0
  0
LINE
  5
7D
  8
0
 10
218.16506350946119
 20
180.74504207305279
 30
0.0
 11
218.16506350946111
 21
183.24504207305279
 31
0.0
  0
LINE
  5
7E
  8
0
 10
216.00000000000011
 20
179.4950420730527
 30
0.0
 11
218.16506350946119
 21
180.74504207305279
 31
0.0
  0
LINE
  5
7F
  8
0
 10
213.83493649053901
 20
180.7450420730527
 30
0.0
 11
216.0000000000002
 21
179.4950420730527
 31
0.0
  0
LINE
  5
80
  8
0
 10
213.83493649053901
 20
183.2450420730527
 30
0.0
 11
213.83493649053901
 21
180.7450420730527
 31
0.0
  0
LINE
  5
81
  8
0
 10
216.00000000000011
 20
184.49504207305279
 30
0.0
 11
213.83493649053901
 21
183.24504207305279
 31
0.0
  0
CIRCLE
  5
82
  8
0
 10
216.00000000000011
 20
181.99504207305279
 30
0.0
 40
5.0
  0
ARC
  5
83
  8
0
 10
177.00000000000011
 20
175.9950420730527
 30
0.0
 40
2.0
 50
180.0
 51
270.0
  0
LINE
  5
84
  8
0
 10
175.00000000000011
 20
175.9950420730527
 30
0.0
 11
175.00000000000011
 21
189.9950420730527
 31
0.0
  0
ARC
  5
85
  8
0
 10
177.00000000000011
 20
211.9950420730527
 30
0.0
 40
2.0
 50
90.0
 51
180.0
  0
LINE
  5
86
  8
0
 10
175.00000000000011
 20
197.9950420730527
 30
0.0
 11
179.0
 21
193.9950420730527
 31
0.0
  0
LINE
  5
87
  8
0
 10
179.0
 20
193.9950420730527
 30
0.0
 11
175.00000000000011
 21
189.9950420730527
 31
0.0
  0
LINE
  5
88
  8
0
 10
175.00000000000011
 20
197.9950420730527
 30
0.0
 11
175.00000000000011
 21
211.9950420730527
 31
0.0
  0
LINE
  5
89
  8
0
 10
200.450950179746
 20
175.9950420730527
 30
0.0
 11
200.450950179746
 21
211.9950420730527
 31
0.0
  0
LINE
  5
8A
  8
0
 10
203.84441038918339
 20
175.9950420730527
 30
0.0
 11
203.84441038918339
 21
211.9950420730527
 31
0.0
  0
LINE
  5
8B
  8
0
 10
225.00000000000011
 20
213.49504207305279
 30
0.0
 11
225.00000000000011
 21
174.49504207305279
 31
0.0
  0
LINE
  5
8C
  8
0
 10
224.50000000000011
 20
173.99504207305279
 30
0.0
 11
225.00000000000011
 21
174.49504207305279
 31
0.0
  0
LINE
  5
8D
  8
0
 10
224.50000000000011
 20
213.99504207305279
 30
0.0
 11
225.00000000000011
 21
213.49504207305279
 31
0.0
  0
CIRCLE
  5
8E
  8
0
 10
216.00000000000011
 20
181.99504207305279
 30
0.0
 40
5.5
  0
LINE
  5
8F
  8
1
 10
206.00000000000011
 20
181.99504207305279
 30
0.0
 11
226.00000000000011
 21
181.99504207305279
 31
0.0
  0
LINE
  5
92
  8
1
 10
206.00000000000011
 20
205.99504207305279
 30
0.0
 11
226.00000000000011
 21
205.99504207305279
 31
0.0
  0
CIRCLE
  5
93
  8
0
 10
216.00000000000011
 20
205.99504207305279
 30
0.0
 40
5.5
  0
LINE
  5
94
  8
1
 10
216.00000000000011
 20
171.99504207305279
 30
0.0
 11
216.00000000000011
 21
191.9950420730527
 31
0.0
  0
LINE
  5
95
  8
1
 10
216.00000000000011
 20
215.99504207305279
 30
0.0
 11
216.00000000000011
 21
195.99504207305279
 31
0.0
  0
ARC
  5
96
  8
0
 10
240.00000000000011
 20
110.89143665402089
 30
0.0
 40
7.0
 50
90.0
 51
270.0
  0
ARC
  5
97
  8
0
 10
270.0
 20
110.89143665402089
 30
0.0
 40
7.0
 50
270.0
 51
90.0
  0
LINE
  5
98
  8
0
 10
225.5
 20
126.89143665402089
 30
0.0
 11
225.0
 21
126.39143665402089
 31
0.0
  0
LINE
  5
99
  8
0
 10
240.0
 20
117.89143665402089
 30
0.0
 11
270.0
 21
117.89143665402089
 31
0.0
  0
LINE
  5
9A
  8
0
 10
240.0
 20
119.89143665402089
 30
0.0
 11
270.0
 21
119.89143665402089
 31
0.0
  0
ARC
  5
9B
  8
0
 10
240.0
 20
110.89143665402089
 30
0.0
 40
9.0
 50
90.0
 51
270.0
  0
ARC
  5
9C
  8
0
 10
270.0
 20
110.89143665402089
 30
0.0
 40
9.0
 50
270.0
 51
90.0
  0
LINE
  5
9D
  8
0
 10
225.0
 20
111.89143665402089
 30
0.0
 11
225.0
 21
126.39143665402089
 31
0.0
  0
LINE
  5
9E
  8
1
 10
170.00000000000011
 20
193.99504207305279
 30
0.0
 11
295.00000000000011
 21
193.99504207305279
 31
0.0
  0
LINE
  5
9F
  8
1
 10
216.00000000000011
 20
195.99504207305279
 30
0.0
 11
216.00000000000011
 21
215.99504207305279
 31
0.0
  0
LINE
  5
A0
  8
1
 10
226.00000000000011
 20
205.99504207305279
 30
0.0
 11
206.00000000000011
 21
205.99504207305279
 31
0.0
  0
LINE
  5
A1
  8
1
 10
216.00000000000011
 20
191.9950420730527
 30
0.0
 11
216.00000000000011
 21
171.99504207305279
 31
0.0
  0
LINE
  5
A2
  8
1
 10
226.00000000000011
 20
181.99504207305279
 30
0.0
 11
206.00000000000011
 21
181.99504207305279
 31
0.0
  0
LINE
  5
A3
  8
0
 10
225.00000000000011
 20
174.4950420730527
 30
0.0
 11
225.50000000000011
 21
173.9950420730527
 31
0.0
  0
LINE
  5
A4
  8
0
 10
225.00000000000011
 20
213.49504207305279
 30
0.0
 11
225.00000000000011
 21
174.4950420730527
 31
0.0
  0
LINE
  5
A5
  8
0
 10
225.00000000000011
 20
213.49504207305279
 30
0.0
 11
225.50000000000011
 21
213.9950420730527
 31
0.0
  0
LINE
  5
A6
  8
2
 10
210.00000000000011
 20
213.49504207305279
 30
0.0
 11
210.50000000000011
 21
213.9950420730527
 31
0.0
  0
LINE
  5
A9
  8
2
 10
210.00000000000011
 20
174.4950420730527
 30
0.0
 11
210.50000000000011
 21
173.9950420730527
 31
0.0
  0
LINE
  5
AA
  8
2
 10
210.00000000000011
 20
213.49504207305279
 30
0.0
 11
210.00000000000011
 21
174.4950420730527
 31
0.0
  0
LINE
  5
AB
  8
0
 10
75.0
 20
98.891436654020936
 30
0.0
 11
75.0
 21
122.89143665402089
 31
0.0
  0
LINE
  5
AC
  8
0
 10
71.0
 20
126.89143665402089
 30
0.0
 11
39.0
 21
126.89143665402089
 31
0.0
  0
LINE
  5
AD
  8
0
 10
177.00000000000011
 20
213.9950420730527
 30
0.0
 11
282.00000000000011
 21
213.99504207305279
 31
0.0
  0
LINE
  5
AE
  8
0
 10
290.00000000000011
 20
205.99504207305279
 30
0.0
 11
290.00000000000011
 21
181.99504207305279
 31
0.0
  0
LINE
  5
AF
  8
0
 10
282.00000000000011
 20
173.99504207305279
 30
0.0
 11
177.00000000000011
 21
173.9950420730527
 31
0.0
  0
LINE
  5
B0
  8
0
 10
290.00000000000011
 20
98.891436654020936
 30
0.0
 11
290.0
 21
122.89143665402089
 31
0.0
  0
LINE
  5
B1
  8
0
 10
286.0
 20
126.89143665402089
 30
0.0
 11
225.5
 21
126.89143665402089
 31
0.0
  0
ARC
  5
B2
  8
0
 10
71.0
 20
122.89143665402089
 30
0.0
 40
4.0
 50
0.0
 51
90.0
  0
LINE
  5
B3
  8
0
 10
35.0
 20
98.891436654020936
 30
0.0
 11
35.0
 21
122.89143665402089
 31
0.0
  0
ARC
  5
B4
  8
0
 10
39.0
 20
122.89143665402089
 30
0.0
 40
4.0
 50
90.0
 51
180.0
  0
ARC
  5
B5
  8
0
 10
286.0
 20
122.89143665402089
 30
0.0
 40
4.0
 50
0.0
 51
90.0
  0
LINE
  5
B6
  8
1
 10
272.50000000000011
 20
211.99504207305279
 30
0.0
 11
272.50000000000011
 21
175.99504207305279
 31
0.0
  0
ARC
  5
B7
  8
0
 10
272.50000000000011
 20
193.99504207305279
 30
0.0
 40
13.0
 50
270.0
 51
90.0
  0
LINE
  5
B8
  8
1
 10
242.50000000000011
 20
211.99504207305279
 30
0.0
 11
242.50000000000011
 21
175.99504207305279
 31
0.0
  0
ARC
  5
B9
  8
0
 10
242.50000000000011
 20
193.99504207305279
 30
0.0
 40
13.0
 50
90.0
 51
270.0
  0
LINE
  5
BA
  8
0
 10
242.50000000000011
 20
206.99504207305279
 30
0.0
 11
272.50000000000011
 21
206.99504207305279
 31
0.0
  0
LINE
  5
BB
  8
0
 10
272.50000000000011
 20
180.99504207305279
 30
0.0
 11
242.50000000000011
 21
180.99504207305279
 31
0.0
  0
ARC
  5
BC
  8
0
 10
282.00000000000011
 20
205.99504207305279
 30
0.0
 40
8.0
 50
0.0
 51
90.0
  0
ARC
  5
BD
  8
0
 10
282.00000000000011
 20
181.99504207305279
 30
0.0
 40
8.0
 50
270.0
 51
0.0
  0
CIRCLE
  5
BE
  8
0
 10
272.50000000000011
 20
193.99504207305279
 30
0.0
 40
12.75
  0
CIRCLE
  5
BF
  8
0
 10
242.50000000000011
 20
193.99504207305279
 30
0.0
 40
12.0
  0
LINE
  5
C0
  8
0
 10
246.5414518843269
 20
200.99504207305361
 30
0.0
 11
238.4585481156733
 21
200.99504207305199
 31
0.0
  0
LINE
  5
C1
  8
0
 10
250.582903768655
 20
193.99504207305279
 30
0.0
 11
246.5414518843269
 21
200.99504207305361
 31
0.0
  0
LINE
  5
C2
  8
0
 10
246.54145188432909
 20
186.99504207305279
 30
0.0
 11
250.582903768655
 21
193.99504207305279
 31
0.0
  0
LINE
  5
C3
  8
0
 10
238.4585481156733
 20
186.99504207305279
 30
0.0
 11
246.54145188432909
 21
186.99504207305279
 31
0.0
  0
LINE
  5
C4
  8
0
 10
234.41709623134571
 20
193.99504207305199
 30
0.0
 11
238.4585481156733
 21
186.99504207305279
 31
0.0
  0
LINE
  5
C5
  8
0
 10
238.4585481156733
 20
200.99504207305199
 30
0.0
 11
234.41709623134571
 21
193.99504207305199
 31
0.0
  0
CIRCLE
  5
C6
  8
0
 10
272.50000000000011
 20
193.99504207305279
 30
0.0
 40
12.0
  0
LINE
  5
C7
  8
0
 10
276.54145188432688
 20
200.99504207305361
 30
0.0
 11
268.45854811567341
 21
200.99504207305199
 31
0.0
  0
LINE
  5
C8
  8
0
 10
280.582903768655
 20
193.99504207305279
 30
0.0
 11
276.54145188432688
 21
200.99504207305361
 31
0.0
  0
LINE
  5
C9
  8
0
 10
276.54145188432921
 20
186.99504207305279
 30
0.0
 11
280.582903768655
 21
193.99504207305279
 31
0.0
  0
LINE
  5
CA
  8
0
 10
268.45854811567341
 20
186.99504207305279
 30
0.0
 11
276.54145188432921
 21
186.99504207305279
 31
0.0
  0
LINE
  5
CB
  8
0
 10
264.41709623134568
 20
193.99504207305199
 30
0.0
 11
268.45854811567341
 21
186.99504207305279
 31
0.0
  0
LINE
  5
CC
  8
0
 10
268.45854811567341
 20
200.99504207305199
 30
0.0
 11
264.41709623134568
 21
193.99504207305199
 31
0.0
  0
LINE
  5
CD
  8
0
 10
260.50000000000028
 20
130.39143665402099
 30
0.0
 11
262.23205080756901
 21
131.39143665402099
 31
0.0
  0
LINE
  5
CE
  8
0
 10
284.50000000000028
 20
130.39143665402099
 30
0.0
 11
282.76794919243127
 21
131.39143665402091
 31
0.0
  0
LINE
  5
CF
  8
0
 10
260.50000000000028
 20
130.39143665402099
 30
0.0
 11
284.50000000000028
 21
130.39143665402099
 31
0.0
  0
LINE
  5
D0
  8
0
 10
262.23205080756901
 20
131.39143665402099
 30
0.0
 11
282.76794919243127
 21
131.39143665402091
 31
0.0
  0
LINE
  5
D1
  8
0
 10
260.50000000000028
 20
126.89143665402089
 30
0.0
 11
260.50000000000028
 21
130.39143665402099
 31
0.0
  0
LINE
  5
D2
  8
0
 10
284.50000000000028
 20
130.39143665402099
 30
0.0
 11
284.49999999999989
 21
126.89143665402089
 31
0.0
  0
LINE
  5
D3
  8
0
 10
254.50000000000031
 20
130.39143665402099
 30
0.0
 11
254.49999999999989
 21
126.89143665402089
 31
0.0
  0
LINE
  5
D4
  8
0
 10
230.50000000000031
 20
126.89143665402089
 30
0.0
 11
230.50000000000031
 21
130.39143665402099
 31
0.0
  0
LINE
  5
D5
  8
0
 10
232.2320508075689
 20
131.39143665402099
 30
0.0
 11
252.7679491924313
 21
131.39143665402099
 31
0.0
  0
LINE
  5
D6
  8
0
 10
230.50000000000031
 20
130.39143665402099
 30
0.0
 11
254.50000000000031
 21
130.39143665402099
 31
0.0
  0
LINE
  5
D7
  8
0
 10
254.50000000000031
 20
130.39143665402099
 30
0.0
 11
252.7679491924313
 21
131.39143665402099
 31
0.0
  0
LINE
  5
D8
  8
0
 10
230.50000000000031
 20
130.39143665402111
 30
0.0
 11
232.2320508075689
 21
131.39143665402099
 31
0.0
  0
LINE
  5
D9
  8
0
 10
66.999999999999943
 20
130.39143665402099
 30
0.0
 11
66.999999999999943
 21
126.89143665402089
 31
0.0
  0
LINE
  5
DA
  8
0
 10
42.999999999999943
 20
126.89143665402089
 30
0.0
 11
42.999999999999943
 21
130.39143665402099
 31
0.0
  0
LINE
  5
DB
  8
0
 10
44.732050807568903
 20
131.39143665402099
 30
0.0
 11
65.267949192431104
 21
131.39143665402091
 31
0.0
  0
LINE
  5
DC
  8
0
 10
42.999999999999943
 20
130.39143665402099
 30
0.0
 11
66.999999999999943
 21
130.39143665402099
 31
0.0
  0
LINE
  5
DD
  8
0
 10
66.999999999999943
 20
130.39143665402099
 30
0.0
 11
65.267949192431104
 21
131.39143665402091
 31
0.0
  0
LINE
  5
DE
  8
0
 10
42.999999999999943
 20
130.39143665402099
 30
0.0
 11
44.732050807568903
 21
131.39143665402099
 31
0.0
  0
LINE
  5
DF
  8
1
 10
55.000000000000107
 20
61.891436654020993
 30
0.0
 11
55.0
 21
134.89143665402091
 31
0.0
  0
CIRCLE
  5
E0
  8
0
 10
242.50000000000011
 20
193.99504207305279
 30
0.0
 40
12.75
  0
LINE
  5
E1
  8
0
 10
262.99671109562598
 20
202.49504207305279
 30
0.0
 11
252.00328890437351
 21
202.49504207305279
 31
0.0
  0
LINE
  5
E2
  8
0
 10
252.00328890437379
 20
185.49504207305279
 30
0.0
 11
262.99671109562598
 21
185.4950420730527
 31
0.0
  0
LINE
  5
E3
  8
1
 10
272.5000000000004
 20
134.89143665402091
 30
0.0
 11
272.5000000000004
 21
61.891436654021
 31
0.0
  0
LINE
  5
E4
  8
1
 10
242.5000000000004
 20
134.89143665402091
 30
0.0
 11
242.50000000000051
 21
61.891436654021
 31
0.0
  0
POLYLINE
  5
2C8
  8
11
 66
     1
 10
0.0
 20
0.0
 30
0.0
 70
     1
1001
ACAD
1000
ASC_BOUNDS
1002
{
1070
    19
1005
0
1002
}
  0
VERTEX
  5
9F3
  8
11
 10
271.08333333333269
 20
110.89143665402101
 30
0.0
 42
1.0
  0
VERTEX
  5
9F4
  8
11
 10
273.70833333333269
 20
110.89143665402101
 30
0.0
 42
1.0
  0
SEQEND
  5
9F5
  8
11
  0
POLYLINE
  5
2C9
  8
11
 66
     1
 10
0.0
 20
0.0
 30
0.0
 70
     1
1001
ACAD
1000
ASC_BOUNDS
1002
{
1070
    19
1005
0
1002
}
  0
VERTEX
  5
9F6
  8
11
 10
275.89583333333258
 20
110.89143665402101
 30
0.0
 42
1.0
  0
VERTEX
  5
9F7
  8
11
 10
268.89583333333269
 20
110.89143665402101
 30
0.0
 42
1.0
  0
SEQEND
  5
9F8
  8
11
  0
POLYLINE
  5
2CA
  8
11
 66
     1
 10
0.0
 20
0.0
 30
0.0
 70
     1
1001
ACAD
1000
ASC_BOUNDS
1002
{
1070
    19
1005
0
1002
}
  0
VERTEX
  5
9F9
  8
11
 10
242.9249999999989
 20
113.2440917292837
 30
0.0
  0
VERTEX
  5
9FA
  8
11
 10
242.9249999999989
 20
114.53878157875729
 30
0.0
 42
0.1238822414942591
  0
VERTEX
  5
9FB
  8
11
 10
241.25235424528589
 20
113.8914366540205
 30
0.0
 42
0.1238822414942589
  0
SEQEND
  5
9FC
  8
11
  0
POLYLINE
  5
2CB
  8
11
 66
     1
 10
0.0
 20
0.0
 30
0.0
 70
     1
1001
ACAD
1000
ASC_BOUNDS
1002
{
1070
    19
1005
0
1002
}
  0
VERTEX
  5
9FD
  8
11
 10
245.49764575471261
 20
113.8914366540205
 30
0.0
 42
0.1238822414942568
  0
VERTEX
  5
9FE
  8
11
 10
243.82499999999959
 20
114.53878157875729
 30
0.0
  0
VERTEX
  5
9FF
  8
11
 10
243.82499999999959
 20
113.2440917292838
 30
0.0
 42
0.1238822414942573
  0
SEQEND
  5
A00
  8
11
  0
POLYLINE
  5
2CC
  8
11
 66
     1
 10
0.0
 20
0.0
 30
0.0
 70
     1
1001
ACAD
1000
ASC_BOUNDS
1002
{
1070
    19
1005
0
1002
}
  0
VERTEX
  5
A01
  8
11
 10
247.02234492473559
 20
111.34143665402129
 30
0.0
 42
0.1517967807321736
  0
VERTEX
  5
A02
  8
11
 10
246.124896975165
 20
113.32940540402051
 30
0.0
 42
-0.1402251973297237
  0
VERTEX
  5
A03
  8
11
 10
243.82499999999959
 20
112.4139931870403
 30
0.0
  0
VERTEX
  5
A04
  8
11
 10
243.82499999999959
 20
111.34143665402129
 30
0.0
  0
SEQEND
  5
A05
  8
11
  0
POLYLINE
  5
2CD
  8
11
 66
     1
 10
0.0
 20
0.0
 30
0.0
 70
     1
1001
ACAD
1000
ASC_BOUNDS
1002
{
1070
    19
1005
0
1002
}
  0
VERTEX
  5
A06
  8
11
 10
254.4583333333326
 20
107.39143665402089
 30
0.0
  0
VERTEX
  5
A07
  8
11
 10
254.4583333333326
 20
111.54768665402101
 30
0.0
 42
-1.0
  0
VERTEX
  5
A08
  8
11
 10
255.7708333333326
 20
111.54768665402101
 30
0.0
  0
VERTEX
  5
A09
  8
11
 10
255.7708333333326
 20
107.39143665402089
 30
0.0
  0
VERTEX
  5
A0A
  8
11
 10
257.95833333333258
 20
107.39143665402089
 30
0.0
  0
VERTEX
  5
A0B
  8
11
 10
257.95833333333258
 20
111.54768665402101
 30
0.0
 42
-1.0
  0
VERTEX
  5
A0C
  8
11
 10
259.27083333333258
 20
111.54768665402101
 30
0.0
  0
VERTEX
  5
A0D
  8
11
 10
259.27083333333258
 20
107.39143665402089
 30
0.0
  0
VERTEX
  5
A0E
  8
11
 10
261.45833333333258
 20
107.39143665402089
 30
0.0
  0
VERTEX
  5
A0F
  8
11
 10
261.45833333333258
 20
111.54768665402101
 30
0.0
 42
0.6247472440541069
  0
VERTEX
  5
A10
  8
11
 10
256.86458333333258
 20
113.7892071340746
 30
0.0
 42
0.6247472440541069
  0
VERTEX
  5
A11
  8
11
 10
252.27083333333249
 20
111.54768665402101
 30
0.0
  0
VERTEX
  5
A12
  8
11
 10
252.27083333333249
 20
107.39143665402089
 30
0.0
  0
SEQEND
  5
A13
  8
11
  0
POLYLINE
  5
2CE
  8
11
 66
     1
 10
0.0
 20
0.0
 30
0.0
 70
     1
1001
ACAD
1000
ASC_BOUNDS
1002
{
1070
    19
1005
0
1002
}
  0
VERTEX
  5
A14
  8
11
 10
251.39583333333249
 20
114.39143665402101
 30
0.0
  0
VERTEX
  5
A15
  8
11
 10
249.2083333333324
 20
114.39143665402101
 30
0.0
  0
VERTEX
  5
A16
  8
11
 10
249.2083333333324
 20
107.39143665402089
 30
0.0
  0
VERTEX
  5
A17
  8
11
 10
251.39583333333249
 20
107.39143665402089
 30
0.0
  0
SEQEND
  5
A18
  8
11
  0
POLYLINE
  5
2CF
  8
11
 66
     1
 10
0.0
 20
0.0
 30
0.0
 70
     1
1001
ACAD
1000
ASC_BOUNDS
1002
{
1070
    19
1005
0
1002
}
  0
VERTEX
  5
A19
  8
11
 10
264.52083333333258
 20
108.92268665402079
 30
0.0
  0
VERTEX
  5
A1A
  8
11
 10
265.83333333333258
 20
108.92268665402089
 30
0.0
  0
VERTEX
  5
A1B
  8
11
 10
265.83333333333258
 20
107.39143665402089
 30
0.0
  0
VERTEX
  5
A1C
  8
11
 10
268.02083333333258
 20
107.39143665402089
 30
0.0
  0
VERTEX
  5
A1D
  8
11
 10
268.02083333333258
 20
111.54768665402101
 30
0.0
 42
1.000000215936474
  0
VERTEX
  5
A1E
  8
11
 10
262.33333333333258
 20
111.54768665402101
 30
0.0
  0
VERTEX
  5
A1F
  8
11
 10
262.33333333333258
 20
107.39143665402089
 30
0.0
  0
VERTEX
  5
A20
  8
11
 10
264.52083333333258
 20
107.39143665402089
 30
0.0
  0
SEQEND
  5
A21
  8
11
  0
POLYLINE
  5
2D0
  8
11
 66
     1
 10
0.0
 20
0.0
 30
0.0
 70
     1
1001
ACAD
1000
ASC_BOUNDS
1002
{
1070
    19
1005
0
1002
}
  0
VERTEX
  5
A22
  8
11
 10
265.83333333333258
 20
110.67268665402101
 30
0.0
  0
VERTEX
  5
A23
  8
11
 10
265.83333333333258
 20
111.54768665402101
 30
0.0
 42
1.0000004495664849
  0
VERTEX
  5
A24
  8
11
 10
264.52083333333258
 20
111.54768665402101
 30
0.0
  0
VERTEX
  5
A25
  8
11
 10
264.52083333333258
 20
110.67268665402101
 30
0.0
  0
SEQEND
  5
A26
  8
11
  0
POLYLINE
  5
2D1
  8
11
 66
     1
 10
0.0
 20
0.0
 30
0.0
 70
     1
1001
ACAD
1000
ASC_BOUNDS
1002
{
1070
    19
1005
0
1002
}
  0
VERTEX
  5
A27
  8
11
 10
240.62510302483341
 20
113.32940540402041
 30
0.0
 42
0.1402251973297244
  0
VERTEX
  5
A28
  8
11
 10
242.9249999999989
 20
112.4139931870403
 30
0.0
  0
VERTEX
  5
A29
  8
11
 10
242.9249999999989
 20
111.34143665402129
 30
0.0
  0
VERTEX
  5
A2A
  8
11
 10
242.1749999999997
 20
111.34143665402129
 30
0.0
  0
VERTEX
  5
A2B
  8
11
 10
242.1749999999997
 20
110.89143665402101
 30
0.0
 42
-0.378699158263169
  0
VERTEX
  5
A2C
  8
11
 10
238.9500000000005
 20
107.24409172928461
 30
0.0
  0
VERTEX
  5
A2D
  8
11
 10
238.9500000000005
 20
106.4139931870411
 30
0.0
 42
0.1186144156091118
  0
VERTEX
  5
A2E
  8
11
 10
240.93749999999969
 20
107.1087664661771
 30
0.0
 42
1.834021909257185
  0
VERTEX
  5
A2F
  8
11
 10
240.93749999999969
 20
114.6741068418648
 30
0.0
 42
1.26915442618927
  0
VERTEX
  5
A30
  8
11
 10
238.0499999999997
 20
106.4139931870411
 30
0.0
  0
VERTEX
  5
A31
  8
11
 10
238.0499999999997
 20
107.24409172928461
 30
0.0
 42
-0.3786991582631508
  0
VERTEX
  5
A32
  8
11
 10
234.8250000000005
 20
110.89143665402069
 30
0.0
  0
VERTEX
  5
A33
  8
11
 10
234.8250000000005
 20
111.34143665402129
 30
0.0
  0
VERTEX
  5
A34
  8
11
 10
235.64999999999989
 20
111.34143665402129
 30
0.0
  0
VERTEX
  5
A35
  8
11
 10
235.64999999999989
 20
110.89143665402111
 30
0.0
 42
0.3684995607863874
  0
VERTEX
  5
A36
  8
11
 10
238.0499999999997
 20
108.07718719812689
 30
0.0
  0
VERTEX
  5
A37
  8
11
 10
238.0499999999997
 20
108.9170696668577
 30
0.0
 42
-0.3500011104183812
  0
VERTEX
  5
A38
  8
11
 10
236.4750000000009
 20
110.89143665402101
 30
0.0
  0
VERTEX
  5
A39
  8
11
 10
236.4750000000009
 20
111.34143665402129
 30
0.0
  0
VERTEX
  5
A3A
  8
11
 10
237.30000000000061
 20
111.34143665402129
 30
0.0
  0
VERTEX
  5
A3B
  8
11
 10
237.30000000000061
 20
110.89143665402089
 30
0.0
 42
0.9999989916437579
  0
VERTEX
  5
A3C
  8
11
 10
239.69999999999931
 20
110.8914358190749
 30
0.0
 42
-0.1833501526628178
  0
SEQEND
  5
A3D
  8
11
  0
LINE
  5
2D2
  8
0
 10
239.99999999999989
 20
101.89143665402089
 30
0.0
 11
270.0
 21
101.89143665402089
 31
0.0
  0
LINE
  5
2D3
  8
0
 10
240.00000000000011
 20
103.89143665402089
 30
0.0
 11
270.0
 21
103.89143665402089
 31
0.0
  0
POLYLINE
  5
2D4
  8
11
 66
     1
 10
0.0
 20
0.0
 30
0.0
 70
     1
  0
VERTEX
  5
A3E
  8
11
 10
241.35000000000051
 20
110.89143665402089
 30
0.0
  0
VERTEX
  5
A3F
  8
11
 10
241.35000000000051
 20
111.34143665402129
 30
0.0
  0
VERTEX
  5
A40
  8
11
 10
240.5249999999993
 20
111.34143665402129
 30
0.0
  0
VERTEX
  5
A41
  8
11
 10
240.5249999999993
 20
110.89143665402089
 30
0.0
 42
-0.3500011104183828
  0
VERTEX
  5
A42
  8
11
 10
238.9500000000005
 20
108.9170696668577
 30
0.0
  0
VERTEX
  5
A43
  8
11
 10
238.9500000000005
 20
108.07718719812689
 30
0.0
 42
0.3684995607863695
  0
SEQEND
  5
A44
  8
11
  0
POLYLINE
  5
2D5
  8
11
 66
     1
 10
0.0
 20
0.0
 30
0.0
 70
     1
  0
VERTEX
  5
A45
  8
11
 10
243.8249999999997
 20
110.44143665402061
 30
0.0
  0
VERTEX
  5
A46
  8
11
 10
243.8249999999997
 20
109.3688801210016
 30
0.0
 42
-0.1402251973297237
  0
VERTEX
  5
A47
  8
11
 10
246.12489697516509
 20
108.45346790402139
 30
0.0
 42
0.1517967807321737
  0
VERTEX
  5
A48
  8
11
 10
247.02234492473571
 20
110.44143665402061
 30
0.0
  0
SEQEND
  5
A49
  8
11
  0
POLYLINE
  5
2D6
  8
11
 66
     1
 10
0.0
 20
0.0
 30
0.0
 70
     1
  0
VERTEX
  5
A4A
  8
11
 10
243.8249999999997
 20
108.5387815787581
 30
0.0
  0
VERTEX
  5
A4B
  8
11
 10
243.8249999999997
 20
107.24409172928461
 30
0.0
 42
0.1238822414942567
  0
VERTEX
  5
A4C
  8
11
 10
245.49764575471269
 20
107.89143665402131
 30
0.0
 42
0.1238822414942571
  0
SEQEND
  5
A4D
  8
11
  0
POLYLINE
  5
2D7
  8
11
 66
     1
 10
0.0
 20
0.0
 30
0.0
 70
     1
  0
VERTEX
  5
A4E
  8
11
 10
242.92499999999899
 20
110.07328324541621
 30
0.0
 42
-0.0420571628960909
  0
VERTEX
  5
A4F
  8
11
 10
242.72569659400921
 20
109.3443463866539
 30
0.0
 42
-0.0111573747896638
  0
VERTEX
  5
A50
  8
11
 10
242.92499999999899
 20
109.3688801210016
 30
0.0
  0
SEQEND
  5
A51
  8
11
  0
POLYLINE
  5
2D8
  8
11
 66
     1
 10
0.0
 20
0.0
 30
0.0
 70
     1
  0
VERTEX
  5
A52
  8
11
 10
242.92499999999899
 20
108.5387815787581
 30
0.0
 42
0.0479752760773671
  0
VERTEX
  5
A53
  8
11
 10
242.23813277862871
 20
108.38616953665721
 30
0.0
 42
-0.0528997705207019
  0
VERTEX
  5
A54
  8
11
 10
241.62923076923059
 20
107.6575667133923
 30
0.0
 42
0.0933324906988985
  0
VERTEX
  5
A55
  8
11
 10
242.92499999999899
 20
107.24409172928461
 30
0.0
  0
SEQEND
  5
A56
  8
11
  0
LINE
  5
2D9
  8
0
 10
240.0
 20
101.89143665402089
 30
0.0
 11
270.0
 21
101.89143665402089
 31
0.0
  0
ARC
  5
810
  8
0
 10
39.0
 20
106.89143665402089
 30
0.0
 40
4.0
 50
90.0
 51
180.0
  0
ARC
  5
811
  8
0
 10
71.0
 20
106.89143665402089
 30
0.0
 40
4.0
 50
0.0
 51
90.0
  0
LINE
  5
812
  8
0
 10
71.0
 20
110.89143665402089
 30
0.0
 11
39.0
 21
110.89143665402089
 31
0.0
  0
LINE
  5
813
  8
0
 10
50.999999999999993
 20
98.891436654020936
 30
0.0
 11
50.999999999999993
 21
110.89143665402089
 31
0.0
  0
LINE
  5
814
  8
0
 10
58.999999999999993
 20
98.891436654020936
 30
0.0
 11
58.999999999999993
 21
110.89143665402089
 31
0.0
  0
LINE
  5
815
  8
0
 10
55.0
 20
110.89143665402089
 30
0.0
 11
55.0
 21
98.891436654020936
 31
0.0
  0
LINE
  5
816
  8
0
 10
36.154700538379302
 20
96.891436654020936
 30
0.0
 11
73.845299461620812
 21
96.891436654020936
 31
0.0
  0
LINE
  5
817
  8
0
 10
36.0
 20
98.891436654020936
 30
0.0
 11
74.0
 21
98.891436654020936
 31
0.0
  0
LINE
  5
818
  8
0
 10
75.0
 20
98.891436654020936
 30
0.0
 11
73.845299461620812
 21
96.891436654020936
 31
0.0
  0
LINE
  5
819
  8
0
 10
74.0
 20
98.891436654020936
 30
0.0
 11
75.0
 21
99.891436654020936
 31
0.0
  0
LINE
  5
81A
  8
0
 10
36.0
 20
98.891436654020936
 30
0.0
 11
35.0
 21
99.891436654020936
 31
0.0
  0
LINE
  5
81B
  8
0
 10
35.0
 20
98.891436654020936
 30
0.0
 11
36.154700538379302
 21
96.891436654020936
 31
0.0
  0
LINE
  5
822
  8
0
 10
41.000000000000213
 20
76.891436654020993
 30
0.0
 11
46.000000000000213
 21
76.891436654020993
 31
0.0
  0
LINE
  5
823
  8
0
 10
46.000000000000213
 20
76.891436654020993
 30
0.0
 11
46.000000000000213
 21
86.891436654020993
 31
0.0
  0
LINE
  5
824
  8
0
 10
46.000000000000213
 20
86.891436654020993
 30
0.0
 11
64.000000000000227
 21
86.891436654020993
 31
0.0
  0
LINE
  5
825
  8
0
 10
64.000000000000227
 20
86.891436654020993
 30
0.0
 11
64.000000000000227
 21
76.891436654020993
 31
0.0
  0
LINE
  5
826
  8
0
 10
64.000000000000227
 20
76.891436654020993
 30
0.0
 11
69.000000000000227
 21
76.891436654020993
 31
0.0
  0
LINE
  5
827
  8
0
 10
69.000000000000227
 20
76.891436654020993
 30
0.0
 11
69.000000000000227
 21
69.391436654020993
 31
0.0
  0
LINE
  5
828
  8
0
 10
66.500000000000227
 20
66.891436654020993
 30
0.0
 11
69.000000000000227
 21
69.391436654020993
 31
0.0
  0
LINE
  5
829
  8
0
 10
66.500000000000227
 20
66.891436654020993
 30
0.0
 11
43.500000000000213
 21
66.891436654020993
 31
0.0
  0
LINE
  5
82A
  8
0
 10
41.000000000000213
 20
69.391436654020993
 30
0.0
 11
43.500000000000213
 21
66.891436654020993
 31
0.0
  0
LINE
  5
82B
  8
0
 10
41.000000000000213
 20
69.391436654020993
 30
0.0
 11
41.000000000000213
 21
76.891436654020993
 31
0.0
  0
LINE
  5
82C
  8
0
 10
47.000000000000099
 20
96.891436654020936
 30
0.0
 11
47.000000000000099
 21
86.891436654020964
 31
0.0
  0
LINE
  5
82D
  8
3
 10
48.082499999999968
 20
96.891436654020936
 30
0.0
 11
48.082499999999968
 21
86.891436654020964
 31
0.0
  0
LINE
  5
82E
  8
3
 10
61.917500000000231
 20
96.891436654020936
 30
0.0
 11
61.917500000000132
 21
86.891436654020993
 31
0.0
  0
LINE
  5
82F
  8
0
 10
62.999999999999993
 20
96.891436654020936
 30
0.0
 11
63.000000000000107
 21
86.891436654020993
 31
0.0
  0
LINE
  5
8B1
  8
0
 10
175.50000000000011
 20
110.8956036100796
 30
0.0
 11
175.00000000000011
 21
110.3956036100796
 31
0.0
  0
LINE
  5
8B2
  8
0
 10
175.50000000000011
 20
98.891436654020936
 30
0.0
 11
175.00000000000011
 21
99.39143665402095
 31
0.0
  0
LINE
  5
8B3
  8
2
 10
179.0
 20
98.891436654020936
 30
0.0
 11
179.0
 21
111.15929915938381
 31
0.0
  0
LINE
  5
8B4
  8
0
 10
175.00000000000011
 20
99.39143665402095
 30
0.0
 11
175.00000000000011
 21
110.3956036100796
 31
0.0
  0
LINE
  5
8B5
  8
0
 10
225.0
 20
111.89143665402089
 30
0.0
 11
224.0
 21
110.89143665402089
 31
0.0
  0
LINE
  5
8B6
  8
0
 10
210.0
 20
109.1236697010546
 30
0.0
 11
208.2322330470337
 21
110.89143665402089
 31
0.0
  0
LINE
  5
8B7
  8
0
 10
210.0
 20
112.6592036069873
 30
0.0
 11
211.7677669529663
 21
110.89143665402089
 31
0.0
  0
LINE
  5
8B8
  8
0
 10
208.2322330470337
 20
110.89143665402089
 30
0.0
 11
210.0
 21
112.6592036069873
 31
0.0
  0
LINE
  5
8B9
  8
0
 10
211.00000000000011
 20
110.89143665402089
 30
0.0
 11
224.0
 21
110.89143665402089
 31
0.0
  0
LINE
  5
8BA
  8
0
 10
225.0
 20
112.89143665402089
 30
0.0
 11
227.0
 21
110.89143665402089
 31
0.0
  0
LINE
  5
8BB
  8
0
 10
226.99999999999989
 20
110.89143665402101
 30
0.0
 11
224.99999999999989
 21
108.89143665402101
 31
0.0
  0
LINE
  5
8BC
  8
0
 10
225.0
 20
108.89143665402101
 30
0.0
 11
223.0
 21
110.89143665402101
 31
0.0
  0
LINE
  5
8BD
  8
0
 10
211.00000000000011
 20
110.89143665402089
 30
0.0
 11
210.00000000000011
 21
109.89143665402089
 31
0.0
  0
LINE
  5
8BE
  8
0
 10
209.5
 20
98.891436654020936
 30
0.0
 11
210.0
 21
99.39143665402095
 31
0.0
  0
LINE
  5
8BF
  8
0
 10
212.00000000000011
 20
96.891436654020993
 30
0.0
 11
213.9232050807569
 21
96.891436654020993
 31
0.0
  0
LINE
  5
8C0
  8
0
 10
210.00000000000011
 20
98.891436654020936
 30
0.0
 11
212.00000000000011
 21
96.891436654020993
 31
0.0
  0
LINE
  5
8C1
  8
0
 10
210.00000000000011
 20
98.891436654020936
 30
0.0
 11
210.00000000000011
 21
109.89143665402089
 31
0.0
  0
LINE
  5
8C2
  8
0
 10
214.6535898329509
 20
98.156500163481994
 30
0.0
 11
213.9232050807569
 21
96.891436654020993
 31
0.0
  0
LINE
  5
8C3
  8
0
 10
216.0767949192431
 20
96.891436654020993
 30
0.0
 11
215.3464101559785
 21
98.156500163481994
 31
0.0
  0
ARC
  5
8C4
  8
0
 10
214.9999999944647
 20
97.956500163482005
 30
0.0
 40
0.4
 50
30.000000000000551
 51
149.99999999999801
  0
LINE
  5
8C5
  8
0
 10
175.5
 20
98.891436654020936
 30
0.0
 11
209.5
 21
98.891436654020936
 31
0.0
  0
LINE
  5
8C6
  8
0
 10
210.0
 20
98.891436654020893
 30
0.0
 11
290.00000000000011
 21
98.891436654020936
 31
0.0
  0
LINE
  5
8C7
  8
0
 10
216.0767949192431
 20
96.891436654020993
 30
0.0
 11
218.9232050807569
 21
96.891436654020993
 31
0.0
  0
LINE
  5
8C8
  8
0
 10
219.65358983295079
 20
98.156500163481994
 30
0.0
 11
218.9232050807569
 21
96.891436654020993
 31
0.0
  0
LINE
  5
8C9
  8
0
 10
221.0767949192431
 20
96.891436654020993
 30
0.0
 11
220.34641015597839
 21
98.156500163481994
 31
0.0
  0
ARC
  5
8CA
  8
0
 10
219.9999999944647
 20
97.956500163482005
 30
0.0
 40
0.4
 50
30.000000000000551
 51
149.99999999999801
  0
LINE
  5
8CB
  8
0
 10
221.0767949192431
 20
96.891436654020993
 30
0.0
 11
223.9232050807569
 21
96.891436654020993
 31
0.0
  0
LINE
  5
8CC
  8
0
 10
224.65358983295079
 20
98.156500163481994
 30
0.0
 11
223.9232050807569
 21
96.891436654020993
 31
0.0
  0
LINE
  5
8CD
  8
0
 10
226.0767949192431
 20
96.891436654020993
 30
0.0
 11
225.3464101559785
 21
98.156500163481994
 31
0.0
  0
ARC
  5
8CE
  8
0
 10
224.9999999944647
 20
97.956500163482005
 30
0.0
 40
0.4
 50
30.000000000000551
 51
149.99999999999801
  0
LINE
  5
8CF
  8
0
 10
226.0767949192431
 20
96.891436654020993
 30
0.0
 11
228.9232050807569
 21
96.891436654020993
 31
0.0
  0
LINE
  5
8D0
  8
0
 10
229.65358983295079
 20
98.156500163481994
 30
0.0
 11
228.9232050807569
 21
96.891436654020993
 31
0.0
  0
LINE
  5
8D1
  8
0
 10
231.0767949192431
 20
96.891436654020993
 30
0.0
 11
230.34641015597839
 21
98.156500163481994
 31
0.0
  0
ARC
  5
8D2
  8
0
 10
229.9999999944647
 20
97.956500163482005
 30
0.0
 40
0.4
 50
30.000000000000551
 51
149.99999999999801
  0
LINE
  5
8D3
  8
0
 10
231.0767949192431
 20
96.891436654020993
 30
0.0
 11
233.9232050807569
 21
96.891436654020993
 31
0.0
  0
LINE
  5
8D4
  8
0
 10
234.65358983295079
 20
98.156500163481994
 30
0.0
 11
233.9232050807569
 21
96.891436654020993
 31
0.0
  0
LINE
  5
8D5
  8
0
 10
236.0767949192431
 20
96.891436654020993
 30
0.0
 11
235.34641015597839
 21
98.156500163481994
 31
0.0
  0
ARC
  5
8D6
  8
0
 10
234.9999999944647
 20
97.956500163482005
 30
0.0
 40
0.4
 50
30.000000000000551
 51
149.99999999999801
  0
LINE
  5
8D7
  8
0
 10
236.0767949192431
 20
96.891436654020993
 30
0.0
 11
238.9232050807569
 21
96.891436654020993
 31
0.0
  0
LINE
  5
8D8
  8
0
 10
239.6535898329509
 20
98.156500163481994
 30
0.0
 11
238.9232050807569
 21
96.891436654020993
 31
0.0
  0
LINE
  5
8D9
  8
0
 10
241.0767949192431
 20
96.891436654020993
 30
0.0
 11
240.3464101559785
 21
98.156500163481994
 31
0.0
  0
ARC
  5
8DA
  8
0
 10
239.9999999944647
 20
97.956500163482005
 30
0.0
 40
0.4
 50
30.000000000000551
 51
149.99999999999801
  0
LINE
  5
8DB
  8
0
 10
241.0767949192431
 20
96.891436654020993
 30
0.0
 11
243.9232050807569
 21
96.891436654020993
 31
0.0
  0
LINE
  5
8DC
  8
0
 10
244.65358983295079
 20
98.156500163481994
 30
0.0
 11
243.9232050807569
 21
96.891436654020993
 31
0.0
  0
LINE
  5
8DD
  8
0
 10
246.0767949192431
 20
96.891436654020993
 30
0.0
 11
245.34641015597839
 21
98.156500163481994
 31
0.0
  0
ARC
  5
8DE
  8
0
 10
244.9999999944647
 20
97.956500163482005
 30
0.0
 40
0.4
 50
30.000000000000551
 51
149.99999999999801
  0
LINE
  5
8DF
  8
0
 10
246.0767949192431
 20
96.891436654020993
 30
0.0
 11
248.9232050807569
 21
96.891436654020993
 31
0.0
  0
LINE
  5
8E0
  8
0
 10
249.65358983295079
 20
98.156500163481994
 30
0.0
 11
248.9232050807569
 21
96.891436654020993
 31
0.0
  0
LINE
  5
8E1
  8
0
 10
251.0767949192431
 20
96.891436654020993
 30
0.0
 11
250.3464101559785
 21
98.156500163481994
 31
0.0
  0
ARC
  5
8E2
  8
0
 10
249.9999999944647
 20
97.956500163482005
 30
0.0
 40
0.4
 50
30.000000000000551
 51
149.99999999999801
  0
LINE
  5
8E3
  8
0
 10
251.0767949192431
 20
96.891436654020993
 30
0.0
 11
253.9232050807569
 21
96.891436654020993
 31
0.0
  0
LINE
  5
8E4
  8
0
 10
254.65358983295079
 20
98.156500163481994
 30
0.0
 11
253.9232050807569
 21
96.891436654020993
 31
0.0
  0
LINE
  5
8E5
  8
0
 10
256.07679491924313
 20
96.891436654020993
 30
0.0
 11
255.34641015597839
 21
98.156500163481994
 31
0.0
  0
ARC
  5
8E6
  8
0
 10
254.9999999944647
 20
97.956500163482005
 30
0.0
 40
0.4
 50
30.000000000000551
 51
149.99999999999801
  0
LINE
  5
8E7
  8
0
 10
256.07679491924313
 20
96.891436654020993
 30
0.0
 11
258.92320508075687
 21
96.891436654020993
 31
0.0
  0
LINE
  5
8E8
  8
0
 10
259.65358983295079
 20
98.156500163481994
 30
0.0
 11
258.92320508075687
 21
96.891436654020993
 31
0.0
  0
LINE
  5
8E9
  8
0
 10
261.07679491924313
 20
96.891436654020993
 30
0.0
 11
260.34641015597839
 21
98.156500163481994
 31
0.0
  0
ARC
  5
8EA
  8
0
 10
259.9999999944647
 20
97.956500163482005
 30
0.0
 40
0.4
 50
30.000000000000551
 51
149.99999999999801
  0
LINE
  5
8EB
  8
0
 10
261.07679491924313
 20
96.891436654020993
 30
0.0
 11
263.92320508075687
 21
96.891436654020993
 31
0.0
  0
LINE
  5
8EC
  8
0
 10
264.6535898329509
 20
98.156500163481994
 30
0.0
 11
263.92320508075687
 21
96.891436654020993
 31
0.0
  0
LINE
  5
8ED
  8
0
 10
266.07679491924313
 20
96.891436654020993
 30
0.0
 11
265.3464101559785
 21
98.156500163481994
 31
0.0
  0
ARC
  5
8EE
  8
0
 10
264.9999999944647
 20
97.956500163482005
 30
0.0
 40
0.4
 50
30.000000000000551
 51
149.99999999999801
  0
LINE
  5
8EF
  8
0
 10
266.07679491924313
 20
96.891436654020993
 30
0.0
 11
268.92320508075687
 21
96.891436654020993
 31
0.0
  0
LINE
  5
8F0
  8
0
 10
269.65358983295079
 20
98.156500163481994
 30
0.0
 11
268.92320508075687
 21
96.891436654020993
 31
0.0
  0
LINE
  5
8F1
  8
0
 10
271.07679491924313
 20
96.891436654020993
 30
0.0
 11
270.34641015597839
 21
98.156500163481994
 31
0.0
  0
ARC
  5
8F2
  8
0
 10
269.9999999944647
 20
97.956500163482005
 30
0.0
 40
0.4
 50
30.000000000000551
 51
149.99999999999801
  0
LINE
  5
8F3
  8
0
 10
271.07679491924313
 20
96.891436654020993
 30
0.0
 11
273.92320508075687
 21
96.891436654020993
 31
0.0
  0
LINE
  5
8F4
  8
0
 10
274.65358983295079
 20
98.156500163481994
 30
0.0
 11
273.92320508075687
 21
96.891436654020993
 31
0.0
  0
LINE
  5
8F5
  8
0
 10
276.07679491924313
 20
96.891436654020993
 30
0.0
 11
275.3464101559785
 21
98.156500163481994
 31
0.0
  0
ARC
  5
8F6
  8
0
 10
274.9999999944647
 20
97.956500163482005
 30
0.0
 40
0.4
 50
30.000000000000551
 51
149.99999999999801
  0
LINE
  5
8F7
  8
0
 10
276.07679491924313
 20
96.891436654020993
 30
0.0
 11
278.92320508075687
 21
96.891436654020993
 31
0.0
  0
LINE
  5
8F8
  8
0
 10
279.65358983295079
 20
98.156500163481994
 30
0.0
 11
278.92320508075687
 21
96.891436654020993
 31
0.0
  0
LINE
  5
8F9
  8
0
 10
281.07679491924313
 20
96.891436654020993
 30
0.0
 11
280.34641015597839
 21
98.156500163481994
 31
0.0
  0
ARC
  5
8FA
  8
0
 10
279.9999999944647
 20
97.956500163482005
 30
0.0
 40
0.4
 50
30.000000000000551
 51
149.99999999999801
  0
ARC
  5
8FB
  8
0
 10
284.9999999944647
 20
97.956500163482005
 30
0.0
 40
0.4
 50
30.000000000000551
 51
149.99999999999801
  0
LINE
  5
8FC
  8
0
 10
286.07679491924313
 20
96.891436654020993
 30
0.0
 11
288.00000000000011
 21
96.891436654020993
 31
0.0
  0
LINE
  5
8FD
  8
0
 10
284.65358983295079
 20
98.156500163481994
 30
0.0
 11
283.92320508075687
 21
96.891436654020993
 31
0.0
  0
LINE
  5
8FE
  8
0
 10
286.07679491924313
 20
96.891436654020993
 30
0.0
 11
285.34641015597839
 21
98.156500163481994
 31
0.0
  0
LINE
  5
8FF
  8
0
 10
290.00000000000011
 20
98.891436654020936
 30
0.0
 11
288.00000000000011
 21
96.891436654020993
 31
0.0
  0
LINE
  5
900
  8
0
 10
281.07679491924313
 20
96.891436654020993
 30
0.0
 11
283.92320508075687
 21
96.891436654020993
 31
0.0
  0
LINE
  5
901
  8
0
 10
285.00000000000011
 20
76.891436654021007
 30
0.0
 11
285.00000000000011
 21
69.391436654021007
 31
0.0
  0
LINE
  5
902
  8
0
 10
285.00000000000011
 20
69.391436654021007
 30
0.0
 11
285.00000000000011
 21
66.891436654021007
 31
0.0
  0
LINE
  5
903
  8
0
 10
271.15463759529263
 20
86.891436654020964
 30
0.0
 11
243.84536240470749
 21
86.891436654021007
 31
0.0
  0
LINE
  5
904
  8
0
 10
285.00000000000011
 20
86.891436654021007
 30
0.0
 11
273.84536240470749
 21
86.891436654021007
 31
0.0
  0
LINE
  5
905
  8
0
 10
285.00000000000011
 20
86.891436654021007
 30
0.0
 11
285.00000000000011
 21
76.891436654021007
 31
0.0
  0
POLYLINE
  5
906
  8
0
 66
     1
 10
0.0
 20
0.0
 30
0.0
 70
     2
  0
VERTEX
  5
907
  8
0
 10
241.1546375952926
 20
86.891436654020964
 30
0.0
 42
0.0189246929317062
  0
VERTEX
  5
908
  8
0
 10
241.82547287180739
 20
86.814957685204675
 30
0.0
 42
0.0189246929317235
 70
     1
  0
VERTEX
  5
909
  8
0
 10
242.50017062670881
 20
86.789424561235265
 30
0.0
 42
0.0189199104228423
  0
VERTEX
  5
90A
  8
0
 10
243.17469726650279
 20
86.814970585940813
 30
0.0
 42
0.0189199104228484
 70
     1
  0
VERTEX
  5
90B
  8
0
 10
243.84536240470749
 20
86.891436654021007
 30
0.0
  0
SEQEND
  5
90C
  8
0
  0
POLYLINE
  5
90D
  8
0
 66
     1
 10
0.0
 20
0.0
 30
0.0
 70
     2
  0
VERTEX
  5
90E
  8
0
 10
271.15463759529263
 20
86.891436654020964
 30
0.0
 42
0.0189246929317062
  0
VERTEX
  5
90F
  8
0
 10
271.82547287180728
 20
86.814957685204675
 30
0.0
 42
0.0189246929317235
 70
     1
  0
VERTEX
  5
910
  8
0
 10
272.50017062670878
 20
86.789424561235265
 30
0.0
 42
0.0189199104228423
  0
VERTEX
  5
911
  8
0
 10
273.17469726650279
 20
86.814970585940813
 30
0.0
 42
0.0189199104228484
 70
     1
  0
VERTEX
  5
912
  8
0
 10
273.84536240470749
 20
86.891436654021007
 30
0.0
  0
SEQEND
  5
913
  8
0
  0
LINE
  5
914
  8
0
 10
280.50000000000011
 20
97.890474759698023
 30
0.0
 11
280.49999999999977
 21
86.891436654021007
 31
0.0
  0
LINE
  5
915
  8
3
 10
279.41750000000008
 20
97.747580568073388
 30
0.0
 11
279.41750000000008
 21
86.891436654021007
 31
0.0
  0
LINE
  5
916
  8
3
 10
265.58249999999981
 20
97.747580568073644
 30
0.0
 11
265.58249999999981
 21
86.891436654020964
 31
0.0
  0
LINE
  5
917
  8
0
 10
264.4999999999996
 20
97.890474759697526
 30
0.0
 11
264.49999999999977
 21
86.891436654020964
 31
0.0
  0
LINE
  5
918
  8
0
 10
234.4999999999996
 20
97.890474759697526
 30
0.0
 11
234.4999999999998
 21
86.891436654021007
 31
0.0
  0
LINE
  5
919
  8
3
 10
235.58249999999981
 20
97.747580568073786
 30
0.0
 11
235.58249999999981
 21
86.891436654021007
 31
0.0
  0
LINE
  5
91A
  8
3
 10
249.4175000000001
 20
97.747580568073388
 30
0.0
 11
249.4175000000001
 21
86.891436654021007
 31
0.0
  0
LINE
  5
91B
  8
0
 10
250.49999999999989
 20
97.890474759698193
 30
0.0
 11
250.49999999999989
 21
86.891436654021035
 31
0.0
  0
LINE
  5
91C
  8
0
 10
285.00000000000011
 20
76.891436654021007
 30
0.0
 11
230.00000000000011
 21
76.891436654021007
 31
0.0
  0
LINE
  5
91D
  8
0
 10
230.00000000000011
 20
69.391436654021007
 30
0.0
 11
285.00000000000011
 21
69.391436654021007
 31
0.0
  0
LINE
  5
91E
  8
0
 10
230.00000000000011
 20
76.891436654021007
 30
0.0
 11
230.00000000000011
 21
69.391436654021007
 31
0.0
  0
LINE
  5
91F
  8
0
 10
285.00000000000011
 20
66.891436654021007
 30
0.0
 11
230.00000000000011
 21
66.891436654021007
 31
0.0
  0
LINE
  5
920
  8
0
 10
230.00000000000011
 20
66.891436654021007
 30
0.0
 11
230.00000000000011
 21
69.391436654021007
 31
0.0
  0
LINE
  5
921
  8
0
 10
241.1546375952926
 20
86.891436654020964
 30
0.0
 11
230.00000000000011
 21
86.891436654020964
 31
0.0
  0
LINE
  5
922
  8
0
 10
230.00000000000011
 20
86.891436654020964
 30
0.0
 11
230.00000000000011
 21
76.891436654021007
 31
0.0
  0
TEXT
  5
973
  8
0
 62
     3
 10
0.0
 20
0.0
 30
0.0
 40
10.0
  1
BJ201-16130T
  7
STANDARD1
  0
ENDSEC
  0
EOF
