  0
SECTION
  2
HEADER
  9
$ACADVER
  1
AC1009
  9
$INSBASE
 10
0.0
 20
0.0
 30
0.0
  9
$EXTMIN
 10
0.0
 20
-2.960436562073669
 30
0.0
  9
$EXTMAX
 10
169.95932342028971
 20
119.7977358816254
 30
0.0
  9
$LIMMIN
 10
0.0
 20
0.0
  9
$LIMMAX
 10
375.0
 20
270.0
  9
$ORTHOMODE
 70
     0
  9
$REGENMODE
 70
     1
  9
$FILLMODE
 70
     1
  9
$QTEXTMODE
 70
     0
  9
$MIRRTEXT
 70
     0
  9
$DRAGMODE
 70
     2
  9
$LTSCALE
 40
10.0
  9
$OSMODE
 70
  3071
  9
$ATTMODE
 70
     1
  9
$TEXTSIZE
 40
0.2
  9
$TRACEWID
 40
0.05
  9
$TEXTSTYLE
  7
STANDARD
  9
$CLAYER
  8
3
  9
$CELTYPE
  6
BYLAYER
  9
$CECOLOR
 62
   256
  9
$DIMSCALE
 40
1.0
  9
$DIMASZ
 40
3.0
  9
$DIMEXO
 40
2.0
  9
$DIMDLI
 40
10.0
  9
$DIMRND
 40
0.0
  9
$DIMDLE
 40
0.0
  9
$DIMEXE
 40
2.0
  9
$DIMTP
 40
0.0
  9
$DIMTM
 40
0.0
  9
$DIMTXT
 40
3.2000000000000002
  9
$DIMCEN
 40
0.09
  9
$DIMTSZ
 40
0.0
  9
$DIMTOL
 70
     0
  9
$DIMLIM
 70
     0
  9
$DIMTIH
 70
     0
  9
$DIMTOH
 70
     0
  9
$DIMSE1
 70
     0
  9
$DIMSE2
 70
     0
  9
$DIMTAD
 70
     1
  9
$DIMZIN
 70
     0
  9
$DIMBLK
  1

  9
$DIMASO
 70
     0
  9
$DIMSHO
 70
     0
  9
$DIMPOST
  1

  9
$DIMAPOST
  1

  9
$DIMALT
 70
     0
  9
$DIMALTD
 70
     2
  9
$DIMALTF
 40
25.399999999999999
  9
$DIMLFAC
 40
1.0
  9
$DIMTOFL
 70
     1
  9
$DIMTVP
 40
1.6000000000000001
  9
$DIMTIX
 70
     0
  9
$DIMSOXD
 70
     0
  9
$DIMSAH
 70
     0
  9
$DIMBLK1
  1

  9
$DIMBLK2
  1

  9
$DIMSTYLE
  2
STANDARD
  9
$DIMCLRD
 70
     0
  9
$DIMCLRE
 70
     0
  9
$DIMCLRT
 70
     0
  9
$DIMTFAC
 40
1.0
  9
$DIMGAP
 40
0.09
  9
$LUNITS
 70
     2
  9
$LUPREC
 70
     4
  9
$SKETCHINC
 40
0.1
  9
$FILLETRAD
 40
0.0
  9
$AUNITS
 70
     0
  9
$AUPREC
 70
     0
  9
$MENU
  1
E:\r13\win\SUPPORT\ACAD
  9
$ELEVATION
 40
0.0
  9
$PELEVATION
 40
0.0
  9
$THICKNESS
 40
0.0
  9
$LIMCHECK
 70
     0
  9
$BLIPMODE
 70
     0
  9
$CHAMFERA
 40
0.0
  9
$CHAMFERB
 40
0.0
  9
$SKPOLY
 70
     0
  9
$TDCREATE
 40
2449840.6171180559
  9
$TDUPDATE
 40
2456597.663865834
  9
$TDINDWG
 40
0.1963154861
  9
$TDUSRTIMER
 40
0.1963154861
  9
$USRTIMER
 70
     1
  9
$ANGBASE
 50
0.0
  9
$ANGDIR
 70
     0
  9
$PDMODE
 70
     0
  9
$PDSIZE
 40
0.0
  9
$PLINEWID
 40
0.0
  9
$COORDS
 70
     1
  9
$SPLFRAME
 70
     0
  9
$SPLINETYPE
 70
     6
  9
$SPLINESEGS
 70
     8
  9
$ATTDIA
 70
     0
  9
$ATTREQ
 70
     1
  9
$HANDLING
 70
     1
  9
$HANDSEED
  5
1F19
  9
$SURFTAB1
 70
     6
  9
$SURFTAB2
 70
     6
  9
$SURFTYPE
 70
     6
  9
$SURFU
 70
     6
  9
$SURFV
 70
     6
  9
$UCSNAME
  2

  9
$UCSORG
 10
0.0
 20
0.0
 30
0.0
  9
$UCSXDIR
 10
1.0
 20
0.0
 30
0.0
  9
$UCSYDIR
 10
0.0
 20
1.0
 30
0.0
  9
$PUCSNAME
  2

  9
$PUCSORG
 10
0.0
 20
0.0
 30
0.0
  9
$PUCSXDIR
 10
1.0
 20
0.0
 30
0.0
  9
$PUCSYDIR
 10
0.0
 20
1.0
 30
0.0
  9
$USERI1
 70
     0
  9
$USERI2
 70
     1
  9
$USERI3
 70
     0
  9
$USERI4
 70
     0
  9
$USERI5
 70
     0
  9
$USERR1
 40
0.0
  9
$USERR2
 40
0.0
  9
$USERR3
 40
0.0
  9
$USERR4
 40
0.0
  9
$USERR5
 40
0.0
  9
$WORLDVIEW
 70
     1
  9
$SHADEDGE
 70
     3
  9
$SHADEDIF
 70
    70
  9
$TILEMODE
 70
     1
  9
$MAXACTVP
 70
    16
  9
$PLIMCHECK
 70
     0
  9
$PEXTMIN
 10
1.0000000000000000E+020
 20
1.0000000000000000E+020
 30
1.0000000000000000E+020
  9
$PEXTMAX
 10
-1.0000000000000000E+020
 20
-1.0000000000000000E+020
 30
-1.0000000000000000E+020
  9
$PLIMMIN
 10
0.0
 20
0.0
  9
$PLIMMAX
 10
12.0
 20
9.0
  9
$UNITMODE
 70
     0
  9
$VISRETAIN
 70
     0
  9
$PLINEGEN
 70
     0
  9
$PSLTSCALE
 70
     0
  0
ENDSEC
  0
SECTION
  2
TABLES
  0
TABLE
  2
VPORT
 70
     1
  0
VPORT
  2
*ACTIVE
 70
     0
 10
0.0
 20
0.0
 11
1.0
 21
1.0
 12
195.0581083320873
 22
133.5127261426681
 13
0.0
 23
0.0
 14
10.0
 24
10.0
 15
10.0
 25
10.0
 16
0.0
 26
0.0
 36
1.0
 17
0.0
 27
0.0
 37
0.0
 40
275.42274993631997
 41
1.831871345029239
 42
50.0
 43
0.0
 44
0.0
 50
0.0
 51
0.0
 71
     0
 72
   100
 73
     1
 74
     0
 75
     0
 76
     0
 77
     0
 78
     0
  0
ENDTAB
  0
TABLE
  2
LTYPE
 70
    23
  0
LTYPE
  2
CONTINUOUS
 70
     0
  3
Solid Line
 72
    65
 73
     0
 40
0.0
  0
LTYPE
  2
CENTER
 70
     0
  3
____ _ ____ _ ____ _ ____ _ ____ _ ____ _ ____
 72
    65
 73
     4
 40
2.0
 49
1.25
 49
-0.25
 49
0.25
 49
-0.25
  0
LTYPE
  2
HIDDEN
 70
     0
  3
Hidden __ __ __ __ __ __ __ __ __ __ __ __ __ _
 72
    65
 73
     2
 40
0.375
 49
0.25
 49
-0.125
  0
LTYPE
  2
SLDVISIBLE1
 70
     0
  3

 72
    65
 73
     1
 40
60.960000000000001
 49
60.960000000000001
  0
LTYPE
  2
SLDHIDDEN0
 70
     0
  3

 72
    65
 73
     2
 40
1.905
 49
1.27
 49
-0.635
  0
LTYPE
  2
SLDSKETCH0
 70
     0
  3

 72
    65
 73
     1
 40
60.960000000000001
 49
60.960000000000001
  0
LTYPE
  2
SLDDETAIL0
 70
     0
  3

 72
    65
 73
     1
 40
60.960000000000001
 49
60.960000000000001
  0
LTYPE
  2
SLDSECTION0
 70
     0
  3

 72
    65
 73
     4
 40
10.16
 49
6.3499999999999988
 49
-1.27
 49
1.27
 49
-1.27
  0
LTYPE
  2
SLDDIMENSIONS0
 70
     0
  3

 72
    65
 73
     1
 40
60.960000000000001
 49
60.960000000000001
  0
LTYPE
  2
SLDCENTERLINES0
 70
     0
  3

 72
    65
 73
     4
 40
34.289999999999999
 49
30.48
 49
-1.27
 49
1.27
 49
-1.27
  0
LTYPE
  2
SLDCROSSHATCH0
 70
     0
  3

 72
    65
 73
     1
 40
60.960000000000001
 49
60.960000000000001
  0
LTYPE
  2
SLDTANVISIBLE0
 70
     0
  3

 72
    65
 73
     6
 40
12.699999999999999
 49
6.3499999999999988
 49
-1.27
 49
1.27
 49
-1.27
 49
1.27
 49
-1.27
  0
LTYPE
  2
SLDDETAILBORDER0
 70
     0
  3

 72
    65
 73
     1
 40
60.960000000000001
 49
60.960000000000001
  0
LTYPE
  2
SLDDUMMY1
 70
     0
  3

 72
    65
 73
     0
 40
0.0
  0
LTYPE
  2
SLDTANHIDDEN0
 70
     0
  3

 72
    65
 73
     2
 40
1.905
 49
1.27
 49
-0.635
  0
LTYPE
  2
SLDVIEWARROW2
 70
     0
  3

 72
    65
 73
     6
 40
12.699999999999999
 49
6.3499999999999988
 49
-1.27
 49
1.27
 49
-1.27
 49
1.27
 49
-1.27
  0
LTYPE
  2
SLDEXPLODELINES0
 70
     0
  3

 72
    65
 73
     6
 40
12.699999999999999
 49
6.3499999999999988
 49
-1.27
 49
1.27
 49
-1.27
 49
1.27
 49
-1.27
  0
LTYPE
  2
SLDBREAKLINES0
 70
     0
  3

 72
    65
 73
     2
 40
1.905
 49
1.27
 49
-0.635
  0
LTYPE
  2
SLD--SPACER--0
 70
     0
  3

 72
    65
 73
     1
 40
60.960000000000001
 49
60.960000000000001
  0
LTYPE
  2
SLDUSER-DASHED0
 70
     0
  3

 72
    65
 73
     2
 40
1.905
 49
1.27
 49
-0.635
  0
LTYPE
  2
SLDUSER-PHANTOM0
 70
     0
  3

 72
    65
 73
     6
 40
12.699999999999999
 49
6.3499999999999988
 49
-1.27
 49
1.27
 49
-1.27
 49
1.27
 49
-1.27
  0
LTYPE
  2
SLDUSER-CENTER0
 70
     0
  3

 72
    65
 73
     4
 40
34.289999999999999
 49
30.48
 49
-1.27
 49
1.27
 49
-1.27
  0
LTYPE
  2
PHANTOM2
 70
     0
  3
___ _ _ ___ _ _ ___ _ _ ___ _ _
 72
    65
 73
     6
 40
1.25
 49
0.625
 49
-0.125
 49
0.125
 49
-0.125
 49
0.125
 49
-0.125
  0
ENDTAB
  0
TABLE
  2
LAYER
 70
     5
  0
LAYER
  2
0
 70
     0
 62
     7
  6
CONTINUOUS
  0
LAYER
  2
1
 70
     0
 62
     1
  6
CENTER
  0
LAYER
  2
3
 70
     0
 62
     3
  6
CONTINUOUS
  0
LAYER
  2
2
 70
     0
 62
     2
  6
HIDDEN
  0
LAYER
  2
DEFPOINTS
 70
     0
 62
     7
  6
CONTINUOUS
  0
ENDTAB
  0
TABLE
  2
STYLE
 70
     2
  0
STYLE
  2
STANDARD
 70
     0
 40
0.0
 41
1.0
 50
0.0
 71
     0
 42
0.2
  3
TXT
  4
BIGFONT
  0
STYLE
  2
STANDARD1
 70
     0
 40
0.0
 41
1.0
 50
0.0
 71
     0
 42
3.0
  3
txt
  4

  0
ENDTAB
  0
TABLE
  2
VIEW
 70
     1
  0
VIEW
  2
ALL
 70
     0
 40
270.0
 10
220.99159700000001
 20
135.0
 41
0.0
 11
0.0
 21
0.0
 31
1.0
 12
0.0
 22
0.0
 32
0.0
 42
0.0
 43
0.0
 44
0.0
 50
0.0
 71
     0
  0
ENDTAB
  0
TABLE
  2
UCS
 70
     0
  0
ENDTAB
  0
TABLE
  2
APPID
 70
     3
  0
APPID
  2
ACAD
 70
     0
  0
APPID
  2
ACAD_MLEADERVER
 70
     0
  0
APPID
  2
ACAD_NAV_VCDISPLAY
 70
     0
  0
ENDTAB
  0
TABLE
  2
DIMSTYLE
 70
     1
  0
DIMSTYLE
  2
STANDARD
 70
     0
  3

  4

  5

  6

  7

 40
1.0
 41
0.18
 42
0.0625
 43
0.38
 44
0.18
 45
0.0
 46
0.0
 47
0.0
 48
0.0
140
0.18
141
0.09
142
0.0
143
25.399999999999999
144
1.0
145
0.0
146
1.0
147
0.09
 71
     0
 72
     0
 73
     1
 74
     1
 75
     0
 76
     0
 77
     0
 78
     0
170
     0
171
     2
172
     0
173
     0
174
     0
175
     0
176
     0
177
     0
178
     0
  0
ENDTAB
  0
ENDSEC
  0
SECTION
  2
BLOCKS
  0
BLOCK
  8
0
  2
$MODEL_SPACE
 70
     0
 10
0.0
 20
0.0
 30
0.0
  3
$MODEL_SPACE
  1

  0
ENDBLK
  5
E8
  8
0
  0
BLOCK
 67
     1
  8
0
  2
$PAPER_SPACE
 70
     0
 10
0.0
 20
0.0
 30
0.0
  3
$PAPER_SPACE
  1

  0
ENDBLK
  5
E6
 67
     1
  8
0
  0
BLOCK
  8
0
 62
     0
  2
SW_CENTERMARK0
 70
     0
 10
0.0
 20
0.0
 30
0.0
  3
SW_CENTERMARK0
  1

  0
LINE
  5
13AA
  8
0
  6
CONTINUOUS
 62
     7
 10
122.0508188874516
 20
156.68974126778781
 30
0.0
 11
127.0508188874516
 21
156.68974126778781
 31
0.0
  0
LINE
  5
13AB
  8
0
  6
CONTINUOUS
 62
     7
 10
122.0508188874516
 20
156.68974126778781
 30
0.0
 11
122.0508188874516
 21
161.68974126778781
 31
0.0
  0
LINE
  5
13AC
  8
0
  6
CONTINUOUS
 62
     7
 10
122.0508188874516
 20
156.68974126778781
 30
0.0
 11
117.0508188874516
 21
156.68974126778781
 31
0.0
  0
LINE
  5
13AD
  8
0
  6
CONTINUOUS
 62
     7
 10
122.0508188874516
 20
156.68974126778781
 30
0.0
 11
122.0508188874516
 21
151.68974126778781
 31
0.0
  0
ENDBLK
  5
13AE
  8
0
  0
BLOCK
  8
0
 62
     0
  2
SW_CENTERMARK1
 70
     0
 10
0.0
 20
0.0
 30
0.0
  3
SW_CENTERMARK1
  1

  0
LINE
  5
13B1
  8
0
  6
CONTINUOUS
 62
     7
 10
122.1229849695808
 20
156.68974126778781
 30
0.0
 11
127.1229849695808
 21
156.68974126778781
 31
0.0
  0
LINE
  5
13B2
  8
0
  6
CONTINUOUS
 62
     7
 10
122.1229849695808
 20
156.68974126778781
 30
0.0
 11
122.1229849695809
 21
161.68974126778781
 31
0.0
  0
LINE
  5
13B3
  8
0
  6
CONTINUOUS
 62
     7
 10
122.1229849695808
 20
156.68974126778781
 30
0.0
 11
117.1229849695808
 21
156.68974126778781
 31
0.0
  0
LINE
  5
13B4
  8
0
  6
CONTINUOUS
 62
     7
 10
122.1229849695808
 20
156.68974126778781
 30
0.0
 11
122.1229849695808
 21
151.68974126778781
 31
0.0
  0
ENDBLK
  5
13B5
  8
0
  0
BLOCK
  8
0
 62
     0
  2
SW_CENTERMARK2
 70
     0
 10
0.0
 20
0.0
 30
0.0
  3
SW_CENTERMARK2
  1

  0
LINE
  5
13B8
  8
0
  6
CONTINUOUS
 62
     7
 10
150.0508188874517
 20
156.68974126778789
 30
0.0
 11
155.0508188874517
 21
156.68974126778781
 31
0.0
  0
LINE
  5
13B9
  8
0
  6
CONTINUOUS
 62
     7
 10
150.0508188874517
 20
156.68974126778789
 30
0.0
 11
150.0508188874517
 21
161.68974126778789
 31
0.0
  0
LINE
  5
13BA
  8
0
  6
CONTINUOUS
 62
     7
 10
150.0508188874517
 20
156.68974126778789
 30
0.0
 11
145.0508188874517
 21
156.68974126778789
 31
0.0
  0
LINE
  5
13BB
  8
0
  6
CONTINUOUS
 62
     7
 10
150.0508188874517
 20
156.68974126778789
 30
0.0
 11
150.0508188874517
 21
151.68974126778789
 31
0.0
  0
ENDBLK
  5
13BC
  8
0
  0
BLOCK
  8
0
 62
     0
  2
SW_CENTERMARK3
 70
     0
 10
0.0
 20
0.0
 30
0.0
  3
SW_CENTERMARK3
  1

  0
LINE
  5
13BF
  8
0
  6
CONTINUOUS
 62
     7
 10
122.0508188874516
 20
156.68974126778781
 30
0.0
 11
127.0508188874516
 21
156.68974126778781
 31
0.0
  0
LINE
  5
13C0
  8
0
  6
CONTINUOUS
 62
     7
 10
122.0508188874516
 20
156.68974126778781
 30
0.0
 11
122.0508188874516
 21
161.68974126778781
 31
0.0
  0
LINE
  5
13C1
  8
0
  6
CONTINUOUS
 62
     7
 10
122.0508188874516
 20
156.68974126778781
 30
0.0
 11
117.0508188874516
 21
156.68974126778781
 31
0.0
  0
LINE
  5
13C2
  8
0
  6
CONTINUOUS
 62
     7
 10
122.0508188874516
 20
156.68974126778781
 30
0.0
 11
122.0508188874516
 21
151.68974126778781
 31
0.0
  0
LINE
  5
13C3
  8
0
  6
CONTINUOUS
 62
     7
 10
132.05081888745161
 20
156.6897412677877
 30
0.0
 11
163.4918987377699
 21
156.68974126778761
 31
0.0
  0
LINE
  5
13C4
  8
0
  6
CONTINUOUS
 62
     7
 10
122.0508188874516
 20
166.68974126778781
 30
0.0
 11
122.0508188874517
 21
175.2897412677878
 31
0.0
  0
LINE
  5
13C5
  8
0
  6
CONTINUOUS
 62
     7
 10
112.0508188874516
 20
156.68974126778781
 30
0.0
 11
103.4508188874516
 21
156.68974126778781
 31
0.0
  0
LINE
  5
13C6
  8
0
  6
CONTINUOUS
 62
     7
 10
122.0508188874516
 20
146.68974126778781
 30
0.0
 11
122.0508188874515
 21
138.08974126778779
 31
0.0
  0
ENDBLK
  5
13C7
  8
0
  0
ENDSEC
  0
SECTION
  2
ENTITIES
  0
LINE
  5
1C03
  8
0
  6
CONTINUOUS
 62
     7
 10
89.612043404910025
 20
82.797735881625414
 30
0.0
 11
89.612043404910025
 21
97.446677363997566
 31
0.0
  0
LINE
  5
1C04
  8
0
  6
CONTINUOUS
 62
     7
 10
89.612043404910025
 20
98.290708559514485
 30
0.0
 11
89.612043404910025
 21
114.7977358816254
 31
0.0
  0
LINE
  5
1C06
  8
0
  6
CONTINUOUS
 62
     7
 10
99.850072960808575
 20
100.5088858073234
 30
0.0
 11
102.8379574870452
 21
102.2617537578853
 31
0.0
  0
LINE
  5
1C07
  8
0
  6
CONTINUOUS
 62
     7
 10
99.874158878260971
 20
97.044867923173186
 30
0.0
 11
99.850072960808575
 21
100.5088858073234
 31
0.0
  0
LINE
  5
1C08
  8
0
  6
CONTINUOUS
 62
     7
 10
102.8861293218404
 20
95.333718005358946
 30
0.0
 11
99.874158878260971
 21
97.044867923173186
 31
0.0
  0
LINE
  5
1C09
  8
0
  6
CONTINUOUS
 62
     7
 10
105.8740138490114
 20
97.086585955927333
 30
0.0
 11
102.8861293218404
 21
95.333718005358946
 31
0.0
  0
LINE
  5
1C0A
  8
0
  6
CONTINUOUS
 62
     7
 10
105.84992793155899
 20
100.5506038400776
 30
0.0
 11
105.8740138490114
 21
97.086585955927333
 31
0.0
  0
LINE
  5
1C0B
  8
0
  6
CONTINUOUS
 62
     7
 10
102.8379574870452
 20
102.2617537578853
 30
0.0
 11
105.84992793155899
 21
100.5506038400776
 31
0.0
  0
LINE
  5
1C0C
  8
0
  6
CONTINUOUS
 62
     7
 10
108.3468709624081
 20
89.297735881906746
 30
0.0
 11
97.377215849180047
 21
89.297735881625385
 31
0.0
  0
LINE
  5
1C0D
  8
0
  6
CONTINUOUS
 62
     7
 10
97.377215848575304
 20
89.297735880472999
 30
0.0
 11
91.892388289029199
 21
98.797735883150935
 31
0.0
  0
LINE
  5
1C0E
  8
0
  6
CONTINUOUS
 62
     7
 10
91.892388291092828
 20
98.797735883118108
 30
0.0
 11
97.377215848110282
 21
108.2977358819723
 31
0.0
  0
LINE
  5
1C0F
  8
0
  6
CONTINUOUS
 62
     7
 10
97.377215848801598
 20
108.2977358816254
 30
0.0
 11
108.3468709620881
 21
108.2977358816254
 31
0.0
  0
LINE
  5
1C10
  8
0
  6
CONTINUOUS
 62
     7
 10
108.3468709619641
 20
108.29773588153169
 30
0.0
 11
113.831698519629
 21
98.797735882112093
 31
0.0
  0
LINE
  5
1C11
  8
0
  6
CONTINUOUS
 62
     7
 10
113.83169852015391
 20
98.797735882047917
 30
0.0
 11
108.3468709624094
 21
89.297735882490457
 31
0.0
  0
CIRCLE
  5
1C12
  8
0
  6
CONTINUOUS
 62
     7
 10
102.86204340491
 20
98.797735881625385
 30
0.0
 40
9.0
  0
POLYLINE
  5
1C14
  8
0
  6
CONTINUOUS
 62
     7
 66
     1
 10
0.0
 20
0.0
 30
0.0
 70
   128
  0
VERTEX
  5
1EA0
  8
0
  6
CONTINUOUS
 62
     7
 10
114.0536034308159
 20
110.7977337763021
 30
0.0
  0
VERTEX
  5
1EA1
  8
0
  6
CONTINUOUS
 62
     7
 10
115.2524887168164
 20
109.4172600933657
 30
0.0
  0
VERTEX
  5
1EA2
  8
0
  6
CONTINUOUS
 62
     7
 10
116.29323749543779
 20
107.9069392584486
 30
0.0
  0
VERTEX
  5
1EA3
  8
0
  6
CONTINUOUS
 62
     7
 10
117.1553700883792
 20
106.2947140938456
 30
0.0
  0
VERTEX
  5
1EA4
  8
0
  6
CONTINUOUS
 62
     7
 10
117.82625045124119
 20
104.59650683017681
 30
0.0
  0
VERTEX
  5
1EA5
  8
0
  6
CONTINUOUS
 62
     7
 10
118.3021643272846
 20
102.82753658081801
 30
0.0
  0
VERTEX
  5
1EA6
  8
0
  6
CONTINUOUS
 62
     7
 10
118.5726620422532
 20
101.0219302445102
 30
0.0
  0
VERTEX
  5
1EA7
  8
0
  6
CONTINUOUS
 62
     7
 10
118.631470332772
 20
99.227468504245607
 30
0.0
  0
VERTEX
  5
1EA8
  8
0
  6
CONTINUOUS
 62
     7
 10
118.4861228964528
 20
97.432039486912259
 30
0.0
  0
VERTEX
  5
1EA9
  8
0
  6
CONTINUOUS
 62
     7
 10
118.13865529235559
 20
95.670667770529136
 30
0.0
  0
VERTEX
  5
1EAA
  8
0
  6
CONTINUOUS
 62
     7
 10
117.599325711275
 20
93.989586582062401
 30
0.0
  0
VERTEX
  5
1EAB
  8
0
  6
CONTINUOUS
 62
     7
 10
116.8706411356906
 20
92.375190453215467
 30
0.0
  0
VERTEX
  5
1EAC
  8
0
  6
CONTINUOUS
 62
     7
 10
115.9654728786047
 20
90.859650567867035
 30
0.0
  0
VERTEX
  5
1EAD
  8
0
  6
CONTINUOUS
 62
     7
 10
114.9111618081931
 20
89.4846041900622
 30
0.0
  0
VERTEX
  5
1EAE
  8
0
  6
CONTINUOUS
 62
     7
 10
113.7043900064559
 20
88.233437025016343
 30
0.0
  0
VERTEX
  5
1EAF
  8
0
  6
CONTINUOUS
 62
     7
 10
112.3671474662205
 20
87.132027004172414
 30
0.0
  0
VERTEX
  5
1EB0
  8
0
  6
CONTINUOUS
 62
     7
 10
110.9365615312495
 20
86.208641196303148
 30
0.0
  0
VERTEX
  5
1EB1
  8
0
  6
CONTINUOUS
 62
     7
 10
109.4059612425016
 20
85.45024714839478
 30
0.0
  0
VERTEX
  5
1EB2
  8
0
  6
CONTINUOUS
 62
     7
 10
107.8041682339928
 20
84.873691026000657
 30
0.0
  0
VERTEX
  5
1EB3
  8
0
  6
CONTINUOUS
 62
     7
 10
106.174734917799
 20
84.493153276738326
 30
0.0
  0
VERTEX
  5
1EB4
  8
0
  6
CONTINUOUS
 62
     7
 10
104.50733917340359
 20
84.298682748055086
 30
0.0
  0
VERTEX
  5
1EB5
  8
0
  6
CONTINUOUS
 62
     7
 10
102.8342970280104
 20
84.295789521894633
 30
0.0
  0
VERTEX
  5
1EB6
  8
0
  6
CONTINUOUS
 62
     7
 10
101.2008177803948
 20
84.483832242434985
 30
0.0
  0
VERTEX
  5
1EB7
  8
0
  6
CONTINUOUS
 62
     7
 10
99.593984482050317
 20
84.857351493836717
 30
0.0
  0
VERTEX
  5
1EB8
  8
0
  6
CONTINUOUS
 62
     7
 10
98.045370101698737
 20
85.409712079839565
 30
0.0
  0
VERTEX
  5
1EB9
  8
0
  6
CONTINUOUS
 62
     7
 10
96.598707781870061
 20
86.124623404107098
 30
0.0
  0
VERTEX
  5
1EBA
  8
0
  6
CONTINUOUS
 62
     7
 10
95.238386692418274
 20
87.002575305845653
 30
0.0
  0
VERTEX
  5
1EBB
  8
0
  6
CONTINUOUS
 62
     7
 10
93.991141610168455
 20
88.026425159655759
 30
0.0
  0
VERTEX
  5
1EBC
  8
0
  6
CONTINUOUS
 62
     7
 10
92.893655484244405
 20
89.16446943343594
 30
0.0
  0
VERTEX
  5
1EBD
  8
0
  6
CONTINUOUS
 62
     7
 10
91.929686271250446
 20
90.424229957874573
 30
0.0
  0
VERTEX
  5
1EBE
  8
0
  6
CONTINUOUS
 62
     7
 10
91.118341444815727
 20
91.781150049916718
 30
0.0
  0
VERTEX
  5
1EBF
  8
0
  6
CONTINUOUS
 62
     7
 10
90.482635003324575
 20
93.193749604176588
 30
0.0
  0
VERTEX
  5
1EC0
  8
0
  6
CONTINUOUS
 62
     7
 10
90.010048392283181
 20
94.674305213328054
 30
0.0
  0
VERTEX
  5
1EC1
  8
0
  6
CONTINUOUS
 62
     7
 10
89.710644686587585
 20
96.194031169790577
 30
0.0
  0
VERTEX
  5
1EC2
  8
0
  6
CONTINUOUS
 62
     7
 10
89.591543499535518
 20
97.707111386883298
 30
0.0
  0
VERTEX
  5
1EC3
  8
0
  6
CONTINUOUS
 62
     7
 10
89.644998414185267
 20
99.228881194252381
 30
0.0
  0
VERTEX
  5
1EC4
  8
0
  6
CONTINUOUS
 62
     7
 10
89.871486207669093
 20
100.7294380886395
 30
0.0
  0
VERTEX
  5
1EC5
  8
0
  6
CONTINUOUS
 62
     7
 10
90.262172736120803
 20
102.16429978887039
 30
0.0
  0
VERTEX
  5
1EC6
  8
0
  6
CONTINUOUS
 62
     7
 10
90.814614288845576
 20
103.550159281231
 30
0.0
  0
VERTEX
  5
1EC7
  8
0
  6
CONTINUOUS
 62
     7
 10
91.519870629546446
 20
104.8590719642602
 30
0.0
  0
VERTEX
  5
1EC8
  8
0
  6
CONTINUOUS
 62
     7
 10
92.355031018195874
 20
106.0529309199358
 30
0.0
  0
VERTEX
  5
1EC9
  8
0
  6
CONTINUOUS
 62
     7
 10
93.323100227979921
 20
107.1480891125054
 30
0.0
  0
VERTEX
  5
1ECA
  8
0
  6
CONTINUOUS
 62
     7
 10
94.406681410169725
 20
108.1216382096311
 30
0.0
  0
VERTEX
  5
1ECB
  8
0
  6
CONTINUOUS
 62
     7
 10
95.57206006719818
 20
108.94567004584979
 30
0.0
  0
VERTEX
  5
1ECC
  8
0
  6
CONTINUOUS
 62
     7
 10
96.827450171071064
 20
109.6344476292625
 30
0.0
  0
VERTEX
  5
1ECD
  8
0
  6
CONTINUOUS
 62
     7
 10
98.148979479019516
 20
110.17302785282151
 30
0.0
  0
VERTEX
  5
1ECE
  8
0
  6
CONTINUOUS
 62
     7
 10
99.496140066596624
 20
110.54620167171529
 30
0.0
  0
VERTEX
  5
1ECF
  8
0
  6
CONTINUOUS
 62
     7
 10
100.8816030623944
 20
110.7642285833607
 30
0.0
  0
VERTEX
  5
1ED0
  8
0
  6
CONTINUOUS
 62
     7
 10
102.27819609402221
 20
110.82208530598589
 30
0.0
  0
VERTEX
  5
1ED1
  8
0
  6
CONTINUOUS
 62
     7
 10
102.8620433999981
 20
110.7977337849516
 30
0.0
  0
SEQEND
  5
1ED2
  8
0
  6
CONTINUOUS
 62
     7
  0
LINE
  5
1C15
  8
0
  6
CONTINUOUS
 62
     7
 10
102.86204339984231
 20
110.7977337826064
 30
0.0
 11
114.0536034493248
 21
110.797733757282
 31
0.0
  0
LINE
  5
1C17
  8
0
  6
CONTINUOUS
 62
     7
 10
88.249430681034283
 20
114.7977358816254
 30
0.0
 11
88.249430681383359
 21
82.797735881625414
 31
0.0
  0
LINE
  5
1C19
  8
0
  6
CONTINUOUS
 62
     7
 10
81.362043404910011
 20
114.7977358816254
 30
0.0
 11
81.362043404020767
 21
82.797735881625385
 31
0.0
  0
LINE
  5
1C1A
  8
0
  6
CONTINUOUS
 62
     7
 10
75.112043404910025
 20
114.7977358816254
 30
0.0
 11
75.112043404910025
 21
103.0477358816254
 31
0.0
  0
LINE
  5
1C1C
  8
0
  6
CONTINUOUS
 62
     7
 10
75.112043406184526
 20
82.797735881625385
 30
0.0
 11
75.112043404910025
 21
94.5477358816254
 31
0.0
  0
LINE
  5
1C1D
  8
0
  6
CONTINUOUS
 62
     7
 10
75.112043404910025
 20
94.5477358816254
 30
0.0
 11
76.362043404910025
 21
95.7977358816254
 31
0.0
  0
LINE
  5
1C1E
  8
0
  6
CONTINUOUS
 62
     7
 10
76.362043404910025
 20
95.7977358816254
 30
0.0
 11
76.362043404910025
 21
101.7977358816254
 31
0.0
  0
LINE
  5
1C1F
  8
0
  6
CONTINUOUS
 62
     7
 10
76.362043404910025
 20
101.7977358816254
 30
0.0
 11
75.112043404910025
 21
103.0477358816254
 31
0.0
  0
LINE
  5
1C21
  8
0
  6
CONTINUOUS
 62
     7
 10
74.362043404910025
 20
114.7977358816254
 30
0.0
 11
74.362043404910025
 21
103.7977358816254
 31
0.0
  0
LINE
  5
1C22
  8
0
  6
CONTINUOUS
 62
     7
 10
74.362043404910025
 20
103.7977358816254
 30
0.0
 11
75.112043404910025
 21
103.0477358816254
 31
0.0
  0
LINE
  5
1C25
  8
0
  6
CONTINUOUS
 62
     7
 10
74.362043404910025
 20
82.797735881625385
 30
0.0
 11
74.362043404910025
 21
93.797735881625414
 31
0.0
  0
LINE
  5
1C26
  8
0
  6
CONTINUOUS
 62
     7
 10
75.112043404910025
 20
94.5477358816254
 30
0.0
 11
74.362043404910025
 21
93.797735881625414
 31
0.0
  0
LINE
  5
1C27
  8
0
  6
CONTINUOUS
 62
     7
 10
89.612043404910025
 20
82.797735881625414
 30
0.0
 11
74.362043404910011
 21
82.797735881625428
 31
0.0
  0
LINE
  5
1C28
  8
0
  6
CONTINUOUS
 62
     7
 10
89.612043404910025
 20
114.7977358816254
 30
0.0
 11
74.362043404910025
 21
114.7977358816254
 31
0.0
  0
CIRCLE
  5
1C29
  8
0
  6
CONTINUOUS
 62
     7
 10
102.8620434045412
 20
98.797735881625414
 30
0.0
 40
6.7499999998716333
  0
LINE
  5
1C2A
  8
0
  6
CONTINUOUS
 62
     7
 10
120.3620434045412
 20
106.79773588244581
 30
0.0
 11
120.3620434045412
 21
90.797735881625428
 31
0.0
  0
ARC
  5
1C2B
  8
0
  6
CONTINUOUS
 62
     7
 10
112.3620434045412
 20
90.797735881625428
 30
0.0
 40
8.0
 50
269.9999999882491
 51
0.0
  0
LINE
  5
1C2C
  8
0
  6
CONTINUOUS
 62
     7
 10
112.3620434029004
 20
82.797735881625442
 30
0.0
 11
94.362043404541225
 21
82.797735881625442
 31
0.0
  0
POLYLINE
  5
1C2D
  8
0
  6
CONTINUOUS
 62
     7
 66
     1
 10
0.0
 20
0.0
 30
0.0
 70
   128
  0
VERTEX
  5
1ED3
  8
0
  6
CONTINUOUS
 62
     7
 10
94.362043404541225
 20
82.797735881625442
 30
0.0
  0
VERTEX
  5
1ED4
  8
0
  6
CONTINUOUS
 62
     7
 10
93.839938635593228
 20
82.831956436139123
 30
0.0
  0
VERTEX
  5
1ED5
  8
0
  6
CONTINUOUS
 62
     7
 10
93.326767223999056
 20
82.934032576504563
 30
0.0
  0
VERTEX
  5
1ED6
  8
0
  6
CONTINUOUS
 62
     7
 10
92.831309674891386
 20
83.102217751658785
 30
0.0
  0
VERTEX
  5
1ED7
  8
0
  6
CONTINUOUS
 62
     7
 10
92.362043404304401
 20
83.333634266624415
 30
0.0
  0
VERTEX
  5
1ED8
  8
0
  6
CONTINUOUS
 62
     7
 10
91.926997688235133
 20
83.624322520668585
 30
0.0
  0
VERTEX
  5
1ED9
  8
0
  6
CONTINUOUS
 62
     7
 10
91.533616279504969
 20
83.969308757169316
 30
0.0
  0
VERTEX
  5
1EDA
  8
0
  6
CONTINUOUS
 62
     7
 10
91.188630043084942
 20
84.362690165970236
 30
0.0
  0
VERTEX
  5
1EDB
  8
0
  6
CONTINUOUS
 62
     7
 10
90.897941789129987
 20
84.797735882099104
 30
0.0
  0
VERTEX
  5
1EDC
  8
0
  6
CONTINUOUS
 62
     7
 10
90.666525274260607
 20
85.267002152733554
 30
0.0
  0
VERTEX
  5
1EDD
  8
0
  6
CONTINUOUS
 62
     7
 10
90.498340099207994
 20
85.762459701875727
 30
0.0
  0
VERTEX
  5
1EDE
  8
0
  6
CONTINUOUS
 62
     7
 10
90.396263958947813
 20
86.275631113490832
 30
0.0
  0
VERTEX
  5
1EDF
  8
0
  6
CONTINUOUS
 62
     7
 10
90.362043412641214
 20
86.797735882445835
 30
0.0
  0
SEQEND
  5
1EE0
  8
0
  6
CONTINUOUS
 62
     7
  0
LINE
  5
1C2E
  8
0
  6
CONTINUOUS
 62
     7
 10
90.362043412641214
 20
86.797735882445835
 30
0.0
 11
90.362043420741216
 21
91.297735881625442
 31
0.0
  0
LINE
  5
1C2F
  8
0
  6
CONTINUOUS
 62
     7
 10
90.362043404541225
 20
110.7977358816254
 30
0.0
 11
90.362043404541225
 21
106.2977358816254
 31
0.0
  0
ARC
  5
1C30
  8
0
  6
CONTINUOUS
 62
     7
 10
94.362043404541225
 20
110.7977358816254
 30
0.0
 40
4.0
 50
89.999999988979511
 51
180.0000000000004
  0
LINE
  5
1C31
  8
0
  6
CONTINUOUS
 62
     7
 10
94.362043405310615
 20
114.7977358816254
 30
0.0
 11
112.3620434045412
 21
114.7977358816254
 31
0.0
  0
ARC
  5
1C32
  8
0
  6
CONTINUOUS
 62
     7
 10
112.3620434045412
 20
106.7977358816254
 30
0.0
 40
8.0
 50
0.0
 51
90.0
  0
LINE
  5
1C33
  8
0
  6
CONTINUOUS
 62
     7
 10
90.362043420741216
 20
91.297735881625442
 30
0.0
 11
89.612043404910025
 21
91.297735881625442
 31
0.0
  0
LINE
  5
1C34
  8
0
  6
CONTINUOUS
 62
     7
 10
90.362043404541225
 20
106.2977358816254
 30
0.0
 11
89.612043404910025
 21
106.2977358816254
 31
0.0
  0
LINE
  5
1C36
  8
0
  6
CONTINUOUS
 62
     7
 10
149.95932342028971
 20
35.93681759382477
 30
0.0
 11
149.95932342028971
 21
20.936817593790462
 31
0.0
  0
LINE
  5
1C37
  8
0
  6
CONTINUOUS
 62
     7
 10
157.95922673055139
 20
20.936817593790451
 30
0.0
 11
157.95932342028971
 21
35.93681759382477
 31
0.0
  0
LINE
  5
1C38
  8
0
  6
CONTINUOUS
 62
     7
 10
165.87521666571959
 20
42.936817593790472
 30
0.0
 11
165.87521666571959
 21
50.936817593790479
 31
0.0
  0
LINE
  5
1C39
  8
0
  6
CONTINUOUS
 62
     7
 10
139.4342137576574
 20
50.936817593790479
 30
0.0
 11
139.4342137576574
 21
42.936817593790472
 31
0.0
  0
LINE
  5
1C3A
  8
0
  6
CONTINUOUS
 62
     7
 10
163.45932342028971
 20
58.648142459176171
 30
0.0
 11
162.95932342028971
 21
58.936817593790479
 31
0.0
  0
LINE
  5
1C3B
  8
0
  6
CONTINUOUS
 62
     7
 10
144.95932342028971
 20
58.936817593790479
 30
0.0
 11
144.45932341971351
 21
58.648142458843502
 31
0.0
  0
LINE
  5
1C3D
  8
0
  6
CONTINUOUS
 62
     7
 10
157.95922673055139
 20
20.936817593790451
 30
0.0
 11
149.95932342028971
 21
20.936817593790462
 31
0.0
  0
LINE
  5
1C3E
  8
0
  6
CONTINUOUS
 62
     7
 10
165.95932131496639
 20
50.936817593790479
 30
0.0
 11
139.44151068810609
 21
50.936817593790479
 31
0.0
  0
LINE
  5
1C3F
  8
0
  6
CONTINUOUS
 62
     7
 10
165.9593212959463
 20
50.936817593790479
 30
0.0
 11
165.95932129808889
 21
42.936817593790472
 31
0.0
  0
LINE
  5
1C40
  8
0
  6
CONTINUOUS
 62
     7
 10
144.45932342028971
 20
57.799636683094988
 30
0.0
 11
144.45932342028971
 21
50.936817593790479
 31
0.0
  0
ARC
  5
1C41
  8
0
  6
CONTINUOUS
 62
     7
 10
149.2093234199229
 20
44.920942491883537
 30
0.0
 40
13.726735375481789
 50
69.754703653694875
 51
110.24529633731311
  0
LINE
  5
1C42
  8
0
  6
CONTINUOUS
 62
     7
 10
153.95932342028971
 20
50.936817593790479
 30
0.0
 11
153.95932342127469
 21
57.799636683186037
 31
0.0
  0
ARC
  5
1C43
  8
0
  6
CONTINUOUS
 62
     7
 10
158.70932342073749
 20
44.920942491816199
 30
0.0
 40
13.72673537554269
 50
69.754703659709548
 51
110.2452963425267
  0
LINE
  5
1C44
  8
0
  6
CONTINUOUS
 62
     7
 10
163.45932342024281
 20
57.799636683189611
 30
0.0
 11
163.45932342028971
 21
50.936817593790479
 31
0.0
  0
LINE
  5
1C45
  8
0
  6
CONTINUOUS
 62
     7
 10
144.45932342057111
 20
57.799636682845971
 30
0.0
 11
144.45932342028971
 21
58.634896892084249
 31
0.0
  0
LINE
  5
1C46
  8
0
  6
CONTINUOUS
 62
     7
 10
163.45932342028971
 20
57.799636683122571
 30
0.0
 11
163.45932342028971
 21
58.643517179724718
 31
0.0
  0
LINE
  5
1C47
  8
0
  6
CONTINUOUS
 62
     7
 10
162.95932342028971
 20
58.936817593790479
 30
0.0
 11
144.95932342028971
 21
58.936817593790479
 31
0.0
  0
LINE
  5
1C48
  8
0
  6
CONTINUOUS
 62
     7
 10
169.95932342028971
 20
47.851434743226271
 30
0.0
 11
169.95932342028971
 21
51.450572336709499
 31
0.0
  0
LINE
  5
1C49
  8
0
  6
CONTINUOUS
 62
     7
 10
137.95932342028971
 20
47.851434743226271
 30
0.0
 11
137.95932342028971
 21
51.450572338956214
 31
0.0
  0
LINE
  5
1C4A
  8
0
  6
CONTINUOUS
 62
     7
 10
137.95932342028971
 20
46.936817593790458
 30
0.0
 11
139.4342137576574
 21
46.936817593790458
 31
0.0
  0
LINE
  5
1C4B
  8
0
  6
CONTINUOUS
 62
     7
 10
166.45932342028971
 20
46.936817593790458
 30
0.0
 11
169.95932342028971
 21
46.936817593790458
 31
0.0
  0
LINE
  5
1C4C
  8
0
  6
CONTINUOUS
 62
     7
 10
166.45932342028971
 20
42.93681759382477
 30
0.0
 11
166.45932342028971
 21
46.936817593790458
 31
0.0
  0
LINE
  5
1C4D
  8
0
  6
CONTINUOUS
 62
     7
 10
169.95932342028971
 20
47.851434743226271
 30
0.0
 11
169.95932342028971
 21
46.93681759267907
 31
0.0
  0
LINE
  5
1C4E
  8
0
  6
CONTINUOUS
 62
     7
 10
137.95932342028971
 20
46.93681759248188
 30
0.0
 11
137.95932342028971
 21
47.851434743226271
 31
0.0
  0
LINE
  5
1C4F
  8
0
  6
CONTINUOUS
 62
     7
 10
169.95932342028971
 20
55.936817593790451
 30
0.0
 11
163.45932342028971
 21
55.936817593790451
 31
0.0
  0
LINE
  5
1C50
  8
0
  6
CONTINUOUS
 62
     7
 10
144.45932342028971
 20
55.936817593790451
 30
0.0
 11
137.95932342028971
 21
55.936817593790451
 31
0.0
  0
LINE
  5
1C51
  8
0
  6
CONTINUOUS
 62
     7
 10
169.95932342028971
 20
55.936817594197159
 30
0.0
 11
169.95932342028971
 21
51.450572336709499
 31
0.0
  0
LINE
  5
1C52
  8
0
  6
CONTINUOUS
 62
     7
 10
137.95932342028971
 20
51.450572338956214
 30
0.0
 11
137.95932342028971
 21
55.936817593790451
 31
0.0
  0
LINE
  5
1C54
  8
0
  6
CONTINUOUS
 62
     7
 10
145.95932342028971
 20
35.93681759382477
 30
0.0
 11
145.95932342028971
 21
42.93681759382477
 31
0.0
  0
LINE
  5
1C56
  8
0
  6
CONTINUOUS
 62
     7
 10
161.9593234211101
 20
35.93681759382477
 30
0.0
 11
161.9593234211101
 21
42.93681759382477
 31
0.0
  0
LINE
  5
1C59
  8
0
  6
CONTINUOUS
 62
     7
 10
169.95932342028971
 20
35.93681759382477
 30
0.0
 11
169.95932342028971
 21
42.93681759382477
 31
0.0
  0
LINE
  5
1C5A
  8
0
  6
CONTINUOUS
 62
     7
 10
137.95932342028971
 20
35.93681759382477
 30
0.0
 11
137.95932342028971
 21
42.93681759382477
 31
0.0
  0
LINE
  5
1C5B
  8
0
  6
CONTINUOUS
 62
     7
 10
137.95932342028971
 20
35.93681759382477
 30
0.0
 11
169.95932342028971
 21
35.93681759382477
 31
0.0
  0
LINE
  5
1C5C
  8
0
  6
CONTINUOUS
 62
     7
 10
169.95932342028971
 20
42.93681759382477
 30
0.0
 11
137.95932342028971
 21
42.93681759382477
 31
0.0
  0
LINE
  5
1C60
  8
0
  6
CONTINUOUS
 62
     7
 10
169.95932342028971
 20
47.851434743226271
 30
0.0
 11
165.9593212769262
 21
47.851434743680251
 31
0.0
  0
LINE
  5
1C61
  8
0
  6
CONTINUOUS
 62
     7
 10
139.4342137576574
 20
47.851434743680251
 30
0.0
 11
137.95932342028971
 21
47.851434743226271
 31
0.0
  0
LINE
  5
1C62
  8
0
  6
CONTINUOUS
 62
     7
 10
169.95932342028971
 20
51.450572336709499
 30
0.0
 11
163.45932342028971
 21
51.450572336790472
 31
0.0
  0
LINE
  5
1C63
  8
0
  6
CONTINUOUS
 62
     7
 10
144.45932342028971
 20
51.450572336790472
 30
0.0
 11
137.95932342028971
 21
51.450572338956214
 31
0.0
  0
LINE
  5
1C64
  8
1
 10
153.95932341526509
 20
15.936817593790449
 30
0.0
 11
153.9593234152652
 21
63.936817593790479
 31
0.0
  0
LINE
  5
1C66
  8
0
  6
CONTINUOUS
 62
     7
 10
98.862043404910011
 20
35.936817593824713
 30
0.0
 11
98.862043404910011
 21
20.936817593790462
 31
0.0
  0
LINE
  5
1C67
  8
0
  6
CONTINUOUS
 62
     7
 10
106.86204340491
 20
20.936817593790462
 30
0.0
 11
106.86204340491
 21
35.936817593824713
 31
0.0
  0
LINE
  5
1C68
  8
0
  6
CONTINUOUS
 62
     7
 10
118.63736075688951
 20
42.936817593790472
 30
0.0
 11
118.63736075688951
 21
50.936817593790479
 31
0.0
  0
LINE
  5
1C69
  8
0
  6
CONTINUOUS
 62
     7
 10
89.586639007616427
 20
50.936817593790472
 30
0.0
 11
89.586639007616427
 21
48.952710493384203
 31
0.0
  0
LINE
  5
1C6A
  8
0
  6
CONTINUOUS
 62
     7
 10
89.586639007616427
 20
48.647297410674391
 30
0.0
 11
89.586639007616427
 21
42.936817593790472
 31
0.0
  0
LINE
  5
1C6B
  8
0
  6
CONTINUOUS
 62
     7
 10
113.8316985193413
 20
57.799636683186037
 30
0.0
 11
111.86204340491
 21
58.936817593790479
 31
0.0
  0
LINE
  5
1C6C
  8
0
  6
CONTINUOUS
 62
     7
 10
93.862043404909997
 20
58.936817593790479
 30
0.0
 11
91.892388289928519
 21
57.799636682868389
 31
0.0
  0
LINE
  5
1C6D
  8
0
  6
CONTINUOUS
 62
     7
 10
106.86204340491
 20
20.936817593790462
 30
0.0
 11
98.862043404910011
 21
20.936817593790462
 31
0.0
  0
LINE
  5
1C6E
  8
0
  6
CONTINUOUS
 62
     7
 10
118.6330582110337
 20
50.936817593790479
 30
0.0
 11
89.598392670867995
 21
50.936817593790472
 31
0.0
  0
LINE
  5
1C6F
  8
0
  6
CONTINUOUS
 62
     7
 10
108.3468709621836
 20
57.799636683094967
 30
0.0
 11
108.34687096191
 21
50.936817593790451
 31
0.0
  0
ARC
  5
1C70
  8
0
  6
CONTINUOUS
 62
     7
 10
111.0892847407364
 20
53.788032117119087
 30
0.0
 40
4.8594037214728036
 50
55.642701009692722
 51
124.3572989747328
  0
LINE
  5
1C71
  8
0
  6
CONTINUOUS
 62
     7
 10
113.83169851991001
 20
50.936817593790479
 30
0.0
 11
113.8316985193413
 21
57.799636683186037
 31
0.0
  0
LINE
  5
1C72
  8
0
  6
CONTINUOUS
 62
     7
 10
91.892388289928519
 20
57.799636682868403
 30
0.0
 11
91.892388289909988
 21
50.936817593790479
 31
0.0
  0
ARC
  5
1C73
  8
0
  6
CONTINUOUS
 62
     7
 10
94.63480206912466
 20
53.78803211662305
 30
0.0
 40
4.8594037219613817
 50
55.642701013156923
 51
124.35729899605229
  0
LINE
  5
1C74
  8
0
  6
CONTINUOUS
 62
     7
 10
97.377215848242656
 20
57.799636682981898
 30
0.0
 11
97.377215847909994
 21
50.936817593790451
 31
0.0
  0
ARC
  5
1C75
  8
0
  6
CONTINUOUS
 62
     7
 10
102.8620434046978
 20
40.487397679708259
 30
0.0
 40
18.160312569985692
 50
72.420865191626973
 51
107.57913480111669
  0
LINE
  5
1C76
  8
0
  6
CONTINUOUS
 62
     7
 10
111.86204340491
 20
58.936817593790479
 30
0.0
 11
93.862043404909997
 21
58.936817593790479
 31
0.0
  0
ARC
  5
1C77
  8
0
  6
CONTINUOUS
 62
     7
 10
86.612043404910025
 20
48.936817593790423
 30
0.0
 40
3.0000000020000059
 50
338.7895698358974
 51
56.920940232506958
  0
LINE
  5
1C78
  8
0
  6
CONTINUOUS
 62
     7
 10
89.05386910153554
 20
46.93681759248183
 30
0.0
 11
89.408817272902823
 21
47.851434743226221
 31
0.0
  0
LINE
  5
1C79
  8
0
  6
CONTINUOUS
 62
     7
 10
76.362043406593529
 20
46.936817593790408
 30
0.0
 11
89.053869095586521
 21
46.936817593790408
 31
0.0
  0
LINE
  5
1C7A
  8
0
  6
CONTINUOUS
 62
     7
 10
76.362043404910025
 20
47.936817598790412
 30
0.0
 11
76.362043404910025
 21
46.936817593790408
 31
0.0
  0
LINE
  5
1C7B
  8
0
  6
CONTINUOUS
 62
     7
 10
75.112043407459026
 20
47.936817592790412
 30
0.0
 11
76.362043404910025
 21
47.936817592790412
 31
0.0
  0
LINE
  5
1C7C
  8
0
  6
CONTINUOUS
 62
     7
 10
74.362043404910025
 20
48.686817593790408
 30
0.0
 11
75.112043404910025
 21
47.936817593790408
 31
0.0
  0
LINE
  5
1C7D
  8
0
  6
CONTINUOUS
 62
     7
 10
74.362043404910025
 20
49.186817593790408
 30
0.0
 11
74.362043404910025
 21
48.686817593790408
 31
0.0
  0
LINE
  5
1C7E
  8
0
  6
CONTINUOUS
 62
     7
 10
74.758490014160003
 20
49.583264203040407
 30
0.0
 11
74.362043404910025
 21
49.186817593790408
 31
0.0
  0
ARC
  5
1C7F
  8
0
  6
CONTINUOUS
 62
     7
 10
74.404936623910032
 20
49.936817593790408
 30
0.0
 40
0.4999999999340351
 50
314.99999995192752
 51
44.999999988615279
  0
LINE
  5
1C80
  8
0
  6
CONTINUOUS
 62
     7
 10
74.362043404910025
 20
50.686817593790423
 30
0.0
 11
74.758490014526913
 21
50.290370984266787
 31
0.0
  0
LINE
  5
1C81
  8
0
  6
CONTINUOUS
 62
     7
 10
74.362043404910025
 20
51.186817593790408
 30
0.0
 11
74.362043404910025
 21
50.686817593790423
 31
0.0
  0
LINE
  5
1C82
  8
0
  6
CONTINUOUS
 62
     7
 10
74.758490014160003
 20
51.583264203040407
 30
0.0
 11
74.362043404576696
 21
51.186817593457071
 31
0.0
  0
ARC
  5
1C83
  8
0
  6
CONTINUOUS
 62
     7
 10
74.404936623910032
 20
51.936817593790423
 30
0.0
 40
0.4999999998680862
 50
314.99999995948468
 51
45.000000040516113
  0
LINE
  5
1C84
  8
0
  6
CONTINUOUS
 62
     7
 10
74.362043404910025
 20
52.686817593790423
 30
0.0
 11
74.758490014160003
 21
52.290370984540409
 31
0.0
  0
LINE
  5
1C85
  8
0
  6
CONTINUOUS
 62
     7
 10
74.362043404910025
 20
53.186817593790423
 30
0.0
 11
74.362043404910025
 21
52.686817593790423
 31
0.0
  0
LINE
  5
1C86
  8
0
  6
CONTINUOUS
 62
     7
 10
74.75849001449518
 20
53.58326420328229
 30
0.0
 11
74.362043404910025
 21
53.186817593790423
 31
0.0
  0
ARC
  5
1C87
  8
0
  6
CONTINUOUS
 62
     7
 10
74.404936623910032
 20
53.936817593790408
 30
0.0
 40
0.4999999999340452
 50
315.00000000624192
 51
45.000000048074448
  0
LINE
  5
1C88
  8
0
  6
CONTINUOUS
 62
     7
 10
74.362043405035024
 20
54.68681759366541
 30
0.0
 11
74.758490014160003
 21
54.290370984540409
 31
0.0
  0
LINE
  5
1C89
  8
0
  6
CONTINUOUS
 62
     7
 10
74.362043404910025
 20
55.186817595290407
 30
0.0
 11
74.362043404910025
 21
54.686817593727923
 31
0.0
  0
LINE
  5
1C8A
  8
0
  6
CONTINUOUS
 62
     7
 10
75.112043406184526
 20
55.936817593790408
 30
0.0
 11
74.362043404910025
 21
55.186817595290407
 31
0.0
  0
LINE
  5
1C8B
  8
0
  6
CONTINUOUS
 62
     7
 10
81.362043404020767
 20
55.936817593790408
 30
0.0
 11
75.112043406184526
 21
55.936817593790408
 31
0.0
  0
LINE
  5
1C8C
  8
0
  6
CONTINUOUS
 62
     7
 10
88.249430681383359
 20
51.450572338956157
 30
0.0
 11
81.362043404020767
 21
55.936817593790408
 31
0.0
  0
ARC
  5
1C8D
  8
0
  6
CONTINUOUS
 62
     7
 10
81.407836980910034
 20
42.436817593790423
 30
0.0
 40
5.5
 50
270.0000000110212
 51
338.78956990679842
  0
LINE
  5
1C8E
  8
0
  6
CONTINUOUS
 62
     7
 10
81.407836981967904
 20
36.936817593790423
 30
0.0
 11
80.362043405679387
 21
36.936817593790423
 31
0.0
  0
ARC
  5
1C8F
  8
0
  6
CONTINUOUS
 62
     7
 10
80.362043404910025
 20
40.936817593790423
 30
0.0
 40
4.0
 50
180.0000000000004
 51
270.00000001102148
  0
LINE
  5
1C90
  8
0
  6
CONTINUOUS
 62
     7
 10
76.362043404910025
 20
46.936817593790423
 30
0.0
 11
76.362043404910025
 21
35.936817593824742
 31
0.0
  0
LINE
  5
1C91
  8
0
  6
CONTINUOUS
 62
     7
 10
89.053869101976701
 20
46.936817593790423
 30
0.0
 11
86.535255737940915
 21
40.446949033869977
 31
0.0
  0
LINE
  5
1C93
  8
0
  6
CONTINUOUS
 62
     7
 10
112.3620434029004
 20
35.936817593824713
 30
0.0
 11
112.3620434029004
 21
42.936817593824713
 31
0.0
  0
LINE
  5
1C95
  8
0
  6
CONTINUOUS
 62
     7
 10
120.3620434045412
 20
35.936817593824728
 30
0.0
 11
120.3620434045412
 21
42.936817593824742
 31
0.0
  0
LINE
  5
1C97
  8
0
  6
CONTINUOUS
 62
     7
 10
94.362043404541225
 20
42.936817593824713
 30
0.0
 11
94.362043404541225
 21
35.936817593824713
 31
0.0
  0
LINE
  5
1C9A
  8
0
  6
CONTINUOUS
 62
     7
 10
90.362043400541225
 20
35.936817593824721
 30
0.0
 11
90.362043412641214
 21
42.936817593824721
 31
0.0
  0
LINE
  5
1C9B
  8
0
  6
CONTINUOUS
 62
     7
 10
120.3620434045412
 20
42.936817593824621
 30
0.0
 11
90.362043412641214
 21
42.936817593824721
 31
0.0
  0
CIRCLE
  5
1C9C
  8
0
  6
CONTINUOUS
 62
     7
 10
81.362043404541225
 20
40.936817593824721
 30
0.0
 40
2.0
  0
ARC
  5
1C9D
  8
0
  6
CONTINUOUS
 62
     7
 10
83.009145483541232
 20
38.008224972824721
 30
0.0
 40
0.1400000003073343
 50
193.96495090875229
 51
299.3543163698339
  0
LINE
  5
1C9E
  8
0
  6
CONTINUOUS
 62
     7
 10
82.87328338852798
 20
37.974439010878022
 30
0.0
 11
82.538765728942295
 21
39.319621077857619
 31
0.0
  0
LINE
  5
1C9F
  8
0
  6
CONTINUOUS
 62
     7
 10
83.359248291119982
 20
40.831116879418822
 30
0.0
 11
83.698475884344987
 21
40.733684410881089
 31
0.0
  0
ARC
  5
1CA0
  8
0
  6
CONTINUOUS
 62
     7
 10
83.797856614541232
 20
41.079695206824717
 30
0.0
 40
0.3600000006165017
 50
253.97495086153941
 51
3.3569570013547669
  0
ARC
  5
1CA1
  8
0
  6
CONTINUOUS
 62
     7
 10
81.362043405541215
 20
40.93681759482471
 30
0.0
 40
2.8000000001650101
 50
3.3569548198103139
 51
48.585571919608761
  0
ARC
  5
1CA2
  8
0
  6
CONTINUOUS
 62
     7
 10
83.055485288541234
 20
42.856675555824722
 30
0.0
 40
0.2399999999408146
 50
48.585571948060689
 51
143.9649509921436
  0
LINE
  5
1CA3
  8
0
  6
CONTINUOUS
 62
     7
 10
82.861407540743471
 20
42.997862764102727
 30
0.0
 11
82.538603476401846
 21
42.554132157322996
 31
0.0
  0
LINE
  5
1CA4
  8
0
  6
CONTINUOUS
 62
     7
 10
81.223750948066879
 20
42.932030664271657
 30
0.0
 11
81.185808671542759
 21
43.479442482802312
 31
0.0
  0
ARC
  5
1CA5
  8
0
  6
CONTINUOUS
 62
     7
 10
80.946383103541223
 20
43.462847387824723
 30
0.0
 40
0.2399999998431161
 50
3.964951896238325
 51
99.344329921633943
  0
ARC
  5
1CA6
  8
0
  6
CONTINUOUS
 62
     7
 10
81.362043405541215
 20
40.93681759482471
 30
0.0
 40
2.800000000222258
 50
99.344329893498383
 51
144.57294704803149
  0
ARC
  5
1CA7
  8
0
  6
CONTINUOUS
 62
     7
 10
79.373799182541234
 20
42.351202588824719
 30
0.0
 40
0.3599999999056219
 50
144.57294707746041
 51
253.95495092208799
  0
LINE
  5
1CA8
  8
0
  6
CONTINUOUS
 62
     7
 10
79.274297678411429
 20
42.005226505862048
 30
0.0
 11
79.613491240056959
 21
41.907675630860702
 31
0.0
  0
LINE
  5
1CA9
  8
0
  6
CONTINUOUS
 62
     7
 10
79.506229073208345
 20
40.191194922750739
 30
0.0
 11
78.508526060572564
 21
39.228903097854982
 31
0.0
  0
ARC
  5
1CAA
  8
0
  6
CONTINUOUS
 62
     7
 10
78.411335512541228
 20
39.329670141824721
 30
0.0
 40
0.1400000002467104
 50
208.57558538202591
 51
313.96495047074012
  0
ARC
  5
1CAB
  8
0
  6
CONTINUOUS
 62
     7
 10
81.362043404541225
 20
40.936817593824721
 30
0.0
 40
3.5000000000273142
 50
299.35431631791261
 51
208.57558550179201
  0
LINE
  5
1CAD
  8
0
  6
CONTINUOUS
 62
     7
 10
76.362043404541225
 20
35.936817593824742
 30
0.0
 11
120.3620434045412
 21
35.936817593824678
 31
0.0
  0
LINE
  5
1CAE
  8
0
  6
CONTINUOUS
 62
     7
 10
90.362043412641214
 20
42.936817593824721
 30
0.0
 11
87.50153358360437
 21
42.936817593824742
 31
0.0
  0
LINE
  5
1CB0
  8
1
 10
102.86204340491
 20
15.936817593790501
 30
0.0
 11
102.86204340491
 21
63.936817593790472
 31
0.0
  0
LINE
  5
1CB1
  8
0
  6
CONTINUOUS
 62
     7
 10
33.848627172442548
 20
35.93681759382477
 30
0.0
 11
33.848723862180812
 21
20.936817593790451
 31
0.0
  0
LINE
  5
1CB2
  8
0
  6
CONTINUOUS
 62
     7
 10
41.848627172442541
 20
20.936817593790462
 30
0.0
 11
41.848627172442541
 21
35.93681759382477
 31
0.0
  0
LINE
  5
1CB3
  8
0
  6
CONTINUOUS
 62
     7
 10
52.373736835074823
 20
42.936817593790472
 30
0.0
 11
52.373736835074823
 21
46.936817593790479
 31
0.0
  0
LINE
  5
1CB4
  8
0
  6
CONTINUOUS
 62
     7
 10
47.348627173018741
 20
58.648142458843502
 30
0.0
 11
46.848627172442541
 21
58.936817593790479
 31
0.0
  0
LINE
  5
1CB5
  8
0
  6
CONTINUOUS
 62
     7
 10
28.848627172442551
 20
58.936817593790479
 30
0.0
 11
28.348627172442551
 21
58.648142459176171
 31
0.0
  0
LINE
  5
1CB6
  8
0
  6
CONTINUOUS
 62
     7
 10
24.74862717244255
 20
37.436817593824763
 30
0.0
 11
25.348627172442551
 21
37.436817593824763
 31
0.0
  0
LINE
  5
1CB7
  8
0
  6
CONTINUOUS
 62
     7
 10
50.948627172442542
 20
44.436817593532957
 30
0.0
 11
50.348627172442548
 21
44.436817593532972
 31
0.0
  0
LINE
  5
1CB9
  8
0
  6
CONTINUOUS
 62
     7
 10
25.348627172442551
 20
43.436495862824763
 30
0.0
 11
24.74862717244255
 21
43.436495862824763
 31
0.0
  0
LINE
  5
1CBA
  8
0
  6
CONTINUOUS
 62
     7
 10
39.348627172442541
 20
42.93681759382477
 30
0.0
 11
36.348627172442548
 21
42.93681759382477
 31
0.0
  0
LINE
  5
1CBB
  8
0
  6
CONTINUOUS
 62
     7
 10
36.348627172442548
 20
38.936817593824763
 30
0.0
 11
39.348627172442541
 21
38.936817593824763
 31
0.0
  0
LINE
  5
1CBC
  8
0
  6
CONTINUOUS
 62
     7
 10
53.848627172442541
 20
42.936817593824777
 30
0.0
 11
50.948627172442542
 21
42.936817593824763
 31
0.0
  0
LINE
  5
1CBD
  8
0
  6
CONTINUOUS
 62
     7
 10
50.948627172442542
 20
38.936817593824763
 30
0.0
 11
52.348627172442541
 21
38.936817593824763
 31
0.0
  0
LINE
  5
1CBE
  8
0
  6
CONTINUOUS
 62
     7
 10
24.74862717244255
 20
42.93681759382477
 30
0.0
 11
21.848627172442551
 21
42.93681759382477
 31
0.0
  0
LINE
  5
1CBF
  8
0
  6
CONTINUOUS
 62
     7
 10
23.348627172442541
 20
38.936817593824763
 30
0.0
 11
24.74862717244255
 21
38.936817593824763
 31
0.0
  0
LINE
  5
1CC4
  8
0
  6
CONTINUOUS
 62
     7
 10
50.348627172442548
 20
37.868224972243439
 30
0.0
 11
50.948627172442542
 21
37.868224972243439
 31
0.0
  0
LINE
  5
1CC5
  8
0
  6
CONTINUOUS
 62
     7
 10
41.848627172442541
 20
20.936817593790462
 30
0.0
 11
33.848723862180812
 21
20.936817593790451
 31
0.0
  0
LINE
  5
1CC6
  8
0
  6
CONTINUOUS
 62
     7
 10
37.84862717088491
 20
57.799636682868403
 30
0.0
 11
37.848627172442548
 21
55.936817593790451
 31
0.0
  0
LINE
  5
1CCC
  8
0
  6
CONTINUOUS
 62
     7
 10
28.348627172442551
 20
55.936817593790451
 30
0.0
 11
28.348627172442551
 21
58.634896892064738
 31
0.0
  0
LINE
  5
1CCD
  8
0
  6
CONTINUOUS
 62
     7
 10
46.848627172442541
 20
58.936817593790479
 30
0.0
 11
28.848627172442551
 21
58.936817593790479
 31
0.0
  0
LINE
  5
1CCF
  8
0
  6
CONTINUOUS
 62
     7
 10
32.848627172442548
 20
50.686817593393691
 30
0.0
 11
21.848627172442541
 21
50.686817593790472
 31
0.0
  0
LINE
  5
1CD0
  8
0
  6
CONTINUOUS
 62
     7
 10
32.848627172442548
 20
50.686817593393691
 30
0.0
 11
33.245073781522223
 21
50.290370984248881
 31
0.0
  0
LINE
  5
1CD2
  8
0
  6
CONTINUOUS
 62
     7
 10
32.848627172442548
 20
51.186817594187247
 30
0.0
 11
21.848627172442541
 21
51.186817593790472
 31
0.0
  0
LINE
  5
1CD3
  8
0
  6
CONTINUOUS
 62
     7
 10
32.848627172442548
 20
51.186817594187247
 30
0.0
 11
32.848627172442548
 21
50.686817593393691
 31
0.0
  0
LINE
  5
1CD5
  8
0
  6
CONTINUOUS
 62
     7
 10
42.848627172442541
 20
51.186817594187247
 30
0.0
 11
53.848627172442541
 21
51.186817593790472
 31
0.0
  0
LINE
  5
1CD7
  8
0
  6
CONTINUOUS
 62
     7
 10
42.848627172442541
 20
50.686817593393677
 30
0.0
 11
53.848627172442541
 21
50.686817593790472
 31
0.0
  0
LINE
  5
1CD8
  8
0
  6
CONTINUOUS
 62
     7
 10
42.848627172442541
 20
50.686817593393677
 30
0.0
 11
42.848627172442541
 21
51.186817594187247
 31
0.0
  0
LINE
  5
1CDB
  8
0
  6
CONTINUOUS
 62
     7
 10
42.848627172442541
 20
51.186817594187247
 30
0.0
 11
42.452180563362873
 21
51.583264203332071
 31
0.0
  0
LINE
  5
1CDC
  8
0
  6
CONTINUOUS
 62
     7
 10
53.848627172442541
 20
54.686817593790458
 30
0.0
 11
42.848627172442541
 21
54.686817593393677
 31
0.0
  0
LINE
  5
1CDE
  8
0
  6
CONTINUOUS
 62
     7
 10
42.452180563362873
 20
54.290370984248867
 30
0.0
 11
42.848627172442541
 21
54.686817593393677
 31
0.0
  0
LINE
  5
1CE0
  8
0
  6
CONTINUOUS
 62
     7
 10
53.848627172442541
 20
55.186817595290471
 30
0.0
 11
42.848627172442541
 21
55.186817593790458
 31
0.0
  0
LINE
  5
1CE1
  8
0
  6
CONTINUOUS
 62
     7
 10
42.848627172442541
 20
54.686817593393677
 30
0.0
 11
42.848627172442541
 21
55.186817593790458
 31
0.0
  0
LINE
  5
1CE4
  8
0
  6
CONTINUOUS
 62
     7
 10
42.452180563042617
 20
50.290370983951931
 30
0.0
 11
42.848627172442541
 21
50.686817593393677
 31
0.0
  0
LINE
  5
1CE7
  8
0
  6
CONTINUOUS
 62
     7
 10
33.245073781810731
 20
51.583264203597238
 30
0.0
 11
32.848627172442548
 21
51.186817594187247
 31
0.0
  0
LINE
  5
1CE9
  8
0
  6
CONTINUOUS
 62
     7
 10
42.848627172442541
 20
48.686817594942099
 30
0.0
 11
53.848627172442541
 21
48.686817593790472
 31
0.0
  0
LINE
  5
1CEA
  8
0
  6
CONTINUOUS
 62
     7
 10
42.098627173294418
 20
47.936817593790472
 30
0.0
 11
53.848627172442541
 21
47.936817593790472
 31
0.0
  0
LINE
  5
1CEB
  8
0
  6
CONTINUOUS
 62
     7
 10
42.098627173294418
 20
47.936817593790472
 30
0.0
 11
42.848627172442541
 21
48.686817594942099
 31
0.0
  0
LINE
  5
1CED
  8
0
  6
CONTINUOUS
 62
     7
 10
42.848627172442541
 20
49.186817594187239
 30
0.0
 11
53.848627172442541
 21
49.186817593790472
 31
0.0
  0
LINE
  5
1CEE
  8
0
  6
CONTINUOUS
 62
     7
 10
42.848627172442541
 20
48.686817594942099
 30
0.0
 11
42.848627172442541
 21
49.186817594187239
 31
0.0
  0
LINE
  5
1CF0
  8
0
  6
CONTINUOUS
 62
     7
 10
21.848627172442541
 20
49.186817593790472
 30
0.0
 11
32.848627172442548
 21
49.186817594187239
 31
0.0
  0
LINE
  5
1CF2
  8
0
  6
CONTINUOUS
 62
     7
 10
33.245073781522223
 20
49.583264203332057
 30
0.0
 11
32.848627172442548
 21
49.186817594187239
 31
0.0
  0
LINE
  5
1CF5
  8
0
  6
CONTINUOUS
 62
     7
 10
53.848627172442541
 20
53.186817593790472
 30
0.0
 11
42.848627172442541
 21
53.186817594187232
 31
0.0
  0
LINE
  5
1CF6
  8
0
  6
CONTINUOUS
 62
     7
 10
42.848627172442541
 20
53.186817594187232
 30
0.0
 11
42.452180563074357
 21
53.583264203597238
 31
0.0
  0
LINE
  5
1CF8
  8
0
  6
CONTINUOUS
 62
     7
 10
53.848627172442541
 20
52.686817593790472
 30
0.0
 11
42.848627172442541
 21
52.686817593393691
 31
0.0
  0
LINE
  5
1CFA
  8
0
  6
CONTINUOUS
 62
     7
 10
42.452180563362873
 20
52.290370984248867
 30
0.0
 11
42.848627172442541
 21
52.686817593393691
 31
0.0
  0
LINE
  5
1CFD
  8
0
  6
CONTINUOUS
 62
     7
 10
42.848627172442541
 20
49.186817594187239
 30
0.0
 11
42.452180563362873
 21
49.583264203332057
 31
0.0
  0
LINE
  5
1CFF
  8
0
  6
CONTINUOUS
 62
     7
 10
21.848627172442541
 20
48.686817591790472
 30
0.0
 11
32.848627172442548
 21
48.686817594942092
 31
0.0
  0
LINE
  5
1D00
  8
0
  6
CONTINUOUS
 62
     7
 10
32.848627172442548
 20
49.186817594187239
 30
0.0
 11
32.848627172442548
 21
48.686817594942092
 31
0.0
  0
LINE
  5
1D02
  8
0
  6
CONTINUOUS
 62
     7
 10
32.848627172442548
 20
52.686817593393691
 30
0.0
 11
21.848627172442541
 21
52.686817593790472
 31
0.0
  0
LINE
  5
1D03
  8
0
  6
CONTINUOUS
 62
     7
 10
32.848627172442548
 20
53.186817593790458
 30
0.0
 11
21.848627172442541
 21
53.186817593790472
 31
0.0
  0
LINE
  5
1D04
  8
0
  6
CONTINUOUS
 62
     7
 10
32.848627172442548
 20
52.686817593393691
 30
0.0
 11
32.848627172442548
 21
53.186817593790458
 31
0.0
  0
LINE
  5
1D06
  8
0
  6
CONTINUOUS
 62
     7
 10
42.848627172442541
 20
52.686817593393691
 30
0.0
 11
42.848627172442541
 21
53.186817594187232
 31
0.0
  0
LINE
  5
1D09
  8
0
  6
CONTINUOUS
 62
     7
 10
32.848627172442548
 20
52.686817593393691
 30
0.0
 11
33.245073781522223
 21
52.29037098424886
 31
0.0
  0
LINE
  5
1D0C
  8
0
  6
CONTINUOUS
 62
     7
 10
42.098627172442541
 20
55.936817593790451
 30
0.0
 11
42.848627172442541
 21
55.186817593790458
 31
0.0
  0
LINE
  5
1D0E
  8
0
  6
CONTINUOUS
 62
     7
 10
34.848627172442548
 20
55.936817593790458
 30
0.0
 11
34.848627170557542
 21
47.936817595040459
 31
0.0
  0
LINE
  5
1D0F
  8
0
  6
CONTINUOUS
 62
     7
 10
34.848627170557542
 20
47.936817595040459
 30
0.0
 11
33.598627171590657
 21
47.936817593790472
 31
0.0
  0
LINE
  5
1D10
  8
0
  6
CONTINUOUS
 62
     7
 10
32.848627172442548
 20
48.686817594942092
 30
0.0
 11
33.598627171590657
 21
47.936817593790472
 31
0.0
  0
ARC
  5
1D11
  8
0
  6
CONTINUOUS
 62
     7
 10
32.89152039144215
 20
49.93681759379065
 30
0.0
 40
0.5000000000004111
 50
314.9999999768267
 51
45.000000023174181
  0
ARC
  5
1D12
  8
0
  6
CONTINUOUS
 62
     7
 10
32.891520391442839
 20
51.936817593790451
 30
0.0
 40
0.4999999999997981
 50
315.00000002259583
 51
45.000000023215648
  0
LINE
  5
1D13
  8
0
  6
CONTINUOUS
 62
     7
 10
32.848627172442548
 20
53.186817593790458
 30
0.0
 11
33.24507378230475
 21
53.583264203036059
 31
0.0
  0
ARC
  5
1D14
  8
0
  6
CONTINUOUS
 62
     7
 10
32.891520391442242
 20
53.936817593790387
 30
0.0
 40
0.5000000000002655
 50
314.99999998944293
 51
44.999999987347493
  0
LINE
  5
1D15
  8
0
  6
CONTINUOUS
 62
     7
 10
33.245073782447967
 20
54.290370984401619
 30
0.0
 11
32.848627172442548
 21
54.686817593790458
 31
0.0
  0
LINE
  5
1D16
  8
0
  6
CONTINUOUS
 62
     7
 10
32.848627172442548
 20
54.686817593790458
 30
0.0
 11
32.848627172442548
 21
55.186817593790458
 31
0.0
  0
LINE
  5
1D17
  8
0
  6
CONTINUOUS
 62
     7
 10
32.848627172442548
 20
55.186817593790458
 30
0.0
 11
33.598627172442541
 21
55.936817593790472
 31
0.0
  0
LINE
  5
1D1B
  8
0
  6
CONTINUOUS
 62
     7
 10
21.848627172442541
 20
54.686817593790458
 30
0.0
 11
32.848627172442548
 21
54.686817593790458
 31
0.0
  0
LINE
  5
1D1C
  8
0
  6
CONTINUOUS
 62
     7
 10
21.848627172442541
 20
55.186817593790458
 30
0.0
 11
32.848627172442548
 21
55.186817593790458
 31
0.0
  0
LINE
  5
1D1E
  8
0
  6
CONTINUOUS
 62
     7
 10
21.848627172442541
 20
47.936817593540461
 30
0.0
 11
33.598627171590657
 21
47.936817593790472
 31
0.0
  0
LINE
  5
1D20
  8
0
  6
CONTINUOUS
 62
     7
 10
21.848627172442541
 20
55.936817593790451
 30
0.0
 11
53.848627172442541
 21
55.936817593790479
 31
0.0
  0
LINE
  5
1D24
  8
0
  6
CONTINUOUS
 62
     7
 10
42.098627173294418
 20
47.936817593790472
 30
0.0
 11
40.848627172442548
 21
47.936817593790472
 31
0.0
  0
LINE
  5
1D25
  8
0
  6
CONTINUOUS
 62
     7
 10
40.848627172442548
 20
55.936817593790458
 30
0.0
 11
40.848627172442548
 21
47.936817598790469
 31
0.0
  0
ARC
  5
1D27
  8
0
  6
CONTINUOUS
 62
     7
 10
42.805733953443777
 20
53.936817593790387
 30
0.0
 40
0.5000000000009236
 50
134.99999997690409
 51
224.99999997728719
  0
ARC
  5
1D28
  8
0
  6
CONTINUOUS
 62
     7
 10
42.805733953443863
 20
51.936817593790508
 30
0.0
 40
0.5000000000009587
 50
134.9999999769116
 51
225.0000000230892
  0
ARC
  5
1D29
  8
0
  6
CONTINUOUS
 62
     7
 10
42.805733953441802
 20
49.9368175937907
 30
0.0
 40
0.4999999999996423
 50
135.0000000276863
 51
225.00000002327121
  0
LINE
  5
1D30
  8
0
  6
CONTINUOUS
 62
     7
 10
53.848627172442541
 20
46.936817593790458
 30
0.0
 11
50.348627172442548
 21
46.936817593790458
 31
0.0
  0
LINE
  5
1D31
  8
0
  6
CONTINUOUS
 62
     7
 10
50.348627172442548
 20
46.936817593790458
 30
0.0
 11
50.348627172442548
 21
36.936817593790458
 31
0.0
  0
LINE
  5
1D32
  8
0
  6
CONTINUOUS
 62
     7
 10
50.348627172442548
 20
40.936817593790458
 30
0.0
 11
45.348627172442541
 21
40.936817593790458
 31
0.0
  0
LINE
  5
1D33
  8
0
  6
CONTINUOUS
 62
     7
 10
45.348627172442541
 20
35.93681759382477
 30
0.0
 11
45.348627172442541
 21
44.736817588790458
 31
0.0
  0
LINE
  5
1D34
  8
0
  6
CONTINUOUS
 62
     7
 10
45.348627172442541
 20
44.736817588790458
 30
0.0
 11
30.348627172442551
 21
44.736817588790458
 31
0.0
  0
LINE
  5
1D35
  8
0
  6
CONTINUOUS
 62
     7
 10
30.348627172442551
 20
44.736817588790458
 30
0.0
 11
30.348627172442541
 21
35.93681759382477
 31
0.0
  0
LINE
  5
1D36
  8
0
  6
CONTINUOUS
 62
     7
 10
30.348627172442551
 20
40.936817593790458
 30
0.0
 11
25.348627172442551
 21
40.936817593790458
 31
0.0
  0
LINE
  5
1D37
  8
0
  6
CONTINUOUS
 62
     7
 10
25.348627172442551
 20
40.936817593790458
 30
0.0
 11
25.348627172442551
 21
46.936817593790458
 31
0.0
  0
LINE
  5
1D38
  8
0
  6
CONTINUOUS
 62
     7
 10
25.348627172442551
 20
46.936817593790458
 30
0.0
 11
21.848627172442541
 21
46.936817593790458
 31
0.0
  0
LINE
  5
1D3A
  8
0
  6
CONTINUOUS
 62
     7
 10
53.848627172442548
 20
55.936817593790479
 30
0.0
 11
53.848627172442541
 21
46.936817593790458
 31
0.0
  0
LINE
  5
1D3B
  8
0
  6
CONTINUOUS
 62
     7
 10
21.848627172442541
 20
46.936817593790458
 30
0.0
 11
21.848627172442541
 21
55.936817593790458
 31
0.0
  0
LINE
  5
1D3C
  8
0
  6
CONTINUOUS
 62
     7
 10
30.348627172442551
 20
36.936817593790458
 30
0.0
 11
25.348627172442551
 21
36.936817593790458
 31
0.0
  0
LINE
  5
1D3D
  8
0
  6
CONTINUOUS
 62
     7
 10
25.348627172442551
 20
40.936817593790458
 30
0.0
 11
25.348627172442551
 21
36.936817593790458
 31
0.0
  0
LINE
  5
1D3E
  8
0
  6
CONTINUOUS
 62
     7
 10
50.348627172442548
 20
36.936817593790458
 30
0.0
 11
45.348627172442541
 21
36.936817593790458
 31
0.0
  0
LINE
  5
1D40
  8
0
  6
CONTINUOUS
 62
     7
 10
36.348627172442548
 20
44.636817591943988
 30
0.0
 11
39.348627172442541
 21
44.636817591943988
 31
0.0
  0
LINE
  5
1D42
  8
0
  6
CONTINUOUS
 62
     7
 10
39.348627172442541
 20
35.93681759382477
 30
0.0
 11
39.348627172442541
 21
40.93681759382477
 31
0.0
  0
LINE
  5
1D47
  8
0
  6
CONTINUOUS
 62
     7
 10
36.348627172442548
 20
40.93681759382477
 30
0.0
 11
36.348627172442548
 21
35.93681759382477
 31
0.0
  0
LINE
  5
1D49
  8
0
  6
CONTINUOUS
 62
     7
 10
36.348627172442548
 20
44.736817588790458
 30
0.0
 11
36.348627172442548
 21
40.93681759382477
 31
0.0
  0
LINE
  5
1D4A
  8
0
  6
CONTINUOUS
 62
     7
 10
39.348627172442541
 20
44.736817588790458
 30
0.0
 11
39.348627172442541
 21
40.93681759382477
 31
0.0
  0
LINE
  5
1D4C
  8
0
  6
CONTINUOUS
 62
     7
 10
24.74862717244255
 20
37.436817593824763
 30
0.0
 11
24.74862717244255
 21
43.436495862824763
 31
0.0
  0
LINE
  5
1D4E
  8
0
  6
CONTINUOUS
 62
     7
 10
50.948627172442542
 20
44.436817593532957
 30
0.0
 11
50.948627172442542
 21
37.868224972243439
 31
0.0
  0
LINE
  5
1D52
  8
0
  6
CONTINUOUS
 62
     7
 10
52.348627172442541
 20
42.93681759382477
 30
0.0
 11
52.348627172442541
 21
38.936817593824763
 31
0.0
  0
LINE
  5
1D54
  8
0
  6
CONTINUOUS
 62
     7
 10
23.348627172442541
 20
38.936817593824763
 30
0.0
 11
23.348627172442541
 21
42.93681759382477
 31
0.0
  0
LINE
  5
1D5B
  8
0
  6
CONTINUOUS
 62
     7
 10
53.848627172442541
 20
42.93681759382477
 30
0.0
 11
53.848627172442541
 21
35.93681759382477
 31
0.0
  0
LINE
  5
1D5F
  8
0
  6
CONTINUOUS
 62
     7
 10
21.848627172442541
 20
35.93681759382477
 30
0.0
 11
21.848627172442541
 21
42.93681759382477
 31
0.0
  0
LINE
  5
1D62
  8
0
  6
CONTINUOUS
 62
     7
 10
21.848627172442541
 20
35.93681759382477
 30
0.0
 11
53.848627172442541
 21
35.93681759382477
 31
0.0
  0
LINE
  5
1D63
  8
0
  6
CONTINUOUS
 62
     7
 10
49.848627171622148
 20
35.93681759382477
 30
0.0
 11
49.84862717080172
 21
36.936817593790458
 31
0.0
  0
LINE
  5
1D64
  8
0
  6
CONTINUOUS
 62
     7
 10
25.848627172442541
 20
35.93681759382477
 30
0.0
 11
25.848627172442541
 21
36.936817593790458
 31
0.0
  0
LINE
  5
1D65
  8
1
 10
37.848627177467158
 20
15.936817593790559
 30
0.0
 11
37.84862717746698
 21
63.936817593790451
 31
0.0
  0
LINE
  5
1D6C
  8
1
 10
22.52047224430482
 20
40.936817593790458
 30
0.0
 11
53.11259553387174
 21
40.936817593790458
 31
0.0
  0
LINE
  5
1D6F
  8
0
  6
CONTINUOUS
 62
     7
 10
47.348627182491477
 20
55.936817593790529
 30
0.0
 11
47.348627182491462
 21
58.634896892064809
 31
0.0
  0
ARC
  5
1D70
  8
0
  6
CONTINUOUS
 62
     7
 10
42.598627152516507
 20
44.920942484005842
 30
0.0
 40
13.72673537445254
 50
69.754703549911881
 51
110.2452962335703
  0
LINE
  5
1D75
  8
1
 10
102.8620434045412
 20
119.7977358816254
 30
0.0
 11
102.8620434045412
 21
77.797735881625442
 31
0.0
  0
LINE
  5
1D76
  8
1
 10
69.362043404910025
 20
98.797735881625414
 30
0.0
 11
125.3620434045412
 21
98.797735881625414
 31
0.0
  0
LINE
  5
1D78
  8
1
 10
81.362043404541225
 20
46.936817593852041
 30
0.0
 11
81.362043404541225
 21
34.936817593797421
 31
0.0
  0
LINE
  5
1D79
  8
1
 10
75.362043404513912
 20
40.936817593824721
 30
0.0
 11
87.362043404568539
 21
40.936817593824721
 31
0.0
  0
ARC
  5
1D8B
  8
0
  6
CONTINUOUS
 62
     7
 10
33.098627155469472
 20
44.920942499916592
 30
0.0
 40
13.72673537445254
 50
69.754703574509946
 51
110.24529625816839
  0
LINE
  5
1D8D
  8
3
 10
41.172127177467132
 20
20.936817593790462
 30
0.0
 11
41.172127177467132
 21
35.93681759382477
 31
0.0
  0
LINE
  5
1D8E
  8
3
 10
34.525127177467141
 20
20.936817593790462
 30
0.0
 11
34.525127177467141
 21
35.93681759382477
 31
0.0
  0
LINE
  5
1D8F
  8
3
 10
99.538543404910001
 20
20.936817593790462
 30
0.0
 11
99.538543404910001
 21
35.93681759382477
 31
0.0
  0
LINE
  5
1D90
  8
3
 10
106.18554340491001
 20
20.936817593790462
 30
0.0
 11
106.18554340491001
 21
35.93681759382477
 31
0.0
  0
LINE
  5
1D91
  8
3
 10
150.63582341526509
 20
20.936817593790462
 30
0.0
 11
150.63582341526509
 21
35.93681759382477
 31
0.0
  0
LINE
  5
1D92
  8
3
 10
157.28282341526511
 20
20.936817593790462
 30
0.0
 11
157.28282341526511
 21
35.93681759382477
 31
0.0
  0
TEXT
  5
1E47
  8
0
 62
     3
 10
0.0
 20
0.0
 30
0.0
 40
10.0
  1
BJ162-08001
  7
STANDARD1
  0
ENDSEC
  0
EOF
