  0
SECTION
  2
HEADER
  9
$ACADVER
  1
AC1009
  9
$INSBASE
 10
0.0
 20
0.0
 30
0.0
  9
$EXTMIN
 10
0.0
 20
-2.960436562073669
 30
0.0
  9
$EXTMAX
 10
272.49999999999989
 20
217.36423338625119
 30
0.0
  9
$LIMMIN
 10
0.0
 20
0.0
  9
$LIMMAX
 10
375.0
 20
270.0
  9
$ORTHOMODE
 70
     1
  9
$REGENMODE
 70
     1
  9
$FILLMODE
 70
     1
  9
$QTEXTMODE
 70
     0
  9
$MIRRTEXT
 70
     0
  9
$DRAGMODE
 70
     2
  9
$LTSCALE
 40
10.0
  9
$OSMODE
 70
  3071
  9
$ATTMODE
 70
     1
  9
$TEXTSIZE
 40
0.2
  9
$TRACEWID
 40
0.05
  9
$TEXTSTYLE
  7
STANDARD
  9
$CLAYER
  8
0
  9
$CELTYPE
  6
BYLAYER
  9
$CECOLOR
 62
   256
  9
$DIMSCALE
 40
1.0
  9
$DIMASZ
 40
3.0
  9
$DIMEXO
 40
2.0
  9
$DIMDLI
 40
0.38
  9
$DIMRND
 40
0.0
  9
$DIMDLE
 40
0.0
  9
$DIMEXE
 40
2.0
  9
$DIMTP
 40
0.0
  9
$DIMTM
 40
0.0
  9
$DIMTXT
 40
3.2000000000000002
  9
$DIMCEN
 40
0.0
  9
$DIMTSZ
 40
0.0
  9
$DIMTOL
 70
     0
  9
$DIMLIM
 70
     0
  9
$DIMTIH
 70
     0
  9
$DIMTOH
 70
     0
  9
$DIMSE1
 70
     0
  9
$DIMSE2
 70
     0
  9
$DIMTAD
 70
     1
  9
$DIMZIN
 70
     0
  9
$DIMBLK
  1

  9
$DIMASO
 70
     0
  9
$DIMSHO
 70
     0
  9
$DIMPOST
  1

  9
$DIMAPOST
  1

  9
$DIMALT
 70
     0
  9
$DIMALTD
 70
     2
  9
$DIMALTF
 40
25.399999999999999
  9
$DIMLFAC
 40
1.0
  9
$DIMTOFL
 70
     1
  9
$DIMTVP
 40
1.6000000000000001
  9
$DIMTIX
 70
     1
  9
$DIMSOXD
 70
     0
  9
$DIMSAH
 70
     0
  9
$DIMBLK1
  1

  9
$DIMBLK2
  1

  9
$DIMSTYLE
  2
STANDARD
  9
$DIMCLRD
 70
     0
  9
$DIMCLRE
 70
     0
  9
$DIMCLRT
 70
     0
  9
$DIMTFAC
 40
1.0
  9
$DIMGAP
 40
0.09
  9
$LUNITS
 70
     2
  9
$LUPREC
 70
     4
  9
$SKETCHINC
 40
0.1
  9
$FILLETRAD
 40
0.0
  9
$AUNITS
 70
     0
  9
$AUPREC
 70
     4
  9
$MENU
  1
E:\r13\win\SUPPORT\ACAD
  9
$ELEVATION
 40
0.0
  9
$PELEVATION
 40
0.0
  9
$THICKNESS
 40
0.0
  9
$LIMCHECK
 70
     0
  9
$BLIPMODE
 70
     0
  9
$CHAMFERA
 40
0.0
  9
$CHAMFERB
 40
0.0
  9
$SKPOLY
 70
     0
  9
$TDCREATE
 40
2449839.6332638888
  9
$TDUPDATE
 40
2456597.620130151
  9
$TDINDWG
 40
0.0437794444
  9
$TDUSRTIMER
 40
2456511.3118687272
  9
$USRTIMER
 70
     1
  9
$ANGBASE
 50
0.0
  9
$ANGDIR
 70
     0
  9
$PDMODE
 70
     0
  9
$PDSIZE
 40
0.0
  9
$PLINEWID
 40
0.0
  9
$COORDS
 70
     1
  9
$SPLFRAME
 70
     0
  9
$SPLINETYPE
 70
     6
  9
$SPLINESEGS
 70
     8
  9
$ATTDIA
 70
     0
  9
$ATTREQ
 70
     1
  9
$HANDLING
 70
     1
  9
$HANDSEED
  5
CB4
  9
$SURFTAB1
 70
     6
  9
$SURFTAB2
 70
     6
  9
$SURFTYPE
 70
     6
  9
$SURFU
 70
     6
  9
$SURFV
 70
     6
  9
$UCSNAME
  2

  9
$UCSORG
 10
0.0
 20
0.0
 30
0.0
  9
$UCSXDIR
 10
1.0
 20
0.0
 30
0.0
  9
$UCSYDIR
 10
0.0
 20
1.0
 30
0.0
  9
$PUCSNAME
  2

  9
$PUCSORG
 10
0.0
 20
0.0
 30
0.0
  9
$PUCSXDIR
 10
1.0
 20
0.0
 30
0.0
  9
$PUCSYDIR
 10
0.0
 20
1.0
 30
0.0
  9
$USERI1
 70
     0
  9
$USERI2
 70
     1
  9
$USERI3
 70
     0
  9
$USERI4
 70
     0
  9
$USERI5
 70
     0
  9
$USERR1
 40
0.0
  9
$USERR2
 40
0.0
  9
$USERR3
 40
0.0
  9
$USERR4
 40
0.0
  9
$USERR5
 40
0.0
  9
$WORLDVIEW
 70
     1
  9
$SHADEDGE
 70
     3
  9
$SHADEDIF
 70
    70
  9
$TILEMODE
 70
     1
  9
$MAXACTVP
 70
    16
  9
$PLIMCHECK
 70
     0
  9
$PEXTMIN
 10
1.0000000000000000E+020
 20
1.0000000000000000E+020
 30
1.0000000000000000E+020
  9
$PEXTMAX
 10
-1.0000000000000000E+020
 20
-1.0000000000000000E+020
 30
-1.0000000000000000E+020
  9
$PLIMMIN
 10
0.0
 20
0.0
  9
$PLIMMAX
 10
12.0
 20
9.0
  9
$UNITMODE
 70
     0
  9
$VISRETAIN
 70
     0
  9
$PLINEGEN
 70
     0
  9
$PSLTSCALE
 70
     0
  0
ENDSEC
  0
SECTION
  2
TABLES
  0
TABLE
  2
VPORT
 70
     1
  0
VPORT
  2
*ACTIVE
 70
     0
 10
0.0
 20
0.0
 11
1.0
 21
1.0
 12
195.0581083320873
 22
133.5127261426681
 13
0.0
 23
0.0
 14
10.0
 24
10.0
 15
10.0
 25
10.0
 16
0.0
 26
0.0
 36
1.0
 17
0.0
 27
0.0
 37
0.0
 40
275.42274993631997
 41
1.831871345029239
 42
50.0
 43
0.0
 44
0.0
 50
0.0
 51
0.0
 71
    16
 72
   500
 73
     1
 74
     0
 75
     0
 76
     0
 77
     0
 78
     2
  0
ENDTAB
  0
TABLE
  2
LTYPE
 70
     3
  0
LTYPE
  2
CONTINUOUS
 70
     0
  3
Solid Line
 72
    65
 73
     0
 40
0.0
  0
LTYPE
  2
PHANTOM2
 70
     0
  3
___ _ _ ___ _ _ ___ _ _ ___ _ _
 72
    65
 73
     6
 40
1.25
 49
0.625
 49
-0.125
 49
0.125
 49
-0.125
 49
0.125
 49
-0.125
  0
LTYPE
  2
CENTER
 70
     0
  3
____ _ ____ _ ____ _ ____ _ ____ _ ____ _ ____
 72
    65
 73
     4
 40
2.0
 49
1.25
 49
-0.25
 49
0.25
 49
-0.25
  0
ENDTAB
  0
TABLE
  2
LAYER
 70
     3
  0
LAYER
  2
0
 70
     0
 62
     7
  6
CONTINUOUS
  0
LAYER
  2
1
 70
     0
 62
     1
  6
CENTER
  0
LAYER
  2
3
 70
     0
 62
     3
  6
CONTINUOUS
  0
ENDTAB
  0
TABLE
  2
STYLE
 70
     3
  0
STYLE
  2
STANDARD
 70
     0
 40
0.0
 41
1.0
 50
0.0
 71
     0
 42
0.2
  3
TXT
  4
BIGFONT
  0
STYLE
  2
ANNOTATIVE
 70
     0
 40
0.0
 41
1.0
 50
0.0
 71
     0
 42
0.2
  3
txt
  4

  0
STYLE
  2
STANDARD1
 70
     0
 40
0.0
 41
1.0
 50
0.0
 71
     0
 42
3.0
  3
txt
  4

  0
ENDTAB
  0
TABLE
  2
VIEW
 70
     1
  0
VIEW
  2
ALL
 70
     0
 40
270.0
 10
220.99159663865549
 20
135.0
 41
0.0
 11
0.0
 21
0.0
 31
1.0
 12
0.0
 22
0.0
 32
0.0
 42
0.0
 43
0.0
 44
0.0
 50
0.0
 71
     0
  0
ENDTAB
  0
TABLE
  2
UCS
 70
     0
  0
ENDTAB
  0
TABLE
  2
APPID
 70
     6
  0
APPID
  2
ACAD
 70
     0
  0
APPID
  2
ACADANNOTATIVE
 70
     0
  0
APPID
  2
ACAD_MLEADERVER
 70
     0
  0
APPID
  2
ACAD_NAV_VCDISPLAY
 70
     0
  0
APPID
  2
ACAD_PSEXT
 70
     0
  0
APPID
  2
ACAD_EXEMPT_FROM_CAD_STANDARDS
 70
     0
  0
ENDTAB
  0
TABLE
  2
DIMSTYLE
 70
     2
  0
DIMSTYLE
  2
STANDARD
 70
     0
  3

  4

  5

  6

  7

 40
1.0
 41
0.18
 42
0.0625
 43
0.38
 44
0.18
 45
0.0
 46
0.0
 47
0.0
 48
0.0
140
0.18
141
0.09
142
0.0
143
25.399999999999999
144
1.0
145
0.0
146
1.0
147
0.09
 71
     0
 72
     0
 73
     1
 74
     1
 75
     0
 76
     0
 77
     0
 78
     0
170
     0
171
     2
172
     0
173
     0
174
     0
175
     0
176
     0
177
     0
178
     0
  0
DIMSTYLE
  2
ANNOTATIVE
 70
     0
  3

  4

  5

  6

  7

 40
1.0
 41
0.18
 42
0.0625
 43
0.38
 44
0.18
 45
0.0
 46
0.0
 47
0.0
 48
0.0
140
0.18
141
0.09
142
0.0
143
25.399999999999999
144
1.0
145
0.0
146
1.0
147
0.09
 71
     0
 72
     0
 73
     1
 74
     1
 75
     0
 76
     0
 77
     0
 78
     0
170
     0
171
     2
172
     0
173
     0
174
     0
175
     0
176
     0
177
     0
178
     0
  0
ENDTAB
  0
ENDSEC
  0
SECTION
  2
BLOCKS
  0
BLOCK
  8
0
  2
$MODEL_SPACE
 70
     0
 10
0.0
 20
0.0
 30
0.0
  3
$MODEL_SPACE
  1

  0
ENDBLK
  5
BEB
  8
0
  0
BLOCK
 67
     1
  8
0
  2
$PAPER_SPACE
 70
     0
 10
0.0
 20
0.0
 30
0.0
  3
$PAPER_SPACE
  1

  0
ENDBLK
  5
BE7
 67
     1
  8
0
  0
ENDSEC
  0
SECTION
  2
ENTITIES
  0
LINE
  5
80
  8
0
 10
268.39812797715342
 20
121.00000381469221
 30
0.0
 11
271.99999999999989
 21
121.00000381469221
 31
0.0
  0
LINE
  5
81
  8
0
 10
265.9999999999996
 20
128.79593041160931
 30
0.0
 11
272.35355339059288
 21
134.853557205291
 31
0.0
  0
LINE
  5
82
  8
0
 10
268.39812797715479
 20
121.00000381469761
 30
0.0
 11
268.1407617591982
 21
120.00000381469761
 31
0.0
  0
LINE
  5
83
  8
0
 10
253.99999999999989
 20
128.79593041160931
 30
0.0
 11
247.64644660940661
 21
134.85355720529091
 31
0.0
  0
LINE
  5
84
  8
0
 10
251.6018720228445
 20
121.00000381469749
 30
0.0
 11
251.85923824080109
 21
120.00000381469749
 31
0.0
  0
LINE
  5
85
  8
0
 10
265.99999999999989
 20
120.00000381469761
 30
0.0
 11
265.9999999999996
 21
128.79593041160931
 31
0.0
  0
LINE
  5
86
  8
0
 10
254.0
 20
120.00000381469749
 30
0.0
 11
253.9999999999996
 21
128.79593041160931
 31
0.0
  0
LINE
  5
87
  8
0
 10
268.1407617591982
 20
120.00000381469761
 30
0.0
 11
251.85923824080109
 21
120.00000381469749
 31
0.0
  0
LINE
  5
88
  8
0
 10
265.99999999999989
 20
128.79593041160931
 30
0.0
 11
262.99999999999989
 21
128.79593041160931
 31
0.0
  0
ARC
  5
89
  8
0
 10
271.99999999999989
 20
121.50000381469761
 30
0.0
 40
0.5
 50
270.0
 51
0.0000000000001507
  0
ARC
  5
8A
  8
0
 10
271.99999999999989
 20
134.50000381469749
 30
0.0
 40
0.5
 50
0.0000000000001507
 51
90.0
  0
LINE
  5
8B
  8
0
 10
272.49999999999989
 20
134.50000381469749
 30
0.0
 11
272.49999999999989
 21
121.50000381469761
 31
0.0
  0
LINE
  5
94
  8
0
 10
247.49999999999989
 20
134.50000381469741
 30
0.0
 11
247.5
 21
121.50000381469739
 31
0.0
  0
LINE
  5
95
  8
0
 10
247.99999999999989
 20
121.00000381469749
 30
0.0
 11
249.0000040460958
 21
121.00000381469749
 31
0.0
  0
LINE
  5
96
  8
0
 10
251.0000000000027
 20
89.999996566772708
 30
0.0
 11
268.9999999999971
 21
90.000003433227874
 31
0.0
  0
LINE
  5
97
  8
0
 10
269.99999999999721
 20
91.000003814697465
 30
0.0
 11
269.99999999999721
 21
118.6708476171321
 31
0.0
  0
LINE
  5
98
  8
0
 10
247.99999999999989
 20
135.00000381469761
 30
0.0
 11
271.99999999999989
 21
135.00000381469769
 31
0.0
  0
LINE
  5
99
  8
0
 10
267.99999999999812
 20
135.00000381469769
 30
0.0
 11
267.99999999999801
 21
143.6535936532147
 31
0.0
  0
LINE
  5
9A
  8
0
 10
266.99999999999801
 20
144.00000381469749
 30
0.0
 11
252.9999999999979
 21
144.00000381469749
 31
0.0
  0
LINE
  5
9B
  8
0
 10
251.99999999999821
 20
143.6535936532147
 30
0.0
 11
252.00000000000171
 21
135.00000381469761
 31
0.0
  0
LINE
  5
9C
  8
0
 10
267.99999999999801
 20
143.6535936532147
 30
0.0
 11
266.99999999999801
 21
144.00000381469749
 31
0.0
  0
LINE
  5
9D
  8
0
 10
252.9999999999979
 20
144.00000381469749
 30
0.0
 11
251.99999999999821
 21
143.6535936532147
 31
0.0
  0
ARC
  5
9F
  8
0
 10
247.99999999999989
 20
134.50000381469741
 30
0.0
 40
0.5
 50
90.0
 51
180.00000000000011
  0
ARC
  5
A0
  8
0
 10
247.99999999999989
 20
121.50000381469739
 30
0.0
 40
0.5
 50
180.00000000000011
 51
270.0
  0
LINE
  5
A1
  8
0
 10
269.99999999999721
 20
91.000003814697465
 30
0.0
 11
268.9999999999971
 21
90.000003433227874
 31
0.0
  0
LINE
  5
A2
  8
0
 10
251.0000000000027
 20
89.999996566772708
 30
0.0
 11
250.0000000000027
 21
90.999996185302862
 31
0.0
  0
LINE
  5
A3
  8
0
 10
269.99999999999721
 20
91.000003814697465
 30
0.0
 11
250.0000000000027
 21
90.999996185302862
 31
0.0
  0
LINE
  5
A6
  8
0
 10
250.00000000000259
 20
118.670847617131
 30
0.0
 11
250.0000000000027
 21
90.999996185302862
 31
0.0
  0
LINE
  5
A7
  8
0
 10
249.0000040460958
 20
121.00000381469221
 30
0.0
 11
251.60187202284609
 21
121.00000381469221
 31
0.0
  0
LINE
  5
A9
  8
1
 10
259.99999999999972
 20
149.00000381469761
 30
0.0
 11
260.0
 21
64.000001621245161
 31
0.0
  0
LINE
  5
AA
  8
0
 10
262.6010320379072
 20
125.00000381469791
 30
0.0
 11
257.3989679620928
 21
125.00000381469761
 31
0.0
  0
LINE
  5
AB
  8
0
 10
253.49705261870039
 20
134.2290660818386
 30
0.0
 11
256.9999999999996
 21
128.79593041160931
 31
0.0
  0
LINE
  5
AC
  8
0
 10
266.50294738129912
 20
134.2290660818386
 30
0.0
 11
262.9999999999996
 21
128.79593041160931
 31
0.0
  0
LINE
  5
AD
  8
0
 10
256.9999999999996
 20
128.79593041160931
 30
0.0
 11
253.9999999999996
 21
128.79593041160931
 31
0.0
  0
LINE
  5
AE
  8
0
 10
256.9999999999996
 20
128.79593041160931
 30
0.0
 11
257.3989679620928
 21
125.00000381469761
 31
0.0
  0
LINE
  5
AF
  8
0
 10
263.00000000000011
 20
128.79593041160931
 30
0.0
 11
262.60103203790698
 21
125.00000381469761
 31
0.0
  0
ARC
  5
B0
  8
0
 10
253.91728201428469
 20
134.50000381469749
 30
0.0
 40
0.5
 50
90.0
 51
212.81140141075841
  0
ARC
  5
B1
  8
0
 10
266.08271798571468
 20
134.50000381469749
 30
0.0
 40
0.5
 50
327.18859858924083
 51
90.0
  0
LINE
  5
B2
  8
1
 10
109.9999999999999
 20
149.00000381469729
 30
0.0
 11
110.0000000000001
 21
64.000001621244877
 31
0.0
  0
LINE
  5
B4
  8
0
 10
97.999999999999943
 20
121.00000381469179
 30
0.0
 11
121.9999999999999
 21
121.00000381469179
 31
0.0
  0
LINE
  5
B5
  8
0
 10
100.0000000000026
 20
118.6708476171306
 30
0.0
 11
100.0000000000027
 21
90.999996185302564
 31
0.0
  0
LINE
  5
B8
  8
0
 10
119.9999999999972
 20
91.000003814697152
 30
0.0
 11
100.0000000000027
 21
90.999996185302564
 31
0.0
  0
LINE
  5
B9
  8
0
 10
101.0000000000027
 20
89.999996566772367
 30
0.0
 11
100.0000000000027
 21
90.999996185302564
 31
0.0
  0
LINE
  5
BA
  8
0
 10
119.9999999999972
 20
91.000003814697152
 30
0.0
 11
118.9999999999972
 21
90.000003433227533
 31
0.0
  0
ARC
  5
BB
  8
0
 10
97.999999999999943
 20
121.50000381469719
 30
0.0
 40
0.5
 50
180.00000000000011
 51
270.0
  0
ARC
  5
BC
  8
0
 10
97.999999999999901
 20
134.50000381469721
 30
0.0
 40
0.5
 50
90.0
 51
180.00000000000011
  0
LINE
  5
BE
  8
0
 10
102.999999999998
 20
144.00000381469721
 30
0.0
 11
101.99999999999859
 21
143.6535936532143
 31
0.0
  0
LINE
  5
BF
  8
0
 10
117.9999999999981
 20
143.6535936532143
 30
0.0
 11
116.9999999999981
 21
144.00000381469729
 31
0.0
  0
LINE
  5
C0
  8
0
 10
101.99999999999829
 20
143.6535936532143
 30
0.0
 11
102.00000000000171
 21
135.00000381469729
 31
0.0
  0
LINE
  5
C1
  8
0
 10
116.9999999999981
 20
144.00000381469729
 30
0.0
 11
102.999999999998
 21
144.00000381469721
 31
0.0
  0
LINE
  5
C2
  8
0
 10
117.9999999999981
 20
135.00000381469729
 30
0.0
 11
117.9999999999981
 21
143.6535936532143
 31
0.0
  0
LINE
  5
C3
  8
0
 10
97.999999999999901
 20
135.00000381469729
 30
0.0
 11
121.9999999999999
 21
135.00000381469729
 31
0.0
  0
LINE
  5
C4
  8
0
 10
119.9999999999972
 20
91.000003814697152
 30
0.0
 11
119.9999999999972
 21
118.6708476171317
 31
0.0
  0
LINE
  5
C5
  8
0
 10
101.0000000000027
 20
89.999996566772367
 30
0.0
 11
118.9999999999972
 21
90.000003433227533
 31
0.0
  0
LINE
  5
C7
  8
0
 10
97.499999999999872
 20
134.50000381469721
 30
0.0
 11
97.499999999999943
 21
121.50000381469719
 31
0.0
  0
LINE
  5
D0
  8
0
 10
122.4999999999999
 20
134.50000381469729
 30
0.0
 11
122.4999999999999
 21
121.50000381469719
 31
0.0
  0
ARC
  5
D1
  8
0
 10
121.9999999999999
 20
134.50000381469729
 30
0.0
 40
0.5
 50
0.0000000000001507
 51
90.0
  0
ARC
  5
D2
  8
0
 10
121.9999999999999
 20
121.50000381469719
 30
0.0
 40
0.5
 50
270.0
 51
0.0000000000001507
  0
CIRCLE
  5
244
  8
0
 10
179.99999999999969
 20
199.86423338625119
 30
0.0
 40
8.0
  0
LINE
  5
245
  8
0
 10
184.61880215351761
 20
199.86423338625119
 30
0.0
 11
182.30940107675869
 21
195.8642333862505
 31
0.0
  0
LINE
  5
246
  8
0
 10
182.30940107675869
 20
203.8642333862521
 30
0.0
 11
184.61880215351761
 21
199.86423338625119
 31
0.0
  0
LINE
  5
247
  8
0
 10
177.6905989232408
 20
203.86423338625201
 30
0.0
 11
182.30940107675869
 21
203.86423338625201
 31
0.0
  0
LINE
  5
248
  8
0
 10
175.3811978464818
 20
199.86423338625119
 30
0.0
 11
177.6905989232408
 21
203.86423338625201
 31
0.0
  0
LINE
  5
249
  8
0
 10
177.69059892324071
 20
195.86423338625039
 30
0.0
 11
175.3811978464818
 21
199.86423338625119
 31
0.0
  0
LINE
  5
24A
  8
0
 10
182.30940107675869
 20
195.86423338625039
 30
0.0
 11
177.69059892324091
 21
195.86423338625039
 31
0.0
  0
CIRCLE
  5
24C
  8
0
 10
179.99999999999969
 20
199.86423338625119
 30
0.0
 40
9.0
  0
LINE
  5
24D
  8
1
 10
179.99999999999969
 20
217.36423338625119
 30
0.0
 11
179.9999999999998
 21
182.36423338625119
 31
0.0
  0
LINE
  5
24E
  8
1
 10
214.99999999999969
 20
199.86423338625119
 30
0.0
 11
162.49999999999969
 21
199.8642333862511
 31
0.0
  0
LINE
  5
24F
  8
0
 10
209.63265381306439
 20
196.81971194395331
 30
0.0
 11
193.4148983302091
 21
193.49187770895941
 31
0.0
  0
LINE
  5
250
  8
0
 10
209.63265381306439
 20
202.90875482854909
 30
0.0
 11
193.4148983302091
 21
206.23658906354299
 31
0.0
  0
ARC
  5
252
  8
0
 10
179.99999999999969
 20
199.86423338625119
 30
0.0
 40
12.5
 50
76.912640680651279
 51
283.08735931934871
  0
ARC
  5
253
  8
0
 10
179.99999999999969
 20
199.86423338625119
 30
0.0
 40
12.5
 50
289.96698485437901
 51
332.62007656629419
  0
ARC
  5
254
  8
0
 10
179.99999999999969
 20
199.86423338625119
 30
0.0
 40
12.5
 50
339.49970210132278
 51
20.500297898677101
  0
ARC
  5
255
  8
0
 10
179.99999999999969
 20
199.86423338625119
 30
0.0
 40
12.5
 50
27.379923433705869
 51
70.033015145617526
  0
ARC
  5
256
  8
0
 10
193.11338515757211
 20
194.96126186796161
 30
0.0
 40
1.5
 50
159.49970210132301
 51
281.59595603661808
  0
ARC
  5
257
  8
0
 10
193.11338515757211
 20
204.7672049045409
 30
0.0
 40
1.5
 50
78.404043963381923
 51
200.50029789867571
  0
ARC
  5
258
  8
0
 10
179.99999999999969
 20
199.8642333862511
 30
0.0
 40
30.0
 50
350.38370305290022
 51
9.616296947100043
  0
ARC
  5
259
  8
0
 10
208.09953402421669
 20
195.1033314105876
 30
0.0
 40
1.5
 50
283.08735931934871
 51
350.38370305290158
  0
ARC
  5
25A
  8
0
 10
208.09953402421669
 20
204.6251353619148
 30
0.0
 40
1.5
 50
9.6162969471008104
 51
76.912640680651279
  0
ARC
  5
25B
  8
0
 10
209.5723511785371
 20
197.1135887757539
 30
0.0
 40
0.3
 50
281.59595603661808
 51
354.68597637735519
  0
ARC
  5
25C
  8
0
 10
209.57235117853699
 20
202.61487799674859
 30
0.0
 40
0.3
 50
5.3140236226511286
 51
78.404043963381923
  0
LINE
  5
25D
  8
0
 10
208.4391886570464
 20
206.08617428350371
 30
0.0
 11
182.8304552735822
 21
212.03955773282411
 31
0.0
  0
LINE
  5
25E
  8
0
 10
208.4391886570466
 20
193.64229248899881
 30
0.0
 11
182.8304552735822
 21
187.68890903967841
 31
0.0
  0
LINE
  5
2FA
  8
1
 10
179.99485696166491
 20
149.0000038147285
 30
0.0
 11
179.99485696166499
 21
64.00000381472853
 31
0.0
  0
LINE
  5
2FD
  8
0
 10
184.99485696166499
 20
70.500003814728544
 30
0.0
 11
183.49485696166491
 21
69.00000381472853
 31
0.0
  0
LINE
  5
2FE
  8
0
 10
176.49485696166499
 20
69.00000381472853
 30
0.0
 11
183.49485696166491
 21
69.00000381472853
 31
0.0
  0
LINE
  5
2FF
  8
0
 10
174.99485696166499
 20
70.500003814728515
 30
0.0
 11
174.99485696166511
 21
90.000003814728544
 31
0.0
  0
LINE
  5
301
  8
0
 10
187.99485696166491
 20
135.0000038147285
 30
0.0
 11
187.99485696166491
 21
143.6535936532145
 31
0.0
  0
LINE
  5
302
  8
0
 10
171.99485696166499
 20
135.00000381472839
 30
0.0
 11
171.99485696166499
 21
143.6535936532145
 31
0.0
  0
LINE
  5
303
  8
0
 10
172.5948569616653
 20
144.0000038147285
 30
0.0
 11
171.99485696166499
 21
143.6535936532145
 31
0.0
  0
LINE
  5
304
  8
0
 10
187.99485696166491
 20
143.6535936532145
 30
0.0
 11
171.99485696166499
 21
143.6535936532145
 31
0.0
  0
LINE
  5
305
  8
0
 10
187.3948569616644
 20
144.0000038147285
 30
0.0
 11
187.99485696166491
 21
143.6535936532145
 31
0.0
  0
LINE
  5
306
  8
0
 10
187.3948569616644
 20
144.0000038147285
 30
0.0
 11
172.5948569616653
 21
144.0000038147285
 31
0.0
  0
LINE
  5
307
  8
0
 10
169.99485696166511
 20
91.000003814728487
 30
0.0
 11
170.99485696166511
 21
90.000003814728487
 31
0.0
  0
LINE
  5
308
  8
0
 10
189.99485696166511
 20
91.000003814728586
 30
0.0
 11
188.99485696166511
 21
90.000003814728544
 31
0.0
  0
LINE
  5
309
  8
0
 10
188.99485696166511
 20
90.000003814728544
 30
0.0
 11
170.99485696166511
 21
90.000003814728487
 31
0.0
  0
LINE
  5
30A
  8
0
 10
169.99485696166499
 20
118.6708476171292
 30
0.0
 11
169.99485696166511
 21
91.000003814728487
 31
0.0
  0
ARC
  5
30B
  8
0
 10
168.74485696167221
 20
119.500003814729
 30
0.0
 40
1.5
 50
326.442690237612
 51
90.0
  0
ARC
  5
30C
  8
0
 10
191.2448569616578
 20
119.5000038147291
 30
0.0
 40
1.5
 50
90.0
 51
213.5573097623882
  0
LINE
  5
30D
  8
0
 10
189.99485696166491
 20
118.6708476171293
 30
0.0
 11
189.99485696166511
 21
91.000003814728586
 31
0.0
  0
LINE
  5
310
  8
0
 10
189.99485696166491
 20
118.6708476171315
 30
0.0
 11
169.99485696166499
 21
118.67084761713041
 31
0.0
  0
LINE
  5
33A
  8
0
 10
184.99485696166511
 20
70.500003814728572
 30
0.0
 11
184.99485696166479
 21
90.000003814728544
 31
0.0
  0
LINE
  5
340
  8
0
 10
174.99485696166531
 20
70.500003814728501
 30
0.0
 11
176.49485696166499
 21
69.00000381472853
 31
0.0
  0
LINE
  5
341
  8
0
 10
184.99485696166511
 20
70.500003814728572
 30
0.0
 11
174.99485696166499
 21
70.500003814728515
 31
0.0
  0
LINE
  5
342
  8
3
 10
175.7448569616661
 20
90.000003814728544
 30
0.0
 11
175.74485696166499
 21
69.750003814728657
 31
0.0
  0
LINE
  5
34B
  8
3
 10
184.24485696166479
 20
90.000003814728544
 30
0.0
 11
184.24485696166491
 21
69.750003814728572
 31
0.0
  0
LINE
  5
34D
  8
0
 10
189.99485696166511
 20
91.000003814728586
 30
0.0
 11
169.99485696166511
 21
91.000003814728487
 31
0.0
  0
LINE
  5
34E
  8
0
 10
208.90693865351111
 20
130.3108376170583
 30
0.0
 11
193.84151879423609
 21
134.61524329113681
 31
0.0
  0
ARC
  5
34F
  8
0
 10
191.0943075152623
 20
125.0000038147285
 30
0.0
 40
10.0
 50
74.054604099078773
 51
90.0
  0
LINE
  5
350
  8
0
 10
191.0943075152623
 20
135.0000038147285
 30
0.0
 11
167.99485696166499
 21
135.00000381472839
 31
0.0
  0
LINE
  5
352
  8
0
 10
167.49485696166499
 20
134.5000038147285
 30
0.0
 11
167.49485696166499
 21
121.5000038147284
 31
0.0
  0
LINE
  5
353
  8
0
 10
209.61289095041491
 20
120.0000038147286
 30
0.0
 11
199.03228747008771
 21
120.0000038147285
 31
0.0
  0
ARC
  5
354
  8
0
 10
208.49485696166499
 20
121.0000038147285
 30
0.0
 40
1.5
 50
318.18968510422161
 51
0.0000000000001507
  0
LINE
  5
356
  8
0
 10
198.03228747008771
 20
121.0000038147285
 30
0.0
 11
167.99485696166491
 21
121.0000038147312
 31
0.0
  0
LINE
  5
357
  8
0
 10
199.03228747008839
 20
120.0000038147278
 30
0.0
 11
198.03228747008771
 21
121.0000038147285
 31
0.0
  0
LINE
  5
35B
  8
0
 10
209.99485696166499
 20
121.0000038147286
 30
0.0
 11
209.99485696166499
 21
128.86855169559701
 31
0.0
  0
ARC
  5
35C
  8
0
 10
208.49485696166499
 20
128.86855169559701
 30
0.0
 40
1.5
 50
0.0000000000001507
 51
74.054604099078773
  0
ARC
  5
35D
  8
0
 10
167.99485696166499
 20
121.5000038147284
 30
0.0
 40
0.5
 50
180.00000000000011
 51
270.0
  0
ARC
  5
35E
  8
0
 10
167.99485696166499
 20
134.5000038147285
 30
0.0
 40
0.5
 50
90.0
 51
180.00000000000011
  0
LINE
  5
366
  8
0
 10
117.9999999999981
 20
143.6535936532143
 30
0.0
 11
101.99999999999829
 21
143.6535936532143
 31
0.0
  0
LINE
  5
368
  8
0
 10
267.99999999999801
 20
143.6535936532147
 30
0.0
 11
251.99999999999821
 21
143.6535936532147
 31
0.0
  0
ARC
  5
5F6
  8
0
 10
248.75000000000711
 20
119.5000038147296
 30
0.0
 40
1.5
 50
326.442690237612
 51
90.0
  0
ARC
  5
5F7
  8
0
 10
271.24999999999272
 20
119.50000381472969
 30
0.0
 40
1.5
 50
90.0
 51
213.5573097623882
  0
LINE
  5
5F8
  8
0
 10
269.99999999999989
 20
118.6708476171321
 30
0.0
 11
250.0
 21
118.670847617131
 31
0.0
  0
ARC
  5
705
  8
0
 10
98.750000000007148
 20
119.5000038147293
 30
0.0
 40
1.5
 50
326.442690237612
 51
90.0
  0
ARC
  5
706
  8
0
 10
121.2499999999927
 20
119.5000038147293
 30
0.0
 40
1.5
 50
90.0
 51
213.5573097623882
  0
LINE
  5
707
  8
0
 10
119.9999999999999
 20
118.6708476171317
 30
0.0
 11
99.999999999999943
 21
118.6708476171306
 31
0.0
  0
CIRCLE
  5
B06
  8
0
 10
173.99485696166249
 20
70.00000381472853
 30
0.0
 40
0.5
  0
LINE
  5
B07
  8
3
 10
173.49485696166249
 20
70.00000381472853
 30
0.0
 11
173.49485696166241
 21
90.00000381472853
 31
0.0
  0
LINE
  5
B08
  8
3
 10
174.49485696166249
 20
70.00000381472853
 30
0.0
 11
174.49485696166241
 21
90.00000381472853
 31
0.0
  0
CIRCLE
  5
B09
  8
0
 10
185.99485696166761
 20
70.00000381472853
 30
0.0
 40
0.5
  0
LINE
  5
B0A
  8
3
 10
186.49485696166761
 20
70.00000381472853
 30
0.0
 11
186.49485696166769
 21
90.00000381472853
 31
0.0
  0
LINE
  5
B0B
  8
3
 10
185.49485696166761
 20
70.00000381472853
 30
0.0
 11
185.49485696166761
 21
90.00000381472853
 31
0.0
  0
LINE
  5
B0C
  8
0
 10
115.0
 20
70.500003814728373
 30
0.0
 11
113.5
 21
69.000003814728387
 31
0.0
  0
LINE
  5
B0D
  8
0
 10
106.5
 20
69.000003814728345
 30
0.0
 11
113.5
 21
69.000003814728387
 31
0.0
  0
LINE
  5
B0E
  8
0
 10
105.0
 20
70.500003814728359
 30
0.0
 11
105.0000000000001
 21
90.000003814728373
 31
0.0
  0
LINE
  5
B0F
  8
0
 10
115.0000000000001
 20
70.500003814728416
 30
0.0
 11
114.9999999999997
 21
90.000003814728416
 31
0.0
  0
LINE
  5
B10
  8
0
 10
105.0000000000003
 20
70.500003814728345
 30
0.0
 11
106.5
 21
69.000003814728345
 31
0.0
  0
LINE
  5
B11
  8
0
 10
115.0000000000001
 20
70.500003814728416
 30
0.0
 11
105.0
 21
70.500003814728359
 31
0.0
  0
LINE
  5
B12
  8
3
 10
105.75000000000109
 20
90.000003814728373
 30
0.0
 11
105.75
 21
69.750003814728501
 31
0.0
  0
LINE
  5
B13
  8
3
 10
114.2499999999998
 20
90.000003814728373
 30
0.0
 11
114.2500000000001
 21
69.750003814728416
 31
0.0
  0
CIRCLE
  5
B14
  8
0
 10
103.9999999999975
 20
70.000003814728359
 30
0.0
 40
0.5
  0
LINE
  5
B15
  8
3
 10
103.4999999999975
 20
70.000003814728359
 30
0.0
 11
103.4999999999974
 21
90.000003814728373
 31
0.0
  0
LINE
  5
B16
  8
3
 10
104.4999999999975
 20
70.000003814728359
 30
0.0
 11
104.4999999999974
 21
90.000003814728373
 31
0.0
  0
CIRCLE
  5
B17
  8
0
 10
116.0000000000026
 20
70.000003814728359
 30
0.0
 40
0.5
  0
LINE
  5
B18
  8
3
 10
116.5000000000026
 20
70.000003814728359
 30
0.0
 11
116.5000000000026
 21
90.000003814728373
 31
0.0
  0
LINE
  5
B19
  8
3
 10
115.5000000000026
 20
70.000003814728359
 30
0.0
 11
115.5000000000026
 21
90.000003814728373
 31
0.0
  0
LINE
  5
B1A
  8
0
 10
265.0
 20
70.500000000000298
 30
0.0
 11
263.5
 21
69.000000000000284
 31
0.0
  0
LINE
  5
B1B
  8
0
 10
256.5
 20
69.00000000000027
 30
0.0
 11
263.5
 21
69.000000000000284
 31
0.0
  0
LINE
  5
B1C
  8
0
 10
255.0
 20
70.50000000000027
 30
0.0
 11
255.0
 21
90.000000000000298
 31
0.0
  0
LINE
  5
B1D
  8
0
 10
265.0
 20
70.500000000000313
 30
0.0
 11
264.99999999999972
 21
90.000000000000298
 31
0.0
  0
LINE
  5
B1E
  8
0
 10
255.0000000000002
 20
70.500000000000242
 30
0.0
 11
256.5
 21
69.00000000000027
 31
0.0
  0
LINE
  5
B1F
  8
0
 10
265.0
 20
70.500000000000313
 30
0.0
 11
255.0
 21
70.50000000000027
 31
0.0
  0
LINE
  5
B20
  8
3
 10
255.75000000000111
 20
90.000000000000298
 30
0.0
 11
255.75
 21
69.750000000000398
 31
0.0
  0
LINE
  5
B21
  8
3
 10
264.24999999999972
 20
90.000000000000298
 30
0.0
 11
264.25
 21
69.750000000000313
 31
0.0
  0
CIRCLE
  5
B22
  8
0
 10
253.99999999999741
 20
70.00000000000027
 30
0.0
 40
0.5
  0
LINE
  5
B23
  8
3
 10
253.49999999999741
 20
70.00000000000027
 30
0.0
 11
253.4999999999973
 21
90.000000000000256
 31
0.0
  0
LINE
  5
B24
  8
3
 10
254.49999999999741
 20
70.00000000000027
 30
0.0
 11
254.49999999999741
 21
90.000000000000256
 31
0.0
  0
CIRCLE
  5
B25
  8
0
 10
266.0000000000025
 20
70.00000000000027
 30
0.0
 40
0.5
  0
LINE
  5
B26
  8
3
 10
266.5000000000025
 20
70.00000000000027
 30
0.0
 11
266.50000000000261
 21
90.000000000000256
 31
0.0
  0
LINE
  5
B27
  8
3
 10
265.5000000000025
 20
70.00000000000027
 30
0.0
 11
265.50000000000261
 21
90.000000000000256
 31
0.0
  0
TEXT
  5
C55
  8
0
 62
     3
 10
0.0
 20
0.0
 30
0.0
 40
10.0
  1
BJ130-10030
  7
STANDARD1
  0
ENDSEC
  0
EOF
