  0
SECTION
  2
HEADER
  9
$ACADVER
  1
AC1009
  9
$INSBASE
 10
0.0
 20
0.0
 30
0.0
  9
$EXTMIN
 10
0.0
 20
-2.960436562073669
 30
0.0
  9
$EXTMAX
 10
227.0571619101373
 20
173.22149079487991
 30
0.0
  9
$LIMMIN
 10
0.0
 20
0.0
  9
$LIMMAX
 10
390.0
 20
270.0
  9
$ORTHOMODE
 70
     1
  9
$REGENMODE
 70
     1
  9
$FILLMODE
 70
     1
  9
$QTEXTMODE
 70
     0
  9
$MIRRTEXT
 70
     0
  9
$DRAGMODE
 70
     2
  9
$LTSCALE
 40
5.0
  9
$OSMODE
 70
  3071
  9
$ATTMODE
 70
     1
  9
$TEXTSIZE
 40
2.5
  9
$TRACEWID
 40
1.0
  9
$TEXTSTYLE
  7
STANDARD
  9
$CLAYER
  8
4
  9
$CELTYPE
  6
BYLAYER
  9
$CECOLOR
 62
   256
  9
$DIMSCALE
 40
1.5
  9
$DIMASZ
 40
3.0
  9
$DIMEXO
 40
1.0
  9
$DIMDLI
 40
6.0
  9
$DIMRND
 40
0.0
  9
$DIMDLE
 40
0.0
  9
$DIMEXE
 40
1.0
  9
$DIMTP
 40
495.0
  9
$DIMTM
 40
0.0
  9
$DIMTXT
 40
3.2000000000000002
  9
$DIMCEN
 40
0.0
  9
$DIMTSZ
 40
0.0
  9
$DIMTOL
 70
     0
  9
$DIMLIM
 70
     0
  9
$DIMTIH
 70
     0
  9
$DIMTOH
 70
     0
  9
$DIMSE1
 70
     0
  9
$DIMSE2
 70
     0
  9
$DIMTAD
 70
     1
  9
$DIMZIN
 70
     0
  9
$DIMBLK
  1

  9
$DIMASO
 70
     0
  9
$DIMSHO
 70
     1
  9
$DIMPOST
  1

  9
$DIMAPOST
  1

  9
$DIMALT
 70
     0
  9
$DIMALTD
 70
     2
  9
$DIMALTF
 40
25.399999999999999
  9
$DIMLFAC
 40
1.0
  9
$DIMTOFL
 70
     1
  9
$DIMTVP
 40
0.0
  9
$DIMTIX
 70
     1
  9
$DIMSOXD
 70
     0
  9
$DIMSAH
 70
     0
  9
$DIMBLK1
  1

  9
$DIMBLK2
  1

  9
$DIMSTYLE
  2
ITM
  9
$DIMCLRD
 70
   256
  9
$DIMCLRE
 70
   256
  9
$DIMCLRT
 70
   256
  9
$DIMTFAC
 40
1.0
  9
$DIMGAP
 40
1.0
  9
$LUNITS
 70
     2
  9
$LUPREC
 70
     2
  9
$SKETCHINC
 40
1.0
  9
$FILLETRAD
 40
0.4
  9
$AUNITS
 70
     0
  9
$AUPREC
 70
     0
  9
$MENU
  1
.
  9
$ELEVATION
 40
0.0
  9
$PELEVATION
 40
0.0
  9
$THICKNESS
 40
0.0
  9
$LIMCHECK
 70
     0
  9
$BLIPMODE
 70
     0
  9
$CHAMFERA
 40
1.1999999999999991
  9
$CHAMFERB
 40
1.1999999999999991
  9
$SKPOLY
 70
     0
  9
$TDCREATE
 40
2453354.0921258219
  9
$TDUPDATE
 40
2456597.6198809491
  9
$TDINDWG
 40
513.55175609950004
  9
$TDUSRTIMER
 40
513.55147812500002
  9
$USRTIMER
 70
     1
  9
$ANGBASE
 50
0.0
  9
$ANGDIR
 70
     0
  9
$PDMODE
 70
     0
  9
$PDSIZE
 40
0.0
  9
$PLINEWID
 40
0.0
  9
$COORDS
 70
     1
  9
$SPLFRAME
 70
     0
  9
$SPLINETYPE
 70
     6
  9
$SPLINESEGS
 70
     8
  9
$ATTDIA
 70
     0
  9
$ATTREQ
 70
     1
  9
$HANDLING
 70
     1
  9
$HANDSEED
  5
6A8
  9
$SURFTAB1
 70
     6
  9
$SURFTAB2
 70
     6
  9
$SURFTYPE
 70
     6
  9
$SURFU
 70
     6
  9
$SURFV
 70
     6
  9
$UCSNAME
  2

  9
$UCSORG
 10
0.0
 20
0.0
 30
0.0
  9
$UCSXDIR
 10
1.0
 20
0.0
 30
0.0
  9
$UCSYDIR
 10
0.0
 20
1.0
 30
0.0
  9
$PUCSNAME
  2

  9
$PUCSORG
 10
0.0
 20
0.0
 30
0.0
  9
$PUCSXDIR
 10
1.0
 20
0.0
 30
0.0
  9
$PUCSYDIR
 10
0.0
 20
1.0
 30
0.0
  9
$USERI1
 70
     4
  9
$USERI2
 70
     1
  9
$USERI3
 70
     1
  9
$USERI4
 70
     0
  9
$USERI5
 70
     0
  9
$USERR1
 40
1.0
  9
$USERR2
 40
3.0
  9
$USERR3
 40
3.2000000000000002
  9
$USERR4
 40
3.0
  9
$USERR5
 40
10.0
  9
$WORLDVIEW
 70
     1
  9
$SHADEDGE
 70
     3
  9
$SHADEDIF
 70
    70
  9
$TILEMODE
 70
     1
  9
$MAXACTVP
 70
    16
  9
$PLIMCHECK
 70
     0
  9
$PEXTMIN
 10
0.0
 20
0.0
 30
0.0
  9
$PEXTMAX
 10
0.0
 20
0.0
 30
0.0
  9
$PLIMMIN
 10
0.0
 20
0.0
  9
$PLIMMAX
 10
12.0
 20
9.0
  9
$UNITMODE
 70
     0
  9
$VISRETAIN
 70
     0
  9
$PLINEGEN
 70
     0
  9
$PSLTSCALE
 70
     1
  0
ENDSEC
  0
SECTION
  2
TABLES
  0
TABLE
  2
VPORT
 70
     1
  0
VPORT
  2
*ACTIVE
 70
     0
 10
0.0
 20
0.0
 11
1.0
 21
1.0
 12
202.55787946771341
 22
133.5127261426681
 13
0.0
 23
0.0
 14
5.0
 24
5.0
 15
10.0
 25
10.0
 16
0.0
 26
0.0
 36
1.0
 17
0.0
 27
0.0
 37
0.0
 40
275.42274993631997
 41
1.831871345029239
 42
50.0
 43
0.0
 44
0.0
 50
0.0
 51
0.0
 71
    16
 72
   500
 73
     1
 74
     0
 75
     0
 76
     0
 77
     0
 78
     1
  0
ENDTAB
  0
TABLE
  2
LTYPE
 70
     4
  0
LTYPE
  2
CONTINUOUS
 70
     0
  3
Solid line
 72
    65
 73
     0
 40
0.0
  0
LTYPE
  2
CENTER
 70
     0
  3
____ _ ____ _ ____ _ ____ _ ____ _ ____ _ ____
 72
    65
 73
     4
 40
2.0
 49
1.25
 49
-0.25
 49
0.25
 49
-0.25
  0
LTYPE
  2
HIDDEN
 70
     0
  3
Hidden __ __ __ __ __ __ __ __ __ __ __ __ __ _
 72
    65
 73
     2
 40
0.375
 49
0.25
 49
-0.125
  0
LTYPE
  2
PHANTOM2
 70
     0
  3
___ _ _ ___ _ _ ___ _ _ ___ _ _
 72
    65
 73
     6
 40
1.25
 49
0.625
 49
-0.125
 49
0.125
 49
-0.125
 49
0.125
 49
-0.125
  0
ENDTAB
  0
TABLE
  2
LAYER
 70
     6
  0
LAYER
  2
0
 70
     0
 62
     7
  6
CONTINUOUS
  0
LAYER
  2
1
 70
     0
 62
     1
  6
CENTER
  0
LAYER
  2
WAKU
 70
     0
 62
     5
  6
CONTINUOUS
  0
LAYER
  2
4
 70
     0
 62
     4
  6
CONTINUOUS
  0
LAYER
  2
3
 70
     0
 62
     3
  6
CONTINUOUS
  0
LAYER
  2
2
 70
     0
 62
     2
  6
HIDDEN
  0
ENDTAB
  0
TABLE
  2
STYLE
 70
     3
  0
STYLE
  2
STANDARD
 70
     0
 40
0.0
 41
1.0
 50
0.0
 71
     0
 42
2.5
  3
ROMANS
  4
EXTFONT
  0
STYLE
  2
K
 70
     0
 40
0.0
 41
0.75
 50
0.0
 71
     0
 42
3.2000000000000002
  3
ROMANS.shx
  4
EXTFONT.shx
  0
STYLE
  2
STANDARD1
 70
     0
 40
0.0
 41
1.0
 50
0.0
 71
     0
 42
3.0
  3
txt
  4

  0
ENDTAB
  0
TABLE
  2
VIEW
 70
     1
  0
VIEW
  2
OLE1
 70
     0
 40
229.28739486252439
 10
252.24788746078519
 20
59.777193176129153
 41
325.53554198962991
 11
0.0
 21
0.0
 31
1.0
 12
0.0
 22
0.0
 32
0.0
 42
50.0
 43
0.0
 44
0.0
 50
0.0
 71
    16
  0
ENDTAB
  0
TABLE
  2
UCS
 70
     0
  0
ENDTAB
  0
TABLE
  2
APPID
 70
     3
  0
APPID
  2
ACAD
 70
     0
  0
APPID
  2
ACAD_MLEADERVER
 70
     0
  0
APPID
  2
ACAD_NAV_VCDISPLAY
 70
     0
  0
ENDTAB
  0
TABLE
  2
DIMSTYLE
 70
     2
  0
DIMSTYLE
  2
ITM
 70
     0
  3

  4

  5

  6

  7

 40
0.0
 41
2.5
 42
1.0
 43
6.0
 44
1.0
 45
0.0
 46
0.0
 47
495.0
 48
0.0
140
3.0
141
0.0
142
0.0
143
25.399999999999999
144
1.0
145
0.0
146
1.0
147
1.0
 71
     0
 72
     0
 73
     0
 74
     0
 75
     0
 76
     0
 77
     3
 78
     8
170
     0
171
     2
172
     1
173
     0
174
     0
175
     0
176
     0
177
     0
178
     0
  0
DIMSTYLE
  2
STANDARD
 70
     0
  3

  4

  5

  6

  7

 40
1.0
 41
0.18
 42
0.0625
 43
0.38
 44
0.18
 45
0.0
 46
0.0
 47
0.0
 48
0.0
140
0.18
141
0.09
142
0.0
143
25.399999999999999
144
1.0
145
0.0
146
1.0
147
0.09
 71
     0
 72
     0
 73
     1
 74
     1
 75
     0
 76
     0
 77
     0
 78
     0
170
     0
171
     2
172
     0
173
     0
174
     0
175
     0
176
     0
177
     0
178
     0
  0
ENDTAB
  0
ENDSEC
  0
SECTION
  2
BLOCKS
  0
BLOCK
  8
0
  2
$MODEL_SPACE
 70
     0
 10
0.0
 20
0.0
 30
0.0
  3
$MODEL_SPACE
  1

  0
ENDBLK
  5
12
  8
0
  0
BLOCK
 67
     1
  8
0
  2
$PAPER_SPACE
 70
     0
 10
0.0
 20
0.0
 30
0.0
  3
$PAPER_SPACE
  1

  0
ENDBLK
  5
19
 67
     1
  8
0
  0
BLOCK
  8
0
  2
ARROW1
 70
     0
 10
0.0
 20
0.0
 30
0.0
  3
ARROW1
  1

  0
SOLID
  5
4B
  8
WAKU
  6
CONTINUOUS
 62
     4
 10
-1.0
 20
0.1666666666666714
 30
0.0
 11
-1.0
 21
-0.1666666666666714
 31
0.0
 12
0.0
 22
0.0
 32
0.0
 13
0.0
 23
0.0
 33
0.0
  0
ENDBLK
  5
4D
  8
0
  0
ENDSEC
  0
SECTION
  2
ENTITIES
  0
CIRCLE
  5
74
  8
0
 10
129.3215315530679
 20
124.0652407948799
 30
0.0
 40
3.2999999999999821
  0
CIRCLE
  5
75
  8
0
 10
129.3215315530679
 20
162.06524079487991
 30
0.0
 40
3.2999999999999541
  0
LINE
  5
76
  8
0
 10
134.95205265680761
 20
118.0652404223509
 30
0.0
 11
141.321531657376
 21
135.565240962518
 31
0.0
  0
LINE
  5
77
  8
0
 10
117.3298738519722
 20
135.54231933356371
 30
0.0
 11
123.6910104493281
 21
118.0652404223509
 31
0.0
  0
CIRCLE
  5
78
  8
0
 10
129.3215315530679
 20
124.0652407948799
 30
0.0
 40
3.7999999999999821
  0
LINE
  5
79
  8
0
 10
123.6910104493281
 20
118.0652404223509
 30
0.0
 11
134.95205265680761
 21
118.0652404223509
 31
0.0
  0
LINE
  5
7A
  8
0
 10
141.321531657376
 20
150.56524062724191
 30
0.0
 11
134.95205265680761
 21
168.06524116740891
 31
0.0
  0
LINE
  5
7B
  8
0
 10
123.6910104493281
 20
168.06524116740891
 30
0.0
 11
117.3298738519722
 21
150.5881622561962
 31
0.0
  0
CIRCLE
  5
7C
  8
0
 10
129.3215315530679
 20
162.06524079487991
 30
0.0
 40
3.7999999999999821
  0
LINE
  5
7D
  8
0
 10
134.95205265680761
 20
168.06524116740891
 30
0.0
 11
123.6910104493281
 21
168.06524116740891
 31
0.0
  0
LINE
  5
7E
  8
0
 10
139.68366586814139
 20
155.06524089918801
 30
0.0
 11
118.95939723799439
 21
155.06524089918801
 31
0.0
  0
LINE
  5
7F
  8
0
 10
118.95939723799439
 20
131.06524069057181
 30
0.0
 11
139.68366586814139
 21
131.06524069057181
 31
0.0
  0
LINE
  5
80
  8
0
 10
141.321531657376
 20
135.565240962518
 30
0.0
 11
141.321531657376
 21
150.56524062724191
 31
0.0
  0
ARC
  5
81
  8
0
 10
129.3215315530679
 20
143.06524079487991
 30
0.0
 40
10.999999999999989
 50
251.11049921669911
 51
108.88950078330291
  0
POLYLINE
  5
82
  8
0
 66
     1
 10
0.0
 20
0.0
 30
0.0
 70
   128
  0
VERTEX
  5
668
  8
0
 10
109.956613902249
 20
148.0652406831212
 30
0.0
  0
VERTEX
  5
669
  8
0
 10
112.8864075730225
 20
149.0677330662437
 30
0.0
  0
VERTEX
  5
66A
  8
0
 10
115.8591668794534
 20
150.08492777319029
 30
0.0
  0
VERTEX
  5
66B
  8
0
 10
117.8969416509053
 20
150.7821968776114
 30
0.0
  0
VERTEX
  5
66C
  8
0
 10
119.9703823516747
 20
151.49166956738901
 30
0.0
  0
VERTEX
  5
66D
  8
0
 10
122.0793860706171
 20
152.21331138358789
 30
0.0
  0
VERTEX
  5
66E
  8
0
 10
123.9042577075443
 20
152.8377305735774
 30
0.0
  0
VERTEX
  5
66F
  8
0
 10
125.7603470443419
 20
153.47283203349781
 30
0.0
  0
SEQEND
  5
670
  8
0
  0
POLYLINE
  5
83
  8
0
 66
     1
 10
0.0
 20
0.0
 30
0.0
 70
   128
  0
VERTEX
  5
671
  8
0
 10
109.956613902249
 20
138.06524090663859
 30
0.0
  0
VERTEX
  5
672
  8
0
 10
112.8864075730225
 20
137.06274852351621
 30
0.0
  0
VERTEX
  5
673
  8
0
 10
115.8591668794533
 20
136.04555381656959
 30
0.0
  0
VERTEX
  5
674
  8
0
 10
117.8969416509053
 20
135.34828471214851
 30
0.0
  0
VERTEX
  5
675
  8
0
 10
119.9703823516747
 20
134.63881202237079
 30
0.0
  0
VERTEX
  5
676
  8
0
 10
122.0793860706171
 20
133.91717020617199
 30
0.0
  0
VERTEX
  5
677
  8
0
 10
123.9042577075443
 20
133.29275101618239
 30
0.0
  0
VERTEX
  5
678
  8
0
 10
125.7603470443419
 20
132.65764955626199
 30
0.0
  0
SEQEND
  5
679
  8
0
  0
ARC
  5
84
  8
0
 10
129.3215315530679
 20
143.06524079487991
 30
0.0
 40
10.999999999999989
 50
108.88950078330291
 51
251.11049921669911
  0
ARC
  5
85
  8
0
 10
129.3215315530679
 20
143.06524079487991
 30
0.0
 40
20.0
 50
165.5224878140717
 51
194.4775121859314
  0
LINE
  5
86
  8
1
 10
56.585901568527497
 20
23.435684388530589
 30
0.0
 11
56.585901568527497
 21
86.753736681062804
 31
0.0
  0
LINE
  5
89
  8
0
 10
68.585901672835632
 20
70.329610810339616
 30
0.0
 11
44.585901464219369
 21
70.329610810339616
 31
0.0
  0
LINE
  5
8A
  8
0
 10
68.585901672835632
 20
70.329610810339616
 30
0.0
 11
68.585901672835632
 21
55.329610214293169
 31
0.0
  0
LINE
  5
8B
  8
0
 10
64.085901400889441
 20
70.329610810339616
 30
0.0
 11
64.085901400889441
 21
45.329610437810587
 31
0.0
  0
LINE
  5
8C
  8
0
 10
44.585901464219369
 20
70.329610810339616
 30
0.0
 11
44.585901464219369
 21
55.329610214293169
 31
0.0
  0
LINE
  5
8D
  8
0
 10
49.08590173616556
 20
70.329610810339616
 30
0.0
 11
49.08590173616556
 21
45.329610437810587
 31
0.0
  0
LINE
  5
8E
  8
1
 10
129.3215315530679
 20
112.9089907948799
 30
0.0
 11
129.3215315530679
 21
173.22149079487991
 31
0.0
  0
LINE
  5
8F
  8
1
 10
144.7157212982882
 20
143.06524079487991
 30
0.0
 11
105.76095866210071
 21
143.06524079487991
 31
0.0
  0
LINE
  5
90
  8
1
 10
135.1215315530678
 20
124.0652407948799
 30
0.0
 11
123.5215315530678
 21
124.0652407948799
 31
0.0
  0
LINE
  5
91
  8
1
 10
135.12153155306791
 20
162.06524079487991
 30
0.0
 11
123.5215315530679
 21
162.06524079487991
 31
0.0
  0
LINE
  5
92
  8
0
 10
139.68366586814139
 20
70.329610810339545
 30
0.0
 11
139.68366586814139
 21
55.329610214293098
 31
0.0
  0
LINE
  5
93
  8
0
 10
141.32153165737611
 20
70.329610810339545
 30
0.0
 11
141.321531657376
 21
45.329610437810508
 31
0.0
  0
LINE
  5
94
  8
0
 10
117.3215314487598
 20
70.329610810339602
 30
0.0
 11
117.3215314487597
 21
45.329610437810572
 31
0.0
  0
LINE
  5
95
  8
0
 10
117.3215314487598
 20
70.329610810339602
 30
0.0
 11
141.32153165737611
 21
70.329610810339602
 31
0.0
  0
LINE
  5
96
  8
0
 10
118.95939723799449
 20
70.329610810339602
 30
0.0
 11
118.95939723799439
 21
55.329610214293147
 31
0.0
  0
LINE
  5
97
  8
1
 10
129.3215315530679
 20
23.43568438853055
 30
0.0
 11
129.3215315530679
 21
86.753736681062776
 31
0.0
  0
LINE
  5
98
  8
0
 10
116.0966923465737
 20
70.32961124247322
 30
0.0
 11
117.0966923465737
 21
71.329611242473277
 31
0.0
  0
LINE
  5
99
  8
0
 10
109.8215315530678
 20
70.32961124247322
 30
0.0
 11
116.0966923465737
 21
70.32961124247322
 31
0.0
  0
LINE
  5
9A
  8
0
 10
109.3215315530679
 20
77.035409567973943
 30
0.0
 11
109.3215315530678
 21
70.82961124247322
 31
0.0
  0
ARC
  5
9B
  8
0
 10
109.8215315530678
 20
70.82961124247322
 30
0.0
 40
0.5
 50
180.0
 51
270.0
  0
LINE
  5
9C
  8
0
 10
109.5787100874786
 20
77.472488206034711
 30
0.0
 11
116.0563625232556
 21
81.071184003688586
 31
0.0
  0
ARC
  5
9D
  8
0
 10
120.9127918350419
 20
72.32961124247322
 30
0.0
 40
10.0
 50
90.0
 51
119.0546040990771
  0
ARC
  5
9E
  8
0
 10
109.8215315530679
 20
77.035409567973943
 30
0.0
 40
0.5
 50
119.0546040990771
 51
180.0
  0
LINE
  5
9F
  8
0
 10
117.0966923465737
 20
71.329611242473277
 30
0.0
 11
139.8215315530679
 21
71.329611242473277
 31
0.0
  0
LINE
  5
A0
  8
0
 10
139.8215315530679
 20
82.329611242473234
 30
0.0
 11
120.9127918350419
 21
82.329611242473234
 31
0.0
  0
LINE
  5
A1
  8
0
 10
137.82153155306781
 20
70.329610810339602
 30
0.0
 11
137.82153155306781
 21
70.529611242473266
 31
0.0
  0
ARC
  5
A2
  8
0
 10
120.0215315530679
 20
70.529611242473266
 30
0.0
 40
0.8
 50
0.0
 51
90.0
  0
LINE
  5
A3
  8
0
 10
120.8215315530679
 20
70.329610810339602
 30
0.0
 11
120.8215315530679
 21
70.529611242473266
 31
0.0
  0
LINE
  5
A4
  8
0
 10
123.6875569568538
 20
84.329611242473277
 30
0.0
 11
122.8215315530679
 21
83.829611242472353
 31
0.0
  0
LINE
  5
A5
  8
0
 10
122.8215315530679
 20
83.829611242472353
 30
0.0
 11
122.8215315530679
 21
82.329611242473277
 31
0.0
  0
LINE
  5
A6
  8
0
 10
135.8215315530679
 20
83.829611242472353
 30
0.0
 11
135.8215315530679
 21
82.329611242473277
 31
0.0
  0
LINE
  5
A7
  8
0
 10
134.955506149282
 20
84.329611242473277
 30
0.0
 11
135.8215315530679
 21
83.829611242472353
 31
0.0
  0
LINE
  5
A8
  8
0
 10
134.955506149282
 20
84.329611242473277
 30
0.0
 11
123.6875569568538
 21
84.329611242473277
 31
0.0
  0
LINE
  5
A9
  8
0
 10
122.8215315530679
 20
83.829611242472353
 30
0.0
 11
135.8215315530679
 21
83.829611242472353
 31
0.0
  0
ARC
  5
AA
  8
0
 10
138.62153155306791
 20
70.529611242473266
 30
0.0
 40
0.8
 50
90.0
 51
180.0
  0
ARC
  5
AB
  8
0
 10
139.8215315530679
 20
71.82961124247322
 30
0.0
 40
0.5
 50
270.0
 51
0.0
  0
ARC
  5
AC
  8
0
 10
139.8215315530679
 20
81.82961124247322
 30
0.0
 40
0.5
 50
0.0
 51
90.0
  0
LINE
  5
AD
  8
0
 10
140.3215315530679
 20
81.82961124247322
 30
0.0
 11
140.3215315530679
 21
71.82961124247322
 31
0.0
  0
LINE
  5
AE
  8
0
 10
209.5571613699702
 20
70.329610810339602
 30
0.0
 11
209.5571613699702
 21
45.329610437810572
 31
0.0
  0
LINE
  5
AF
  8
0
 10
214.05716164191639
 20
70.329610810339602
 30
0.0
 11
214.05716164191639
 21
55.329610214293147
 31
0.0
  0
LINE
  5
B0
  8
0
 10
194.5571617052463
 20
70.329610810339602
 30
0.0
 11
194.5571617052463
 21
45.329610437810572
 31
0.0
  0
LINE
  5
B1
  8
0
 10
190.05716143330011
 20
70.329610810339602
 30
0.0
 11
190.05716143330011
 21
55.329610214293147
 31
0.0
  0
LINE
  5
B2
  8
0
 10
190.05716143330011
 20
70.329610810339602
 30
0.0
 11
214.05716164191639
 21
70.329610810339602
 31
0.0
  0
LINE
  5
B3
  8
1
 10
202.05716153760829
 20
23.435684388530579
 30
0.0
 11
202.05716153760829
 21
86.753736681062804
 31
0.0
  0
ARC
  5
B4
  8
0
 10
65.885901568527444
 20
70.52961124247328
 30
0.0
 40
0.8
 50
90.0
 51
180.0
  0
LINE
  5
B5
  8
0
 10
48.085901568527497
 20
70.329610810339616
 30
0.0
 11
48.085901568527497
 21
70.52961124247328
 31
0.0
  0
ARC
  5
B6
  8
0
 10
47.285901568527549
 20
70.52961124247328
 30
0.0
 40
0.8
 50
0.0
 51
90.0
  0
LINE
  5
B7
  8
0
 10
65.085901568527504
 20
70.329610810339616
 30
0.0
 11
65.085901568527504
 21
70.52961124247328
 31
0.0
  0
ARC
  5
B8
  8
0
 10
67.085901568527561
 20
71.829611242473291
 30
0.0
 40
0.5
 50
270.0
 51
0.0
  0
ARC
  5
B9
  8
0
 10
46.085901568527497
 20
71.829611242473291
 30
0.0
 40
0.5
 50
180.0
 51
270.0
  0
LINE
  5
BA
  8
0
 10
46.085901568527497
 20
71.329611242473291
 30
0.0
 11
49.163201568527477
 21
71.329611242473291
 31
0.0
  0
ARC
  5
BB
  8
0
 10
46.085901568527497
 20
81.829611242473291
 30
0.0
 40
0.5
 50
90.0
 51
180.0
  0
ARC
  5
BC
  8
0
 10
67.085901568527504
 20
81.829611242473291
 30
0.0
 40
0.5
 50
0.0
 51
90.0
  0
LINE
  5
BD
  8
0
 10
67.085901568527504
 20
82.329611242473305
 30
0.0
 11
46.085901568527497
 21
82.329611242473305
 31
0.0
  0
LINE
  5
BE
  8
0
 10
45.585901568527497
 20
81.829611242473291
 30
0.0
 11
45.585901568527497
 21
71.829611242473291
 31
0.0
  0
LINE
  5
BF
  8
0
 10
67.585901568527504
 20
81.829611242473291
 30
0.0
 11
67.585901568527561
 21
71.829611242473291
 31
0.0
  0
LINE
  5
C0
  8
0
 10
50.951926972313402
 20
84.329611242473291
 30
0.0
 11
50.085901568527511
 21
83.829611242472382
 31
0.0
  0
LINE
  5
C1
  8
0
 10
50.085901568527511
 20
83.829611242472382
 30
0.0
 11
50.085901568527511
 21
82.329611242473348
 31
0.0
  0
LINE
  5
C2
  8
0
 10
63.085901568527497
 20
83.829611242472382
 30
0.0
 11
63.085901568527497
 21
82.329611242473305
 31
0.0
  0
LINE
  5
C3
  8
0
 10
62.219876164741599
 20
84.329611242473291
 30
0.0
 11
63.085901568527497
 21
83.829611242472382
 31
0.0
  0
LINE
  5
C4
  8
0
 10
62.219876164741599
 20
84.329611242473291
 30
0.0
 11
50.951926972313402
 21
84.329611242473291
 31
0.0
  0
LINE
  5
C5
  8
0
 10
50.085901568527511
 20
83.829611242472382
 30
0.0
 11
63.085901568527497
 21
83.829611242472382
 31
0.0
  0
LINE
  5
C6
  8
0
 10
63.664301568527549
 20
70.329611242473348
 30
0.0
 11
49.507501568527573
 21
70.329611242473291
 31
0.0
  0
LINE
  5
C7
  8
0
 10
61.585901568527497
 20
77.329611242473234
 30
0.0
 11
51.585901568527497
 21
77.329611242473234
 31
0.0
  0
LINE
  5
C8
  8
0
 10
64.008601568527496
 20
71.329611242473291
 30
0.0
 11
67.085901568527561
 21
71.329611242473291
 31
0.0
  0
LINE
  5
C9
  8
0
 10
51.585901568527497
 20
77.329611242473234
 30
0.0
 11
51.585901568527497
 21
70.329611242473291
 31
0.0
  0
LINE
  5
CA
  8
0
 10
61.585901568527497
 20
77.329611242473234
 30
0.0
 11
61.585901568527497
 21
70.329611242473291
 31
0.0
  0
LINE
  5
CB
  8
0
 10
46.085901568527497
 20
82.329611242473305
 30
0.0
 11
51.585901568527497
 21
77.329611242473234
 31
0.0
  0
LINE
  5
CC
  8
0
 10
67.085901568527504
 20
82.329611242473305
 30
0.0
 11
61.585901568527497
 21
77.329611242473234
 31
0.0
  0
LINE
  5
CD
  8
0
 10
64.008601568527524
 20
71.329611242473291
 30
0.0
 11
63.664301568527492
 21
70.329611242473348
 31
0.0
  0
LINE
  5
CE
  8
0
 10
49.163201568527477
 20
71.329611242473291
 30
0.0
 11
49.507501568527523
 21
70.329611242473348
 31
0.0
  0
LINE
  5
CF
  8
0
 10
195.55716153760821
 20
83.829611242472353
 30
0.0
 11
208.55716153760821
 21
83.829611242472353
 31
0.0
  0
LINE
  5
D0
  8
0
 10
207.69113613382231
 20
84.329611242473277
 30
0.0
 11
196.42318694139411
 21
84.329611242473277
 31
0.0
  0
LINE
  5
D1
  8
0
 10
207.69113613382231
 20
84.329611242473277
 30
0.0
 11
208.55716153760821
 21
83.829611242472353
 31
0.0
  0
LINE
  5
D2
  8
0
 10
208.55716153760821
 20
83.829611242472353
 30
0.0
 11
208.55716153760821
 21
82.329611242473277
 31
0.0
  0
LINE
  5
D3
  8
0
 10
195.55716153760821
 20
83.829611242472353
 30
0.0
 11
195.55716153760821
 21
82.329611242473277
 31
0.0
  0
LINE
  5
D4
  8
0
 10
196.42318694139411
 20
84.329611242473277
 30
0.0
 11
195.55716153760821
 21
83.829611242472353
 31
0.0
  0
LINE
  5
D5
  8
0
 10
213.05716153760829
 20
81.829611242473277
 30
0.0
 11
213.05716153760829
 21
71.82961124247322
 31
0.0
  0
LINE
  5
D6
  8
0
 10
191.05716153760821
 20
81.829611242473277
 30
0.0
 11
191.05716153760821
 21
71.82961124247322
 31
0.0
  0
LINE
  5
D7
  8
0
 10
212.55716153760829
 20
82.329611242473277
 30
0.0
 11
191.55716153760821
 21
82.329611242473277
 31
0.0
  0
ARC
  5
D8
  8
0
 10
212.55716153760829
 20
81.829611242473277
 30
0.0
 40
0.5
 50
0.0
 51
90.0
  0
ARC
  5
D9
  8
0
 10
191.55716153760821
 20
81.829611242473277
 30
0.0
 40
0.5
 50
90.0
 51
180.0
  0
LINE
  5
DA
  8
0
 10
191.55716153760821
 20
71.32961124247322
 30
0.0
 11
212.55716153760829
 21
71.32961124247322
 31
0.0
  0
ARC
  5
DB
  8
0
 10
191.55716153760821
 20
71.82961124247322
 30
0.0
 40
0.5
 50
180.0
 51
270.0
  0
ARC
  5
DC
  8
0
 10
212.55716153760829
 20
71.82961124247322
 30
0.0
 40
0.5
 50
270.0
 51
0.0
  0
LINE
  5
DD
  8
0
 10
210.55716153760821
 20
70.329610810339602
 30
0.0
 11
210.55716153760821
 21
70.529611242473266
 31
0.0
  0
ARC
  5
DE
  8
0
 10
192.75716153760831
 20
70.529611242473266
 30
0.0
 40
0.8
 50
0.0
 51
90.0
  0
LINE
  5
DF
  8
0
 10
193.55716153760829
 20
70.329610810339602
 30
0.0
 11
193.55716153760829
 21
70.529611242473266
 31
0.0
  0
ARC
  5
E0
  8
0
 10
211.35716153760819
 20
70.529611242473266
 30
0.0
 40
0.8
 50
90.0
 51
180.0
  0
CIRCLE
  5
ED
  8
0
 10
129.32153155306781
 20
143.06524079487991
 30
0.0
 40
7.866025403784362
  0
LINE
  5
28B
  8
0
 10
214.05716164191639
 20
55.32961021429319
 30
0.0
 11
227.0571619101373
 21
55.32961021429324
 31
0.0
  0
LINE
  5
28C
  8
0
 10
227.0571619101373
 20
45.329610437810658
 30
0.0
 11
227.0571619101373
 21
55.32961021429324
 31
0.0
  0
LINE
  5
28D
  8
0
 10
177.05716116507921
 20
45.329610437810487
 30
0.0
 11
227.0571619101373
 21
45.329610437810487
 31
0.0
  0
LINE
  5
28E
  8
0
 10
177.05716116507909
 20
45.329610437810658
 30
0.0
 11
177.05716116507909
 21
55.32961021429324
 31
0.0
  0
LINE
  5
28F
  8
0
 10
190.0571614333
 20
55.32961021429319
 30
0.0
 11
177.05716116507909
 21
55.32961021429324
 31
0.0
  0
LINE
  5
327
  8
1
 10
183.05716153760829
 20
43.829610437810508
 30
0.0
 11
183.05716153760829
 21
56.829610437810523
 31
0.0
  0
LINE
  5
328
  8
2
 10
179.75716153760831
 20
55.329610214293218
 30
0.0
 11
179.75716153760831
 21
45.329610437810501
 31
0.0
  0
LINE
  5
329
  8
2
 10
186.35716153760819
 20
55.329610214293211
 30
0.0
 11
186.35716153760819
 21
45.329610437810501
 31
0.0
  0
LINE
  5
32A
  8
2
 10
193.05716153760829
 20
47.32961124247327
 30
0.0
 11
193.05716153760829
 21
45.329610437810487
 31
0.0
  0
LINE
  5
32B
  8
2
 10
211.05716153760639
 20
47.32961124247327
 30
0.0
 11
211.05716153760619
 21
45.329610437809777
 31
0.0
  0
LINE
  5
32C
  8
1
 10
221.05716153760841
 20
43.829610437810651
 30
0.0
 11
221.05716153760841
 21
56.829610437810622
 31
0.0
  0
LINE
  5
32D
  8
2
 10
217.75716153760831
 20
55.32961021429319
 30
0.0
 11
217.75716153760831
 21
45.329610437810487
 31
0.0
  0
LINE
  5
32E
  8
2
 10
224.35716153760839
 20
55.32961021429319
 30
0.0
 11
224.35716153760839
 21
45.329610437810487
 31
0.0
  0
LINE
  5
342
  8
2
 10
193.05716153760829
 20
47.829611242473277
 30
0.0
 11
211.05716153760829
 21
47.829611242473277
 31
0.0
  0
LINE
  5
343
  8
2
 10
193.05716153760829
 20
69.387991242473277
 30
0.0
 11
211.05716153760829
 21
69.387991242473277
 31
0.0
  0
LINE
  5
344
  8
2
 10
193.05716153760829
 20
69.387991242473277
 30
0.0
 11
193.05716153760829
 21
47.829611242473277
 31
0.0
  0
LINE
  5
345
  8
2
 10
193.55716153760821
 20
70.129611242473246
 30
0.0
 11
193.55716153760821
 21
70.329611242473277
 31
0.0
  0
ARC
  5
346
  8
2
 10
192.7571615376082
 20
70.129611242473246
 30
0.0
 40
0.8
 50
292.02431300000143
 51
0.0
  0
ARC
  5
347
  8
2
 10
211.35716153760831
 20
70.129611242473246
 30
0.0
 40
0.8
 50
180.0
 51
247.9756869999986
  0
LINE
  5
348
  8
2
 10
210.55716153760829
 20
70.129611242473246
 30
0.0
 11
210.55716153760829
 21
70.329611242473277
 31
0.0
  0
LINE
  5
349
  8
2
 10
210.55716153760829
 20
47.32961124247327
 30
0.0
 11
211.05716153760829
 21
47.829611242473277
 31
0.0
  0
LINE
  5
34A
  8
2
 10
193.55716153760821
 20
47.32961124247327
 30
0.0
 11
193.05716153760829
 21
47.829611242473277
 31
0.0
  0
LINE
  5
34B
  8
2
 10
210.55716153760829
 20
47.32961124247327
 30
0.0
 11
193.55716153760821
 21
47.32961124247327
 31
0.0
  0
LINE
  5
34C
  8
2
 10
211.05716153760829
 20
69.387991242473277
 30
0.0
 11
211.05716153760829
 21
47.829611242473277
 31
0.0
  0
LINE
  5
34D
  8
2
 10
198.65716153760829
 20
47.32961124247327
 30
0.0
 11
198.65716153760829
 21
45.329610437810501
 31
0.0
  0
LINE
  5
34E
  8
2
 10
198.05716153760821
 20
47.32961124247327
 30
0.0
 11
198.05716153760821
 21
45.329610437810487
 31
0.0
  0
LINE
  5
34F
  8
3
 10
205.4571615376083
 20
45.329610437810487
 30
0.0
 11
205.4571615376083
 21
26.929611242473271
 31
0.0
  0
LINE
  5
350
  8
0
 10
206.05716153760829
 20
45.329610437810487
 30
0.0
 11
206.05716153760829
 21
27.529611242473269
 31
0.0
  0
LINE
  5
351
  8
0
 10
198.05716153760821
 20
27.529611242473269
 30
0.0
 11
199.2571615376082
 21
26.32961124247328
 31
0.0
  0
LINE
  5
352
  8
0
 10
206.05716153760829
 20
27.529611242473269
 30
0.0
 11
204.85716153760831
 21
26.32961124247328
 31
0.0
  0
LINE
  5
353
  8
0
 10
198.05716153760821
 20
27.529611242473269
 30
0.0
 11
206.05716153760829
 21
27.529611242473269
 31
0.0
  0
LINE
  5
354
  8
0
 10
199.2571615376082
 20
26.32961124247328
 30
0.0
 11
204.85716153760831
 21
26.32961124247328
 31
0.0
  0
LINE
  5
356
  8
2
 10
205.45716153760819
 20
47.329611242473362
 30
0.0
 11
205.4571615376083
 21
45.329610437810587
 31
0.0
  0
LINE
  5
357
  8
2
 10
206.05716153760821
 20
47.329611242473391
 30
0.0
 11
206.05716153760829
 21
45.329610437810587
 31
0.0
  0
LINE
  5
358
  8
0
 10
198.05716153760821
 20
45.329610437810487
 30
0.0
 11
198.05716153760821
 21
27.529611242473269
 31
0.0
  0
LINE
  5
359
  8
3
 10
198.65716153760829
 20
45.329610437810487
 30
0.0
 11
198.65716153760829
 21
26.929611242473271
 31
0.0
  0
LINE
  5
532
  8
0
 10
118.95939723799439
 20
55.32961021429319
 30
0.0
 11
139.68366586814139
 21
55.329610214293119
 31
0.0
  0
LINE
  5
533
  8
0
 10
117.3215314487597
 20
45.329610437810608
 30
0.0
 11
141.321531657376
 21
45.329610437810508
 31
0.0
  0
LINE
  5
534
  8
0
 10
123.6910104493281
 20
55.32961021429319
 30
0.0
 11
123.6910104493281
 21
45.329610437810587
 31
0.0
  0
LINE
  5
53D
  8
0
 10
134.95205265680761
 20
55.32961021429314
 30
0.0
 11
134.95205265680761
 21
45.329610437810558
 31
0.0
  0
LINE
  5
554
  8
2
 10
137.8215315530679
 20
47.32961124247327
 30
0.0
 11
120.8215315530679
 21
47.32961124247327
 31
0.0
  0
LINE
  5
555
  8
2
 10
120.8215315530679
 20
47.32961124247327
 30
0.0
 11
120.3215315530679
 21
47.829611242473277
 31
0.0
  0
LINE
  5
556
  8
2
 10
120.3215315530679
 20
69.387991242473277
 30
0.0
 11
120.3215315530679
 21
47.829611242473277
 31
0.0
  0
LINE
  5
557
  8
2
 10
120.3215315530679
 20
47.829611242473277
 30
0.0
 11
138.3215315530679
 21
47.829611242473277
 31
0.0
  0
LINE
  5
558
  8
2
 10
120.321531553068
 20
47.32961124247327
 30
0.0
 11
120.321531553068
 21
45.329610437810487
 31
0.0
  0
LINE
  5
559
  8
2
 10
125.3215315530679
 20
47.32961124247327
 30
0.0
 11
125.3215315530679
 21
45.329610437810487
 31
0.0
  0
LINE
  5
55A
  8
2
 10
125.92153155306799
 20
47.32961124247327
 30
0.0
 11
125.92153155306799
 21
45.329610437810501
 31
0.0
  0
LINE
  5
55B
  8
2
 10
138.3215315530679
 20
69.387991242473277
 30
0.0
 11
138.3215315530679
 21
47.829611242473277
 31
0.0
  0
LINE
  5
55C
  8
2
 10
137.8215315530679
 20
47.32961124247327
 30
0.0
 11
138.3215315530679
 21
47.829611242473277
 31
0.0
  0
LINE
  5
55D
  8
2
 10
138.321531553066
 20
47.32961124247327
 30
0.0
 11
138.32153155306591
 21
45.329610437809777
 31
0.0
  0
LINE
  5
55E
  8
2
 10
133.3215315530679
 20
47.329611242473391
 30
0.0
 11
133.32153155306801
 21
45.329610437810587
 31
0.0
  0
LINE
  5
55F
  8
2
 10
132.7215315530679
 20
47.329611242473362
 30
0.0
 11
132.7215315530679
 21
45.329610437810587
 31
0.0
  0
LINE
  5
560
  8
0
 10
133.3215315530679
 20
45.329610437810487
 30
0.0
 11
133.3215315530679
 21
27.529611242473269
 31
0.0
  0
LINE
  5
561
  8
3
 10
132.7215315530679
 20
45.329610437810487
 30
0.0
 11
132.7215315530679
 21
26.929611242473271
 31
0.0
  0
LINE
  5
562
  8
3
 10
125.92153155306799
 20
45.329610437810487
 30
0.0
 11
125.92153155306799
 21
26.929611242473271
 31
0.0
  0
LINE
  5
563
  8
0
 10
125.3215315530679
 20
45.329610437810487
 30
0.0
 11
125.3215315530679
 21
27.529611242473269
 31
0.0
  0
LINE
  5
564
  8
2
 10
120.3215315530679
 20
69.387991242473277
 30
0.0
 11
138.3215315530679
 21
69.387991242473277
 31
0.0
  0
LINE
  5
565
  8
2
 10
137.8215315530679
 20
70.129611242473246
 30
0.0
 11
137.8215315530679
 21
70.329611242473277
 31
0.0
  0
ARC
  5
566
  8
2
 10
138.62153155306791
 20
70.129611242473246
 30
0.0
 40
0.8
 50
180.0
 51
247.9756869999986
  0
ARC
  5
567
  8
2
 10
120.0215315530679
 20
70.129611242473246
 30
0.0
 40
0.8
 50
292.02431300000143
 51
0.0
  0
LINE
  5
568
  8
2
 10
120.8215315530679
 20
70.129611242473246
 30
0.0
 11
120.8215315530679
 21
70.329611242473277
 31
0.0
  0
LINE
  5
569
  8
0
 10
126.5215315530678
 20
26.32961124247328
 30
0.0
 11
132.12153155306791
 21
26.32961124247328
 31
0.0
  0
LINE
  5
56A
  8
0
 10
125.3215315530678
 20
27.52961124247328
 30
0.0
 11
133.32153155306781
 21
27.52961124247328
 31
0.0
  0
LINE
  5
56B
  8
0
 10
133.32153155306781
 20
27.52961124247328
 30
0.0
 11
132.12153155306791
 21
26.32961124247328
 31
0.0
  0
LINE
  5
56C
  8
0
 10
125.3215315530678
 20
27.52961124247328
 30
0.0
 11
126.5215315530678
 21
26.32961124247328
 31
0.0
  0
LINE
  5
56D
  8
3
 10
53.185901568527491
 20
45.329610869944197
 30
0.0
 11
53.185901568527491
 21
26.929611674606988
 31
0.0
  0
LINE
  5
56E
  8
0
 10
52.585901568527468
 20
45.329610869944197
 30
0.0
 11
52.585901568527468
 21
27.529611674607001
 31
0.0
  0
LINE
  5
56F
  8
2
 10
60.58590156852744
 20
47.329611674607087
 30
0.0
 11
60.585901568527497
 21
45.329610869944318
 31
0.0
  0
LINE
  5
570
  8
2
 10
59.985901568527417
 20
47.329611674607072
 30
0.0
 11
59.985901568527453
 21
45.329610869944297
 31
0.0
  0
LINE
  5
571
  8
0
 10
53.785901568527457
 20
26.32961167460698
 30
0.0
 11
59.385901568527487
 21
26.32961167460698
 31
0.0
  0
LINE
  5
572
  8
0
 10
52.585901568527468
 20
27.529611674607001
 30
0.0
 11
60.585901568527483
 21
27.529611674607001
 31
0.0
  0
LINE
  5
573
  8
0
 10
60.585901568527483
 20
27.529611674607001
 30
0.0
 11
59.385901568527487
 21
26.32961167460698
 31
0.0
  0
LINE
  5
574
  8
0
 10
52.585901568527468
 20
27.529611674607001
 30
0.0
 11
53.785901568527457
 21
26.32961167460698
 31
0.0
  0
LINE
  5
575
  8
0
 10
60.585901568527483
 20
45.329610869944197
 30
0.0
 11
60.585901568527483
 21
27.529611674607001
 31
0.0
  0
LINE
  5
576
  8
3
 10
59.985901568527453
 20
45.329610869944197
 30
0.0
 11
59.985901568527453
 21
26.929611674606988
 31
0.0
  0
LINE
  5
577
  8
2
 10
52.585901568527468
 20
47.32961167460698
 30
0.0
 11
52.585901568527468
 21
45.329610869944197
 31
0.0
  0
LINE
  5
578
  8
2
 10
53.185901568527491
 20
47.32961167460698
 30
0.0
 11
53.185901568527527
 21
45.329610869944212
 31
0.0
  0
LINE
  5
579
  8
2
 10
65.085901568527476
 20
47.32961167460698
 30
0.0
 11
48.085901568527483
 21
47.32961167460698
 31
0.0
  0
LINE
  5
57A
  8
2
 10
48.085901568527483
 20
47.32961167460698
 30
0.0
 11
47.585901568527468
 21
47.829611674606973
 31
0.0
  0
LINE
  5
57B
  8
2
 10
65.085901568527476
 20
47.32961167460698
 30
0.0
 11
65.585901568527476
 21
47.829611674606973
 31
0.0
  0
LINE
  5
57C
  8
2
 10
47.585901568527468
 20
47.829611674606973
 30
0.0
 11
65.585901568527476
 21
47.829611674606973
 31
0.0
  0
LINE
  5
57D
  8
2
 10
78.885901568527572
 20
55.329610646426907
 30
0.0
 11
78.885901568527572
 21
45.329610869944197
 31
0.0
  0
LINE
  5
57E
  8
2
 10
72.285901568527549
 20
55.329610646426907
 30
0.0
 11
72.285901568527549
 21
45.329610869944197
 31
0.0
  0
LINE
  5
57F
  8
1
 10
75.585901568527561
 20
43.829610869944368
 30
0.0
 11
75.585901568527561
 21
56.829610869944347
 31
0.0
  0
LINE
  5
580
  8
2
 10
65.585901568525571
 20
47.329611674606987
 30
0.0
 11
65.585901568525401
 21
45.329610869943487
 31
0.0
  0
LINE
  5
581
  8
2
 10
47.585901568527497
 20
47.329611674606987
 30
0.0
 11
47.585901568527497
 21
45.329610869944197
 31
0.0
  0
LINE
  5
582
  8
2
 10
40.885901568527451
 20
55.329610646426929
 30
0.0
 11
40.885901568527451
 21
45.329610869944212
 31
0.0
  0
LINE
  5
583
  8
2
 10
34.285901568527493
 20
55.329610646426943
 30
0.0
 11
34.285901568527493
 21
45.329610869944212
 31
0.0
  0
LINE
  5
584
  8
1
 10
37.585901568527561
 20
43.829610869944233
 30
0.0
 11
37.585901568527511
 21
56.829610869944233
 31
0.0
  0
LINE
  5
585
  8
0
 10
44.585901464219234
 20
55.3296106464269
 30
0.0
 11
31.585901195998328
 21
55.32961064642695
 31
0.0
  0
LINE
  5
586
  8
0
 10
31.585901195998328
 20
45.329610869944368
 30
0.0
 11
31.585901195998328
 21
55.32961064642695
 31
0.0
  0
LINE
  5
587
  8
0
 10
31.585901195998449
 20
45.329610869944197
 30
0.0
 11
81.585901941056505
 21
45.329610869944197
 31
0.0
  0
LINE
  5
588
  8
0
 10
81.585901941056505
 20
45.329610869944368
 30
0.0
 11
81.585901941056505
 21
55.32961064642695
 31
0.0
  0
LINE
  5
589
  8
0
 10
68.585901672835604
 20
55.3296106464269
 30
0.0
 11
81.585901941056505
 21
55.32961064642695
 31
0.0
  0
LINE
  5
58A
  8
2
 10
65.585901568527476
 20
69.387991674606994
 30
0.0
 11
65.585901568527476
 21
47.829611674606973
 31
0.0
  0
ARC
  5
58B
  8
2
 10
65.885901568527487
 20
70.129611674606977
 30
0.0
 40
0.8
 50
180.0
 51
247.9756869999986
  0
LINE
  5
58C
  8
2
 10
47.585901568527468
 20
69.387991674606994
 30
0.0
 11
65.585901568527476
 21
69.387991674606994
 31
0.0
  0
ARC
  5
58D
  8
2
 10
47.285901568527457
 20
70.129611674606977
 30
0.0
 40
0.8
 50
292.02431300000143
 51
0.0
  0
LINE
  5
58E
  8
2
 10
47.585901568527468
 20
69.387991674606994
 30
0.0
 11
47.585901568527468
 21
47.829611674606973
 31
0.0
  0
CIRCLE
  5
5AE
  8
0
 10
129.32153155306781
 20
143.06524079488011
 30
0.0
 40
6.5
  0
LINE
  5
5AF
  8
0
 10
127.589480745499
 20
140.06524079488
 30
0.0
 11
125.85742993793021
 21
143.06524079488011
 31
0.0
  0
LINE
  5
5B0
  8
0
 10
125.85742993793021
 20
143.06524079488011
 30
0.0
 11
127.589480745499
 21
146.06524079488011
 31
0.0
  0
LINE
  5
5B1
  8
0
 10
127.589480745499
 20
146.06524079488011
 30
0.0
 11
131.05358236063671
 21
146.06524079488011
 31
0.0
  0
LINE
  5
5B2
  8
0
 10
131.05358236063671
 20
146.06524079488011
 30
0.0
 11
132.78563316820549
 21
143.06524079488011
 31
0.0
  0
LINE
  5
5B3
  8
0
 10
132.78563316820549
 20
143.06524079488011
 30
0.0
 11
131.05358236063671
 21
140.06524079488
 31
0.0
  0
LINE
  5
5B4
  8
0
 10
131.05358236063671
 20
140.06524079488
 30
0.0
 11
127.5894807454988
 21
140.06524079488
 31
0.0
  0
CIRCLE
  5
5B5
  8
0
 10
129.32153155306781
 20
143.06524079488011
 30
0.0
 40
5.633974596214216
  0
TEXT
  5
607
  8
0
 62
     3
 10
0.0
 20
0.0
 30
0.0
 40
10.0
  1
BJ130-08020B1
  7
STANDARD1
  0
ENDSEC
  0
EOF
