  0
SECTION
  2
HEADER
  9
$ACADVER
  1
AC1009
  9
$INSBASE
 10
0.0
 20
0.0
 30
0.0
  9
$EXTMIN
 10
0.0
 20
-1.4802182810368341
 30
0.0
  9
$EXTMAX
 10
159.11984061157881
 20
117.8529676258992
 30
0.0
  9
$LIMMIN
 10
0.0
 20
0.0
  9
$LIMMAX
 10
187.5
 20
135.0
  9
$ORTHOMODE
 70
     1
  9
$REGENMODE
 70
     1
  9
$FILLMODE
 70
     1
  9
$QTEXTMODE
 70
     0
  9
$MIRRTEXT
 70
     0
  9
$DRAGMODE
 70
     2
  9
$LTSCALE
 40
5.0
  9
$OSMODE
 70
  3071
  9
$ATTMODE
 70
     1
  9
$TEXTSIZE
 40
2.5000000000000488
  9
$TRACEWID
 40
0.05
  9
$TEXTSTYLE
  7
STANDARD
  9
$CLAYER
  8
4
  9
$CELTYPE
  6
BYLAYER
  9
$CECOLOR
 62
   256
  9
$DIMSCALE
 40
0.5
  9
$DIMASZ
 40
3.0
  9
$DIMEXO
 40
2.0
  9
$DIMDLI
 40
0.38
  9
$DIMRND
 40
0.0
  9
$DIMDLE
 40
0.0
  9
$DIMEXE
 40
2.0
  9
$DIMTP
 40
0.0
  9
$DIMTM
 40
0.0
  9
$DIMTXT
 40
3.2000000000000002
  9
$DIMCEN
 40
0.0
  9
$DIMTSZ
 40
0.0
  9
$DIMTOL
 70
     0
  9
$DIMLIM
 70
     0
  9
$DIMTIH
 70
     0
  9
$DIMTOH
 70
     0
  9
$DIMSE1
 70
     0
  9
$DIMSE2
 70
     0
  9
$DIMTAD
 70
     1
  9
$DIMZIN
 70
     0
  9
$DIMBLK
  1

  9
$DIMASO
 70
     0
  9
$DIMSHO
 70
     0
  9
$DIMPOST
  1

  9
$DIMAPOST
  1

  9
$DIMALT
 70
     0
  9
$DIMALTD
 70
     2
  9
$DIMALTF
 40
25.399999999999999
  9
$DIMLFAC
 40
1.0
  9
$DIMTOFL
 70
     1
  9
$DIMTVP
 40
1.6000000000000001
  9
$DIMTIX
 70
     1
  9
$DIMSOXD
 70
     0
  9
$DIMSAH
 70
     0
  9
$DIMBLK1
  1

  9
$DIMBLK2
  1

  9
$DIMSTYLE
  2
STANDARD
  9
$DIMCLRD
 70
     0
  9
$DIMCLRE
 70
     0
  9
$DIMCLRT
 70
     0
  9
$DIMTFAC
 40
1.0
  9
$DIMGAP
 40
0.09
  9
$LUNITS
 70
     2
  9
$LUPREC
 70
     4
  9
$SKETCHINC
 40
0.1
  9
$FILLETRAD
 40
0.4
  9
$AUNITS
 70
     0
  9
$AUPREC
 70
     4
  9
$MENU
  1
E:\r13\win\SUPPORT\ACAD
  9
$ELEVATION
 40
0.0
  9
$PELEVATION
 40
0.0
  9
$THICKNESS
 40
0.0
  9
$LIMCHECK
 70
     0
  9
$BLIPMODE
 70
     0
  9
$CHAMFERA
 40
0.0
  9
$CHAMFERB
 40
0.0
  9
$SKPOLY
 70
     0
  9
$TDCREATE
 40
2449840.6218750002
  9
$TDUPDATE
 40
2456597.5952075231
  9
$TDINDWG
 40
0.0006298843
  9
$TDUSRTIMER
 40
0.0006298843
  9
$USRTIMER
 70
     1
  9
$ANGBASE
 50
0.0
  9
$ANGDIR
 70
     0
  9
$PDMODE
 70
     0
  9
$PDSIZE
 40
0.0
  9
$PLINEWID
 40
0.0
  9
$COORDS
 70
     1
  9
$SPLFRAME
 70
     0
  9
$SPLINETYPE
 70
     6
  9
$SPLINESEGS
 70
     8
  9
$ATTDIA
 70
     0
  9
$ATTREQ
 70
     1
  9
$HANDLING
 70
     1
  9
$HANDSEED
  5
22F
  9
$SURFTAB1
 70
     6
  9
$SURFTAB2
 70
     6
  9
$SURFTYPE
 70
     6
  9
$SURFU
 70
     6
  9
$SURFV
 70
     6
  9
$UCSNAME
  2

  9
$UCSORG
 10
0.0
 20
0.0
 30
0.0
  9
$UCSXDIR
 10
1.0
 20
0.0
 30
0.0
  9
$UCSYDIR
 10
0.0
 20
1.0
 30
0.0
  9
$PUCSNAME
  2

  9
$PUCSORG
 10
0.0
 20
0.0
 30
0.0
  9
$PUCSXDIR
 10
1.0
 20
0.0
 30
0.0
  9
$PUCSYDIR
 10
0.0
 20
1.0
 30
0.0
  9
$USERI1
 70
     0
  9
$USERI2
 70
     1
  9
$USERI3
 70
     0
  9
$USERI4
 70
     0
  9
$USERI5
 70
     0
  9
$USERR1
 40
0.0
  9
$USERR2
 40
0.0
  9
$USERR3
 40
0.0
  9
$USERR4
 40
0.0
  9
$USERR5
 40
0.0
  9
$WORLDVIEW
 70
     1
  9
$SHADEDGE
 70
     3
  9
$SHADEDIF
 70
    70
  9
$TILEMODE
 70
     1
  9
$MAXACTVP
 70
    16
  9
$PLIMCHECK
 70
     0
  9
$PEXTMIN
 10
1.0000000000000000E+020
 20
1.0000000000000000E+020
 30
1.0000000000000000E+020
  9
$PEXTMAX
 10
-1.0000000000000000E+020
 20
-1.0000000000000000E+020
 30
-1.0000000000000000E+020
  9
$PLIMMIN
 10
0.0
 20
0.0
  9
$PLIMMAX
 10
12.0
 20
9.0
  9
$UNITMODE
 70
     0
  9
$VISRETAIN
 70
     0
  9
$PLINEGEN
 70
     0
  9
$PSLTSCALE
 70
     0
  0
ENDSEC
  0
SECTION
  2
TABLES
  0
TABLE
  2
VPORT
 70
     1
  0
VPORT
  2
*ACTIVE
 70
     0
 10
0.0
 20
0.0
 11
1.0
 21
1.0
 12
97.52905416604365
 22
66.75636307133405
 13
0.0
 23
0.0
 14
5.0
 24
5.0
 15
5.0
 25
5.0
 16
0.0
 26
0.0
 36
1.0
 17
0.0
 27
0.0
 37
0.0
 40
137.71137496815999
 41
1.831871345029239
 42
50.0
 43
0.0
 44
0.0
 50
0.0
 51
0.0
 71
     0
 72
   500
 73
     1
 74
     0
 75
     0
 76
     0
 77
     0
 78
     2
  0
ENDTAB
  0
TABLE
  2
LTYPE
 70
     4
  0
LTYPE
  2
CONTINUOUS
 70
     0
  3
Solid Line
 72
    65
 73
     0
 40
0.0
  0
LTYPE
  2
CENTER
 70
     0
  3
____ _ ____ _ ____ _ ____ _ ____ _ ____ _ ____
 72
    65
 73
     4
 40
2.0
 49
1.25
 49
-0.25
 49
0.25
 49
-0.25
  0
LTYPE
  2
HIDDEN
 70
     0
  3
_ _ _ _ _ _ _ _ _ _ _ _ _ _ _ _ _ _ _ _ _ _ _
 72
    65
 73
     2
 40
0.375
 49
0.25
 49
-0.125
  0
LTYPE
  2
PHANTOM2
 70
     0
  3
___ _ _ ___ _ _ ___ _ _ ___ _ _
 72
    65
 73
     6
 40
1.25
 49
0.625
 49
-0.125
 49
0.125
 49
-0.125
 49
0.125
 49
-0.125
  0
ENDTAB
  0
TABLE
  2
LAYER
 70
     5
  0
LAYER
  2
0
 70
     0
 62
     7
  6
CONTINUOUS
  0
LAYER
  2
1
 70
     0
 62
     1
  6
CENTER
  0
LAYER
  2
2
 70
     0
 62
     2
  6
HIDDEN
  0
LAYER
  2
3
 70
     0
 62
     3
  6
CONTINUOUS
  0
LAYER
  2
4
 70
     0
 62
     4
  6
CONTINUOUS
  0
ENDTAB
  0
TABLE
  2
STYLE
 70
     2
  0
STYLE
  2
STANDARD
 70
     0
 40
0.0
 41
1.0
 50
0.0
 71
     0
 42
2.5000000000000488
  3
TXT
  4
BIGFONT
  0
STYLE
  2
STANDARD1
 70
     0
 40
0.0
 41
1.0
 50
0.0
 71
     0
 42
3.0
  3
txt
  4

  0
ENDTAB
  0
TABLE
  2
VIEW
 70
     1
  0
VIEW
  2
ALL
 70
     0
 40
135.0
 10
110.4957983193277
 20
67.5
 41
0.0
 11
0.0
 21
0.0
 31
1.0
 12
0.0
 22
0.0
 32
0.0
 42
0.0
 43
0.0
 44
0.0
 50
0.0
 71
     0
  0
ENDTAB
  0
TABLE
  2
UCS
 70
     0
  0
ENDTAB
  0
TABLE
  2
APPID
 70
     3
  0
APPID
  2
ACAD
 70
     0
  0
APPID
  2
ACAD_MLEADERVER
 70
     0
  0
APPID
  2
ACAD_NAV_VCDISPLAY
 70
     0
  0
ENDTAB
  0
TABLE
  2
DIMSTYLE
 70
     1
  0
DIMSTYLE
  2
STANDARD
 70
     0
  3

  4

  5

  6

  7

 40
1.0
 41
0.18
 42
0.0625
 43
0.38
 44
0.18
 45
0.0
 46
0.0
 47
0.0
 48
0.0
140
0.18
141
0.09
142
0.0
143
25.399999999999999
144
1.0
145
0.0
146
1.0
147
0.09
 71
     0
 72
     0
 73
     1
 74
     1
 75
     0
 76
     0
 77
     0
 78
     0
170
     0
171
     2
172
     0
173
     0
174
     0
175
     0
176
     0
177
     0
178
     0
  0
ENDTAB
  0
ENDSEC
  0
SECTION
  2
BLOCKS
  0
BLOCK
  8
0
  2
$MODEL_SPACE
 70
     0
 10
0.0
 20
0.0
 30
0.0
  3
$MODEL_SPACE
  1

  0
ENDBLK
  5
E1
  8
0
  0
BLOCK
 67
     1
  8
0
  2
$PAPER_SPACE
 70
     0
 10
0.0
 20
0.0
 30
0.0
  3
$PAPER_SPACE
  1

  0
ENDBLK
  5
DF
 67
     1
  8
0
  0
ENDSEC
  0
SECTION
  2
ENTITIES
  0
CIRCLE
  5
37
  8
0
 10
35.0
 20
69.741456834532372
 30
0.0
 40
4.3071796769724946
  0
LINE
  5
38
  8
0
 10
32.500000000000277
 20
68.298081161558514
 30
0.0
 11
35.000000000000277
 21
66.854705488584401
 31
0.0
  0
LINE
  5
39
  8
0
 10
35.000000000000277
 20
66.854705488584401
 30
0.0
 11
37.5
 21
68.298081161558514
 31
0.0
  0
LINE
  5
3A
  8
0
 10
37.5
 20
68.298081161558514
 30
0.0
 11
37.5
 21
71.184832507507053
 31
0.0
  0
LINE
  5
3B
  8
0
 10
37.5
 20
71.184832507507053
 30
0.0
 11
35.0
 21
72.628208180480627
 31
0.0
  0
LINE
  5
3C
  8
0
 10
35.0
 20
72.628208180480627
 30
0.0
 11
32.499999999999723
 21
71.184832507506215
 31
0.0
  0
LINE
  5
3D
  8
0
 10
32.499999999999723
 20
71.184832507506215
 30
0.0
 11
32.500000000000277
 21
68.298081161558514
 31
0.0
  0
CIRCLE
  5
3E
  8
0
 10
35.0
 20
69.741456834532372
 30
0.0
 40
5.0
  0
LINE
  5
3F
  8
3
 10
81.380749267636205
 20
67.282956834532314
 30
0.0
 11
80.442843755337805
 21
66.741456834532414
 31
0.0
  0
LINE
  5
40
  8
3
 10
81.380749267636205
 20
72.199956834532443
 30
0.0
 11
80.442843755337805
 21
72.741456834532357
 31
0.0
  0
LINE
  5
41
  8
0
 10
81.380749267636133
 20
66.741456834532343
 30
0.0
 11
81.380749267636205
 21
72.741456834532329
 31
0.0
  0
LINE
  5
42
  8
0
 10
80.842843755337711
 20
72.741456834532357
 30
0.0
 11
103.643805649661
 21
72.741456834532357
 31
0.0
  0
LINE
  5
43
  8
3
 10
81.380749267636176
 20
72.199956834532443
 30
0.0
 11
104.5817111619594
 21
72.199956834532443
 31
0.0
  0
LINE
  5
44
  8
3
 10
81.380749267636133
 20
67.282956834532271
 30
0.0
 11
104.5817111619594
 21
67.282956834532285
 31
0.0
  0
LINE
  5
45
  8
0
 10
80.842843755337697
 20
66.741456834532357
 30
0.0
 11
103.643805649661
 21
66.741456834532357
 31
0.0
  0
LINE
  5
46
  8
0
 10
104.94284375533771
 20
71.991456834532329
 30
0.0
 11
104.94284375533761
 21
67.491456834532329
 31
0.0
  0
LINE
  5
47
  8
0
 10
74.842843755337682
 20
64.741456834532386
 30
0.0
 11
74.442843755337719
 21
65.434277157559805
 31
0.0
  0
LINE
  5
48
  8
0
 10
74.842843755337711
 20
74.741456834532372
 30
0.0
 11
74.442843755337705
 21
74.048636511504839
 31
0.0
  0
LINE
  5
49
  8
0
 10
74.842843755337711
 20
64.741456834532372
 30
0.0
 11
74.842843755337697
 21
74.741456834532386
 31
0.0
  0
LINE
  5
4A
  8
0
 10
74.442843755337705
 20
65.434277157559833
 30
0.0
 11
74.442843755337705
 21
74.048636511504853
 31
0.0
  0
LINE
  5
4B
  8
0
 10
80.442843755337705
 20
64.741456834532372
 30
0.0
 11
74.842843755337711
 21
64.741456834532372
 31
0.0
  0
LINE
  5
4C
  8
0
 10
80.442843755337705
 20
74.741456834532372
 30
0.0
 11
80.442843755337677
 21
64.741456834532357
 31
0.0
  0
LINE
  5
4D
  8
0
 10
74.842843755337697
 20
74.741456834532386
 30
0.0
 11
80.442843755337705
 21
74.741456834532372
 31
0.0
  0
LINE
  5
4E
  8
1
 10
42.5
 20
69.741456834532372
 30
0.0
 11
27.5
 21
69.741456834532372
 31
0.0
  0
LINE
  5
4F
  8
1
 10
35.0
 20
77.241456834532372
 30
0.0
 11
35.0
 21
62.241456834532372
 31
0.0
  0
LINE
  5
50
  8
1
 10
71.942843755337705
 20
69.741456834532329
 30
0.0
 11
108.8428437553373
 21
69.741456834532329
 31
0.0
  0
LINE
  5
51
  8
0
 10
104.94284375533771
 20
71.991456834532343
 30
0.0
 11
103.643805649661
 21
72.741456834532357
 31
0.0
  0
LINE
  5
52
  8
0
 10
104.94284375533771
 20
67.491456834532343
 30
0.0
 11
103.643805649661
 21
66.741456834532315
 31
0.0
  0
LINE
  5
53
  8
0
 10
103.643805649661
 20
72.741456834532357
 30
0.0
 11
103.643805649661
 21
66.741456834532357
 31
0.0
  0
LINE
  5
54
  8
2
 10
77.442843755337705
 20
72.628208180480627
 30
0.0
 11
77.442843755337705
 21
66.854705488584585
 31
0.0
  0
LINE
  5
55
  8
2
 10
74.442843755337762
 20
72.628208180480627
 30
0.0
 11
77.442843755337705
 21
72.628208180480627
 31
0.0
  0
LINE
  5
56
  8
2
 10
74.442843755337705
 20
71.184832507507053
 30
0.0
 11
77.442843755337705
 21
71.184832507507053
 31
0.0
  0
LINE
  5
57
  8
2
 10
74.442843755337705
 20
68.298081161558542
 30
0.0
 11
77.442843755337705
 21
68.298081161558542
 31
0.0
  0
LINE
  5
58
  8
2
 10
74.442843755337705
 20
66.854705488584585
 30
0.0
 11
77.442843755337705
 21
66.854705488584585
 31
0.0
  0
LINE
  5
59
  8
1
 10
104.3428437553373
 20
74.241456834532357
 30
0.0
 11
104.3428437553373
 21
65.241456834532357
 31
0.0
  0
LINE
  5
5A
  8
4
 10
61.0
 20
64.741456834532372
 30
0.0
 11
61.0
 21
64.741456834532372
 31
0.0
  0
LINE
  5
5B
  8
2
 10
77.442843755337705
 20
66.854705488584585
 30
0.0
 11
79.109510422004178
 21
69.741456834532343
 31
0.0
  0
LINE
  5
5C
  8
2
 10
77.442843755337705
 20
72.628208180480101
 30
0.0
 11
79.109510422004178
 21
69.741456834532329
 31
0.0
  0
ARC
  5
5D
  8
0
 10
80.842843755337711
 20
73.141456834532363
 30
0.0
 40
0.4
 50
180.0
 51
269.99999999999989
  0
ARC
  5
5E
  8
0
 10
80.842843755337697
 20
66.341456834532352
 30
0.0
 40
0.4
 50
90.0
 51
179.99999999999989
  0
ARC
  5
5F
  8
0
 10
104.3428437553373
 20
69.741456834532329
 30
0.0
 40
2.0
 50
287.45760312372869
 51
72.542396876270033
  0
ARC
  5
60
  8
2
 10
104.3428437553373
 20
69.741456834532329
 30
0.0
 40
2.0
 50
72.542396876265926
 51
287.45760312373272
  0
LINE
  5
69
  8
1
 10
151.61984061157881
 20
77.241456834532372
 30
0.0
 11
151.61984061157881
 21
62.241456834532372
 31
0.0
  0
LINE
  5
6A
  8
1
 10
159.11984061157881
 20
69.741456834532372
 30
0.0
 11
144.11984061157881
 21
69.741456834532372
 31
0.0
  0
CIRCLE
  5
6B
  8
0
 10
151.61984061157881
 20
69.741456834532372
 30
0.0
 40
5.0
  0
CIRCLE
  5
6C
  8
0
 10
151.61984061157881
 20
69.741456834532372
 30
0.0
 40
3.000000000000028
  0
CIRCLE
  5
6D
  8
0
 10
151.61984061157881
 20
69.741456834532372
 30
0.0
 40
1.907878402833759
  0
ARC
  5
6E
  8
2
 10
104.3428437553373
 20
112.8529676258992
 30
0.0
 40
2.0
 50
72.542396876265926
 51
287.45760312373272
  0
ARC
  5
6F
  8
0
 10
104.3428437553373
 20
112.8529676258992
 30
0.0
 40
2.0
 50
287.45760312372869
 51
72.542396876270033
  0
ARC
  5
70
  8
0
 10
80.842843755337697
 20
109.45296762589921
 30
0.0
 40
0.4
 50
90.0
 51
179.99999999999989
  0
ARC
  5
71
  8
0
 10
80.842843755337711
 20
116.2529676258992
 30
0.0
 40
0.4
 50
180.0
 51
269.99999999999989
  0
LINE
  5
72
  8
4
 10
61.0
 20
107.8529676258992
 30
0.0
 11
61.0
 21
107.8529676258992
 31
0.0
  0
LINE
  5
73
  8
1
 10
104.3428437553373
 20
117.3529676258992
 30
0.0
 11
104.3428437553373
 21
108.3529676258992
 31
0.0
  0
LINE
  5
74
  8
0
 10
103.643805649661
 20
115.8529676258992
 30
0.0
 11
103.643805649661
 21
109.8529676258992
 31
0.0
  0
LINE
  5
75
  8
0
 10
104.94284375533771
 20
110.6029676258992
 30
0.0
 11
103.643805649661
 21
109.8529676258992
 31
0.0
  0
LINE
  5
76
  8
0
 10
104.94284375533771
 20
115.1029676258992
 30
0.0
 11
103.643805649661
 21
115.8529676258992
 31
0.0
  0
LINE
  5
77
  8
1
 10
71.942843755337705
 20
112.8529676258992
 30
0.0
 11
108.8428437553373
 21
112.8529676258992
 31
0.0
  0
LINE
  5
78
  8
0
 10
74.842843755337697
 20
117.8529676258992
 30
0.0
 11
80.442843755337705
 21
117.8529676258992
 31
0.0
  0
LINE
  5
79
  8
0
 10
80.442843755337705
 20
117.8529676258992
 30
0.0
 11
80.442843755337677
 21
107.8529676258992
 31
0.0
  0
LINE
  5
7A
  8
0
 10
80.442843755337705
 20
107.8529676258992
 30
0.0
 11
74.842843755337711
 21
107.8529676258992
 31
0.0
  0
LINE
  5
7B
  8
0
 10
74.442843755337705
 20
108.5457879489267
 30
0.0
 11
74.442843755337705
 21
117.16014730287171
 31
0.0
  0
LINE
  5
7C
  8
0
 10
74.842843755337711
 20
107.8529676258992
 30
0.0
 11
74.842843755337697
 21
117.8529676258992
 31
0.0
  0
LINE
  5
7D
  8
0
 10
74.842843755337711
 20
117.8529676258992
 30
0.0
 11
74.442843755337705
 21
117.16014730287171
 31
0.0
  0
LINE
  5
7E
  8
0
 10
74.842843755337682
 20
107.8529676258993
 30
0.0
 11
74.442843755337719
 21
108.5457879489267
 31
0.0
  0
LINE
  5
7F
  8
0
 10
104.94284375533771
 20
115.1029676258992
 30
0.0
 11
104.94284375533761
 21
110.6029676258992
 31
0.0
  0
LINE
  5
80
  8
0
 10
80.842843755337697
 20
109.8529676258992
 30
0.0
 11
103.643805649661
 21
109.8529676258992
 31
0.0
  0
LINE
  5
81
  8
3
 10
81.380749267636133
 20
110.3944676258991
 30
0.0
 11
104.5817111619594
 21
110.3944676258992
 31
0.0
  0
LINE
  5
82
  8
3
 10
81.380749267636176
 20
115.3114676258993
 30
0.0
 11
104.5817111619594
 21
115.3114676258993
 31
0.0
  0
LINE
  5
83
  8
0
 10
80.842843755337711
 20
115.8529676258992
 30
0.0
 11
103.643805649661
 21
115.8529676258992
 31
0.0
  0
LINE
  5
84
  8
0
 10
81.380749267636133
 20
109.8529676258992
 30
0.0
 11
81.380749267636205
 21
115.8529676258992
 31
0.0
  0
LINE
  5
85
  8
3
 10
81.380749267636205
 20
115.3114676258993
 30
0.0
 11
80.442843755337805
 21
115.8529676258992
 31
0.0
  0
LINE
  5
86
  8
3
 10
81.380749267636205
 20
110.3944676258992
 30
0.0
 11
80.442843755337805
 21
109.8529676258993
 31
0.0
  0
CIRCLE
  5
87
  8
3
 10
151.61984061157881
 20
69.741456834532372
 30
0.0
 40
2.458500000000071
  0
LINE
  5
88
  8
2
 10
77.442843755337677
 20
115.3529676258992
 30
0.0
 11
77.442843755337677
 21
110.3529676258995
 31
0.0
  0
LINE
  5
89
  8
2
 10
74.442843755337691
 20
115.3529676258992
 30
0.0
 11
77.442843755337691
 21
115.3529676258992
 31
0.0
  0
LINE
  5
8A
  8
2
 10
74.442843755337691
 20
112.8529676258992
 30
0.0
 11
77.442843755337691
 21
112.8529676258992
 31
0.0
  0
LINE
  5
8B
  8
2
 10
74.442843755337691
 20
110.3529676258995
 30
0.0
 11
77.442843755337691
 21
110.3529676258995
 31
0.0
  0
LINE
  5
8C
  8
2
 10
77.442843755337677
 20
115.3529676258992
 30
0.0
 11
79.109510422004135
 21
112.8529676258992
 31
0.0
  0
LINE
  5
8D
  8
2
 10
77.442843755337677
 20
110.3529676258995
 30
0.0
 11
79.109510422004135
 21
112.8529676258992
 31
0.0
  0
LINE
  5
8E
  8
2
 10
77.442843755337677
 20
25.72167266187077
 30
0.0
 11
79.109510422004135
 21
28.221672661870489
 31
0.0
  0
LINE
  5
8F
  8
2
 10
77.442843755337677
 20
30.7216726618705
 30
0.0
 11
79.109510422004135
 21
28.221672661870489
 31
0.0
  0
LINE
  5
90
  8
2
 10
74.442843755337691
 20
25.72167266187078
 30
0.0
 11
77.442843755337691
 21
25.72167266187077
 31
0.0
  0
LINE
  5
91
  8
2
 10
74.442843755337691
 20
28.221672661870489
 30
0.0
 11
77.442843755337691
 21
28.221672661870489
 31
0.0
  0
LINE
  5
92
  8
2
 10
74.442843755337691
 20
30.7216726618705
 30
0.0
 11
77.442843755337691
 21
30.7216726618705
 31
0.0
  0
LINE
  5
93
  8
2
 10
77.442843755337677
 20
30.7216726618705
 30
0.0
 11
77.442843755337677
 21
25.72167266187077
 31
0.0
  0
LINE
  5
94
  8
3
 10
81.380749267636205
 20
25.76317266187046
 30
0.0
 11
80.442843755337805
 21
25.221672661870539
 31
0.0
  0
LINE
  5
95
  8
3
 10
81.380749267636205
 20
30.680172661870571
 30
0.0
 11
80.442843755337805
 21
31.221672661870478
 31
0.0
  0
LINE
  5
96
  8
0
 10
81.380749267636133
 20
25.221672661870471
 30
0.0
 11
81.380749267636205
 21
31.221672661870461
 31
0.0
  0
LINE
  5
97
  8
0
 10
80.842843755337711
 20
31.221672661870478
 30
0.0
 11
103.643805649661
 21
31.221672661870478
 31
0.0
  0
LINE
  5
98
  8
3
 10
81.380749267636176
 20
30.680172661870571
 30
0.0
 11
104.5817111619594
 21
30.680172661870571
 31
0.0
  0
LINE
  5
99
  8
3
 10
81.380749267636133
 20
25.763172661870399
 30
0.0
 11
104.5817111619594
 21
25.763172661870421
 31
0.0
  0
LINE
  5
9A
  8
0
 10
80.842843755337697
 20
25.221672661870489
 30
0.0
 11
103.643805649661
 21
25.221672661870489
 31
0.0
  0
LINE
  5
9B
  8
0
 10
104.94284375533771
 20
30.471672661870461
 30
0.0
 11
104.94284375533761
 21
25.971672661870461
 31
0.0
  0
LINE
  5
9C
  8
0
 10
74.842843755337682
 20
23.22167266187051
 30
0.0
 11
74.442843755337719
 21
23.914492984897951
 31
0.0
  0
LINE
  5
9D
  8
0
 10
74.842843755337711
 20
33.2216726618705
 30
0.0
 11
74.442843755337705
 21
32.528852338842967
 31
0.0
  0
LINE
  5
9E
  8
0
 10
74.842843755337711
 20
23.2216726618705
 30
0.0
 11
74.842843755337697
 21
33.221672661870507
 31
0.0
  0
LINE
  5
9F
  8
0
 10
74.442843755337705
 20
23.914492984897961
 30
0.0
 11
74.442843755337705
 21
32.528852338842981
 31
0.0
  0
LINE
  5
A0
  8
0
 10
80.442843755337705
 20
23.2216726618705
 30
0.0
 11
74.842843755337711
 21
23.2216726618705
 31
0.0
  0
LINE
  5
A1
  8
0
 10
80.442843755337705
 20
33.2216726618705
 30
0.0
 11
80.442843755337677
 21
23.221672661870489
 31
0.0
  0
LINE
  5
A2
  8
0
 10
74.842843755337697
 20
33.221672661870507
 30
0.0
 11
80.442843755337705
 21
33.2216726618705
 31
0.0
  0
LINE
  5
A3
  8
1
 10
71.942843755337705
 20
28.221672661870461
 30
0.0
 11
108.8428437553373
 21
28.221672661870461
 31
0.0
  0
LINE
  5
A4
  8
0
 10
104.94284375533771
 20
30.471672661870471
 30
0.0
 11
103.643805649661
 21
31.221672661870478
 31
0.0
  0
LINE
  5
A5
  8
0
 10
104.94284375533771
 20
25.971672661870471
 30
0.0
 11
103.643805649661
 21
25.221672661870461
 31
0.0
  0
LINE
  5
A6
  8
0
 10
103.643805649661
 20
31.221672661870478
 30
0.0
 11
103.643805649661
 21
25.221672661870489
 31
0.0
  0
LINE
  5
A7
  8
1
 10
104.3428437553373
 20
32.721672661870493
 30
0.0
 11
104.3428437553373
 21
23.721672661870478
 31
0.0
  0
ARC
  5
A8
  8
0
 10
80.842843755337711
 20
31.621672661870491
 30
0.0
 40
0.4
 50
180.0
 51
269.99999999999989
  0
ARC
  5
A9
  8
0
 10
80.842843755337697
 20
24.82167266187048
 30
0.0
 40
0.4
 50
90.0
 51
179.99999999999989
  0
ARC
  5
AA
  8
0
 10
104.3428437553373
 20
28.221672661870461
 30
0.0
 40
2.0
 50
287.45760312372869
 51
72.542396876270033
  0
ARC
  5
AB
  8
2
 10
104.3428437553373
 20
28.221672661870461
 30
0.0
 40
2.0
 50
72.542396876265926
 51
287.45760312373272
  0
TEXT
  5
19E
  8
0
 62
     3
 10
0.0
 20
0.0
 30
0.0
 40
5.0
  1
BCR6X25
  7
STANDARD1
  0
ENDSEC
  0
EOF
