  0
SECTION
  2
HEADER
  9
$ACADVER
  1
AC1009
  9
$INSBASE
 10
0.0
 20
0.0
 30
0.0
  9
$EXTMIN
 10
0.0
 20
-1.4802182810368341
 30
0.0
  9
$EXTMAX
 10
145.412103
 20
106.551259
 30
0.0
  9
$LIMMIN
 10
0.0
 20
0.0
  9
$LIMMAX
 10
187.5
 20
135.0
  9
$ORTHOMODE
 70
     1
  9
$REGENMODE
 70
     1
  9
$FILLMODE
 70
     1
  9
$QTEXTMODE
 70
     0
  9
$MIRRTEXT
 70
     0
  9
$DRAGMODE
 70
     2
  9
$LTSCALE
 40
5.0
  9
$OSMODE
 70
  3071
  9
$ATTMODE
 70
     1
  9
$TEXTSIZE
 40
2.5600000000000001
  9
$TRACEWID
 40
0.05
  9
$TEXTSTYLE
  7
STANDARD
  9
$CLAYER
  8
0
  9
$CELTYPE
  6
BYLAYER
  9
$CECOLOR
 62
   256
  9
$DIMSCALE
 40
0.5
  9
$DIMASZ
 40
3.0
  9
$DIMEXO
 40
2.0
  9
$DIMDLI
 40
0.38
  9
$DIMRND
 40
0.0
  9
$DIMDLE
 40
0.0
  9
$DIMEXE
 40
2.0
  9
$DIMTP
 40
0.0
  9
$DIMTM
 40
0.0
  9
$DIMTXT
 40
3.2000000000000002
  9
$DIMCEN
 40
0.0
  9
$DIMTSZ
 40
0.0
  9
$DIMTOL
 70
     0
  9
$DIMLIM
 70
     0
  9
$DIMTIH
 70
     0
  9
$DIMTOH
 70
     0
  9
$DIMSE1
 70
     0
  9
$DIMSE2
 70
     0
  9
$DIMTAD
 70
     1
  9
$DIMZIN
 70
     0
  9
$DIMBLK
  1

  9
$DIMASO
 70
     0
  9
$DIMSHO
 70
     0
  9
$DIMPOST
  1

  9
$DIMAPOST
  1

  9
$DIMALT
 70
     0
  9
$DIMALTD
 70
     2
  9
$DIMALTF
 40
25.399999999999999
  9
$DIMLFAC
 40
1.0
  9
$DIMTOFL
 70
     1
  9
$DIMTVP
 40
1.6000000000000001
  9
$DIMTIX
 70
     1
  9
$DIMSOXD
 70
     0
  9
$DIMSAH
 70
     0
  9
$DIMBLK1
  1

  9
$DIMBLK2
  1

  9
$DIMSTYLE
  2
STANDARD
  9
$DIMCLRD
 70
     0
  9
$DIMCLRE
 70
     0
  9
$DIMCLRT
 70
     0
  9
$DIMTFAC
 40
1.0
  9
$DIMGAP
 40
0.09
  9
$LUNITS
 70
     2
  9
$LUPREC
 70
     4
  9
$SKETCHINC
 40
0.1
  9
$FILLETRAD
 40
0.4
  9
$AUNITS
 70
     0
  9
$AUPREC
 70
     4
  9
$MENU
  1
E:\r13\win\SUPPORT\ACAD
  9
$ELEVATION
 40
0.0
  9
$PELEVATION
 40
0.0
  9
$THICKNESS
 40
0.0
  9
$LIMCHECK
 70
     0
  9
$BLIPMODE
 70
     0
  9
$CHAMFERA
 40
0.0
  9
$CHAMFERB
 40
0.0
  9
$SKPOLY
 70
     0
  9
$TDCREATE
 40
2449840.622337963
  9
$TDUPDATE
 40
2456597.5951686921
  9
$TDINDWG
 40
0.0221485764
  9
$TDUSRTIMER
 40
0.0221485764
  9
$USRTIMER
 70
     1
  9
$ANGBASE
 50
0.0
  9
$ANGDIR
 70
     0
  9
$PDMODE
 70
     0
  9
$PDSIZE
 40
0.0
  9
$PLINEWID
 40
0.0
  9
$COORDS
 70
     1
  9
$SPLFRAME
 70
     0
  9
$SPLINETYPE
 70
     6
  9
$SPLINESEGS
 70
     8
  9
$ATTDIA
 70
     0
  9
$ATTREQ
 70
     1
  9
$HANDLING
 70
     1
  9
$HANDSEED
  5
287
  9
$SURFTAB1
 70
     6
  9
$SURFTAB2
 70
     6
  9
$SURFTYPE
 70
     6
  9
$SURFU
 70
     6
  9
$SURFV
 70
     6
  9
$UCSNAME
  2

  9
$UCSORG
 10
0.0
 20
0.0
 30
0.0
  9
$UCSXDIR
 10
1.0
 20
0.0
 30
0.0
  9
$UCSYDIR
 10
0.0
 20
1.0
 30
0.0
  9
$PUCSNAME
  2

  9
$PUCSORG
 10
0.0
 20
0.0
 30
0.0
  9
$PUCSXDIR
 10
1.0
 20
0.0
 30
0.0
  9
$PUCSYDIR
 10
0.0
 20
1.0
 30
0.0
  9
$USERI1
 70
     0
  9
$USERI2
 70
     1
  9
$USERI3
 70
     0
  9
$USERI4
 70
     0
  9
$USERI5
 70
     0
  9
$USERR1
 40
0.0
  9
$USERR2
 40
0.0
  9
$USERR3
 40
0.0
  9
$USERR4
 40
0.0
  9
$USERR5
 40
0.0
  9
$WORLDVIEW
 70
     1
  9
$SHADEDGE
 70
     3
  9
$SHADEDIF
 70
    70
  9
$TILEMODE
 70
     1
  9
$MAXACTVP
 70
    16
  9
$PLIMCHECK
 70
     0
  9
$PEXTMIN
 10
1.0000000000000000E+020
 20
1.0000000000000000E+020
 30
1.0000000000000000E+020
  9
$PEXTMAX
 10
-1.0000000000000000E+020
 20
-1.0000000000000000E+020
 30
-1.0000000000000000E+020
  9
$PLIMMIN
 10
0.0
 20
0.0
  9
$PLIMMAX
 10
12.0
 20
9.0
  9
$UNITMODE
 70
     0
  9
$VISRETAIN
 70
     0
  9
$PLINEGEN
 70
     0
  9
$PSLTSCALE
 70
     0
  0
ENDSEC
  0
SECTION
  2
TABLES
  0
TABLE
  2
VPORT
 70
     1
  0
VPORT
  2
*ACTIVE
 70
     0
 10
0.0
 20
0.0
 11
1.0
 21
1.0
 12
97.52905416604365
 22
66.75636307133405
 13
0.0
 23
0.0
 14
5.0
 24
5.0
 15
5.0
 25
5.0
 16
0.0
 26
0.0
 36
1.0
 17
0.0
 27
0.0
 37
0.0
 40
137.71137496815999
 41
1.831871345029239
 42
50.0
 43
0.0
 44
0.0
 50
0.0
 51
0.0
 71
     0
 72
   100
 73
     1
 74
     0
 75
     0
 76
     0
 77
     0
 78
     2
  0
ENDTAB
  0
TABLE
  2
LTYPE
 70
     4
  0
LTYPE
  2
CONTINUOUS
 70
     0
  3
Solid Line
 72
    65
 73
     0
 40
0.0
  0
LTYPE
  2
CENTER
 70
     0
  3
____ _ ____ _ ____ _ ____ _ ____ _ ____ _ ____
 72
    65
 73
     4
 40
2.0
 49
1.25
 49
-0.25
 49
0.25
 49
-0.25
  0
LTYPE
  2
HIDDEN
 70
     0
  3
_ _ _ _ _ _ _ _ _ _ _ _ _ _ _ _ _ _ _ _ _ _ _
 72
    65
 73
     2
 40
0.375
 49
0.25
 49
-0.125
  0
LTYPE
  2
PHANTOM2
 70
     0
  3
___ _ _ ___ _ _ ___ _ _ ___ _ _
 72
    65
 73
     6
 40
1.25
 49
0.625
 49
-0.125
 49
0.125
 49
-0.125
 49
0.125
 49
-0.125
  0
ENDTAB
  0
TABLE
  2
LAYER
 70
     4
  0
LAYER
  2
0
 70
     0
 62
     7
  6
CONTINUOUS
  0
LAYER
  2
1
 70
     0
 62
     1
  6
CENTER
  0
LAYER
  2
2
 70
     0
 62
     2
  6
HIDDEN
  0
LAYER
  2
3
 70
     0
 62
     3
  6
CONTINUOUS
  0
ENDTAB
  0
TABLE
  2
STYLE
 70
     2
  0
STYLE
  2
STANDARD
 70
     0
 40
0.0
 41
1.0
 50
0.0
 71
     0
 42
2.5600000000000001
  3
TXT
  4
BIGFONT
  0
STYLE
  2
STANDARD1
 70
     0
 40
0.0
 41
1.0
 50
0.0
 71
     0
 42
3.0
  3
txt
  4

  0
ENDTAB
  0
TABLE
  2
VIEW
 70
     1
  0
VIEW
  2
ALL
 70
     0
 40
135.0
 10
106.628445
 20
67.5
 41
0.0
 11
0.0
 21
0.0
 31
1.0
 12
0.0
 22
0.0
 32
0.0
 42
0.0
 43
0.0
 44
0.0
 50
0.0
 71
     0
  0
ENDTAB
  0
TABLE
  2
UCS
 70
     0
  0
ENDTAB
  0
TABLE
  2
APPID
 70
     3
  0
APPID
  2
ACAD
 70
     0
  0
APPID
  2
ACAD_MLEADERVER
 70
     0
  0
APPID
  2
ACAD_NAV_VCDISPLAY
 70
     0
  0
ENDTAB
  0
TABLE
  2
DIMSTYLE
 70
     1
  0
DIMSTYLE
  2
STANDARD
 70
     0
  3

  4

  5

  6

  7

 40
1.0
 41
0.18
 42
0.0625
 43
0.38
 44
0.18
 45
0.0
 46
0.0
 47
0.0
 48
0.0
140
0.18
141
0.09
142
0.0
143
25.399999999999999
144
1.0
145
0.0
146
1.0
147
0.09
 71
     0
 72
     0
 73
     1
 74
     1
 75
     0
 76
     0
 77
     0
 78
     0
170
     0
171
     2
172
     0
173
     0
174
     0
175
     0
176
     0
177
     0
178
     0
  0
ENDTAB
  0
ENDSEC
  0
SECTION
  2
BLOCKS
  0
BLOCK
  8
0
  2
$MODEL_SPACE
 70
     0
 10
0.0
 20
0.0
 30
0.0
  3
$MODEL_SPACE
  1

  0
ENDBLK
  5
13B
  8
0
  0
BLOCK
 67
     1
  8
0
  2
$PAPER_SPACE
 70
     0
 10
0.0
 20
0.0
 30
0.0
  3
$PAPER_SPACE
  1

  0
ENDBLK
  5
139
 67
     1
  8
0
  0
ENDSEC
  0
SECTION
  2
ENTITIES
  0
CIRCLE
  5
37
  8
0
 10
50.763540999999989
 20
66.335431999999997
 30
0.0
 40
4.3071799999999998
  0
LINE
  5
38
  8
0
 10
48.263540999999989
 20
64.892056000000011
 30
0.0
 11
50.763540999999989
 21
63.448680000000003
 31
0.0
  0
LINE
  5
39
  8
0
 10
50.763540999999989
 20
63.448680000000003
 30
0.0
 11
53.263540999999996
 21
64.892056000000011
 31
0.0
  0
LINE
  5
3A
  8
0
 10
53.263540999999996
 20
64.892056000000011
 30
0.0
 11
53.263540999999996
 21
67.778807
 31
0.0
  0
LINE
  5
3B
  8
0
 10
53.263540999999996
 20
67.778807
 30
0.0
 11
50.763540999999989
 21
69.222183000000001
 31
0.0
  0
LINE
  5
3C
  8
0
 10
50.763540999999989
 20
69.222183000000001
 30
0.0
 11
48.263540999999989
 21
67.778807
 31
0.0
  0
LINE
  5
3D
  8
0
 10
48.263540999999989
 20
67.778807
 30
0.0
 11
48.263540999999989
 21
64.892056000000011
 31
0.0
  0
CIRCLE
  5
3E
  8
0
 10
50.763540999999989
 20
66.335431999999997
 30
0.0
 40
5.0
  0
LINE
  5
3F
  8
3
 10
90.380030000000005
 20
63.876931999999996
 30
0.0
 11
89.442125000000004
 21
63.335431999999997
 31
0.0
  0
LINE
  5
40
  8
3
 10
90.380030000000005
 20
68.793931999999984
 30
0.0
 11
89.442125000000004
 21
69.335431999999983
 31
0.0
  0
LINE
  5
41
  8
0
 10
90.380030000000005
 20
63.335431999999997
 30
0.0
 11
90.380030000000005
 21
69.335431999999983
 31
0.0
  0
LINE
  5
42
  8
0
 10
87.780030000000011
 20
69.335431999999983
 30
0.0
 11
101.58099199999999
 21
69.335431999999983
 31
0.0
  0
LINE
  5
43
  8
3
 10
90.380029999999991
 20
68.793931999999984
 30
0.0
 11
102.51889799999999
 21
68.793931999999984
 31
0.0
  0
LINE
  5
44
  8
3
 10
90.380029999999991
 20
63.876931999999996
 30
0.0
 11
102.51889799999999
 21
63.876931999999996
 31
0.0
  0
LINE
  5
45
  8
0
 10
87.780030000000011
 20
63.335431999999997
 30
0.0
 11
101.58099199999999
 21
63.335431999999997
 31
0.0
  0
LINE
  5
46
  8
0
 10
102.88003
 20
68.585431999999983
 30
0.0
 11
102.88003
 21
64.085431999999997
 31
0.0
  0
LINE
  5
47
  8
0
 10
81.780030000000025
 20
61.335431999999997
 30
0.0
 11
81.380030000000005
 21
62.028252000000002
 31
0.0
  0
LINE
  5
48
  8
0
 10
81.780030000000025
 20
71.335431999999997
 30
0.0
 11
81.380030000000005
 21
70.642611000000002
 31
0.0
  0
LINE
  5
49
  8
0
 10
81.780030000000025
 20
61.335431999999997
 30
0.0
 11
81.780030000000025
 21
71.335431999999997
 31
0.0
  0
LINE
  5
4A
  8
0
 10
81.380030000000005
 20
62.028252000000002
 30
0.0
 11
81.380030000000005
 21
70.642611000000002
 31
0.0
  0
LINE
  5
4B
  8
0
 10
87.380030000000005
 20
61.335431999999997
 30
0.0
 11
81.780030000000025
 21
61.335431999999997
 31
0.0
  0
LINE
  5
4C
  8
0
 10
87.380030000000005
 20
71.335431999999997
 30
0.0
 11
87.380030000000005
 21
61.335431999999997
 31
0.0
  0
LINE
  5
4D
  8
0
 10
81.780030000000025
 20
71.335431999999997
 30
0.0
 11
87.380030000000005
 21
71.335431999999997
 31
0.0
  0
LINE
  5
4E
  8
1
 10
58.263540999999996
 20
66.335431999999997
 30
0.0
 11
43.263540999999989
 21
66.335431999999997
 31
0.0
  0
LINE
  5
4F
  8
1
 10
50.763540999999989
 20
73.835431999999997
 30
0.0
 11
50.763540999999989
 21
58.835431999999997
 31
0.0
  0
LINE
  5
50
  8
1
 10
78.880030000000005
 20
66.335431999999997
 30
0.0
 11
106.78003
 21
66.335431999999997
 31
0.0
  0
LINE
  5
51
  8
0
 10
102.88003
 20
68.585431999999983
 30
0.0
 11
101.58099199999999
 21
69.335431999999983
 31
0.0
  0
LINE
  5
52
  8
0
 10
102.88003
 20
64.085431999999997
 30
0.0
 11
101.58099199999999
 21
63.335431999999997
 31
0.0
  0
LINE
  5
53
  8
0
 10
101.58099199999999
 20
69.335431999999983
 30
0.0
 11
101.58099199999999
 21
63.335431999999997
 31
0.0
  0
LINE
  5
54
  8
2
 10
84.380030000000005
 20
69.222183000000001
 30
0.0
 11
84.380030000000005
 21
63.448680000000003
 31
0.0
  0
LINE
  5
55
  8
2
 10
81.380030000000005
 20
69.222183000000001
 30
0.0
 11
84.380030000000005
 21
69.222183000000001
 31
0.0
  0
LINE
  5
56
  8
2
 10
81.380030000000005
 20
67.778807
 30
0.0
 11
84.380030000000005
 21
67.778807
 31
0.0
  0
LINE
  5
57
  8
2
 10
81.380030000000005
 20
64.892056000000011
 30
0.0
 11
84.380030000000005
 21
64.892056000000011
 31
0.0
  0
LINE
  5
58
  8
2
 10
81.380030000000005
 20
63.448680000000003
 30
0.0
 11
84.380030000000005
 21
63.448680000000003
 31
0.0
  0
LINE
  5
59
  8
1
 10
102.28003
 20
70.835431999999997
 30
0.0
 11
102.28003
 21
61.83543199999999
 31
0.0
  0
LINE
  5
5A
  8
2
 10
84.380030000000005
 20
63.448680000000003
 30
0.0
 11
86.046696999999995
 21
66.335431999999997
 31
0.0
  0
LINE
  5
5B
  8
2
 10
84.380030000000005
 20
69.222183000000001
 30
0.0
 11
86.046696999999995
 21
66.335431999999997
 31
0.0
  0
ARC
  5
5C
  8
0
 10
87.780030000000011
 20
69.735431999999989
 30
0.0
 40
0.4
 50
180.0
 51
270.0
  0
ARC
  5
5D
  8
0
 10
87.780030000000011
 20
62.935431999999992
 30
0.0
 40
0.4
 50
90.0
 51
180.0
  0
ARC
  5
5E
  8
0
 10
102.28003
 20
66.335431999999997
 30
0.0
 40
2.0
 50
287.45760300000001
 51
72.542396999999994
  0
ARC
  5
5F
  8
2
 10
102.28003
 20
66.335431999999997
 30
0.0
 40
2.0
 50
72.542396999999994
 51
287.45760300000001
  0
LINE
  5
69
  8
1
 10
137.912103
 20
73.835431999999997
 30
0.0
 11
137.912103
 21
58.835431999999997
 31
0.0
  0
LINE
  5
6A
  8
1
 10
145.412103
 20
66.335431999999997
 30
0.0
 11
130.412103
 21
66.335431999999997
 31
0.0
  0
CIRCLE
  5
6B
  8
0
 10
137.912103
 20
66.335431999999997
 30
0.0
 40
5.0
  0
CIRCLE
  5
6C
  8
0
 10
137.912103
 20
66.335431999999997
 30
0.0
 40
3.0
  0
CIRCLE
  5
6D
  8
3
 10
137.912103
 20
66.335431999999997
 30
0.0
 40
2.458499999999999
  0
CIRCLE
  5
6E
  8
0
 10
137.912103
 20
66.335431999999997
 30
0.0
 40
1.907878
  0
LINE
  5
8D
  8
2
 10
84.380030000000005
 20
99.051259000000016
 30
0.0
 11
84.380030000000005
 21
104.051259
 31
0.0
  0
LINE
  5
8E
  8
2
 10
81.380030000000005
 20
99.051259000000016
 30
0.0
 11
84.380030000000005
 21
99.051259000000016
 31
0.0
  0
LINE
  5
8F
  8
2
 10
81.380030000000005
 20
101.551259
 30
0.0
 11
84.380030000000005
 21
101.551259
 31
0.0
  0
LINE
  5
90
  8
2
 10
81.380030000000005
 20
104.051259
 30
0.0
 11
84.380030000000005
 21
104.051259
 31
0.0
  0
LINE
  5
91
  8
2
 10
84.380030000000005
 20
99.051259000000016
 30
0.0
 11
86.046696999999995
 21
101.551259
 31
0.0
  0
LINE
  5
92
  8
2
 10
86.046696999999995
 20
101.551259
 30
0.0
 11
84.380030000000005
 21
104.051259
 31
0.0
  0
LINE
  5
93
  8
3
 10
90.380030000000005
 20
104.009759
 30
0.0
 11
89.442125000000004
 21
104.551259
 31
0.0
  0
LINE
  5
94
  8
3
 10
90.380030000000005
 20
99.092758999999987
 30
0.0
 11
89.442125000000004
 21
98.551258999999988
 31
0.0
  0
LINE
  5
95
  8
0
 10
90.380030000000005
 20
104.551259
 30
0.0
 11
90.380030000000005
 21
98.551258999999988
 31
0.0
  0
LINE
  5
96
  8
0
 10
87.780030000000011
 20
98.551259000000002
 30
0.0
 11
101.58099199999999
 21
98.551259000000002
 31
0.0
  0
LINE
  5
97
  8
3
 10
90.380029999999991
 20
99.092759000000001
 30
0.0
 11
102.51889799999999
 21
99.092759000000001
 31
0.0
  0
LINE
  5
98
  8
3
 10
90.380029999999991
 20
104.009759
 30
0.0
 11
102.51889799999999
 21
104.009759
 31
0.0
  0
LINE
  5
99
  8
0
 10
87.780030000000011
 20
104.551259
 30
0.0
 11
101.58099199999999
 21
104.551259
 31
0.0
  0
LINE
  5
9A
  8
0
 10
102.88003
 20
99.301259000000002
 30
0.0
 11
102.88003
 21
103.801259
 31
0.0
  0
LINE
  5
9B
  8
0
 10
81.780030000000025
 20
106.551259
 30
0.0
 11
81.380030000000005
 21
105.858439
 31
0.0
  0
LINE
  5
9C
  8
0
 10
81.780030000000025
 20
96.551259000000016
 30
0.0
 11
81.380030000000005
 21
97.244078999999999
 31
0.0
  0
LINE
  5
9D
  8
0
 10
81.780030000000025
 20
106.551259
 30
0.0
 11
81.780030000000025
 21
96.551259000000016
 31
0.0
  0
LINE
  5
9E
  8
0
 10
81.380030000000005
 20
105.858439
 30
0.0
 11
81.380030000000005
 21
97.244078999999999
 31
0.0
  0
LINE
  5
9F
  8
0
 10
87.380030000000005
 20
106.551259
 30
0.0
 11
81.780030000000025
 21
106.551259
 31
0.0
  0
LINE
  5
A0
  8
0
 10
87.380030000000005
 20
96.551259000000016
 30
0.0
 11
87.380030000000005
 21
106.551259
 31
0.0
  0
LINE
  5
A1
  8
0
 10
81.780030000000025
 20
96.551259000000016
 30
0.0
 11
87.380030000000005
 21
96.551259000000016
 31
0.0
  0
LINE
  5
A2
  8
1
 10
78.880030000000005
 20
101.551259
 30
0.0
 11
106.78003
 21
101.551259
 31
0.0
  0
LINE
  5
A3
  8
0
 10
102.88003
 20
99.301259000000002
 30
0.0
 11
101.58099199999999
 21
98.551259000000002
 31
0.0
  0
LINE
  5
A4
  8
0
 10
102.88003
 20
103.801259
 30
0.0
 11
101.58099199999999
 21
104.551259
 31
0.0
  0
LINE
  5
A5
  8
0
 10
101.58099199999999
 20
98.551259000000002
 30
0.0
 11
101.58099199999999
 21
104.551259
 31
0.0
  0
LINE
  5
A6
  8
1
 10
102.28003
 20
97.051259000000002
 30
0.0
 11
102.28003
 21
106.051259
 31
0.0
  0
ARC
  5
A7
  8
0
 10
87.780030000000011
 20
98.151258999999996
 30
0.0
 40
0.4
 50
90.0
 51
180.0
  0
ARC
  5
A8
  8
0
 10
87.780030000000011
 20
104.95125899999999
 30
0.0
 40
0.4
 50
180.0
 51
270.0
  0
ARC
  5
A9
  8
0
 10
102.28003
 20
101.551259
 30
0.0
 40
2.0
 50
287.45760300000001
 51
72.542396999999994
  0
ARC
  5
AA
  8
2
 10
102.28003
 20
101.551259
 30
0.0
 40
2.0
 50
72.542396999999994
 51
287.45760300000001
  0
LINE
  5
E7
  8
3
 10
90.380029999999991
 20
33.578104999999987
 30
0.0
 11
102.51889799999999
 21
33.578104999999987
 31
0.0
  0
LINE
  5
E8
  8
3
 10
90.380029999999991
 20
28.66110500000001
 30
0.0
 11
102.51889799999999
 21
28.661104999999989
 31
0.0
  0
LINE
  5
E9
  8
1
 10
78.880030000000005
 20
31.119604999999989
 30
0.0
 11
106.78003
 21
31.119604999999989
 31
0.0
  0
LINE
  5
EA
  8
0
 10
87.780030000000011
 20
28.119604999999989
 30
0.0
 11
101.58099199999999
 21
28.119604999999989
 31
0.0
  0
LINE
  5
EB
  8
0
 10
87.780030000000011
 20
34.119604999999993
 30
0.0
 11
101.58099199999999
 21
34.119604999999993
 31
0.0
  0
LINE
  5
EC
  8
0
 10
90.380030000000005
 20
28.119605000000011
 30
0.0
 11
90.380030000000005
 21
34.119605000000007
 31
0.0
  0
LINE
  5
ED
  8
0
 10
87.380030000000005
 20
36.119604999999993
 30
0.0
 11
87.380030000000005
 21
26.119604999999989
 31
0.0
  0
LINE
  5
EE
  8
0
 10
81.380030000000005
 20
26.812425000000012
 30
0.0
 11
81.380030000000005
 21
35.426785000000002
 31
0.0
  0
LINE
  5
EF
  8
0
 10
81.780030000000025
 20
26.119604999999989
 30
0.0
 11
81.780030000000025
 21
36.119604999999993
 31
0.0
  0
LINE
  5
F0
  8
2
 10
84.380030000000005
 20
33.619604999999993
 30
0.0
 11
86.046696999999995
 21
31.119604999999989
 31
0.0
  0
LINE
  5
F1
  8
2
 10
84.380030000000005
 20
33.619604999999993
 30
0.0
 11
84.380030000000005
 21
28.619604999999989
 31
0.0
  0
LINE
  5
F2
  8
0
 10
81.780030000000025
 20
36.119604999999993
 30
0.0
 11
87.380030000000005
 21
36.119604999999993
 31
0.0
  0
LINE
  5
F3
  8
2
 10
81.380030000000005
 20
33.619604999999993
 30
0.0
 11
84.380030000000005
 21
33.619604999999993
 31
0.0
  0
LINE
  5
F4
  8
0
 10
81.780030000000025
 20
36.119604999999993
 30
0.0
 11
81.380030000000005
 21
35.426785000000002
 31
0.0
  0
LINE
  5
F5
  8
3
 10
90.380030000000005
 20
33.578105000000008
 30
0.0
 11
89.442125000000004
 21
34.119605000000007
 31
0.0
  0
ARC
  5
F6
  8
0
 10
87.780030000000011
 20
34.519604999999999
 30
0.0
 40
0.4
 50
180.0
 51
270.0
  0
LINE
  5
F7
  8
0
 10
87.380030000000005
 20
26.119604999999989
 30
0.0
 11
81.780030000000025
 21
26.119604999999989
 31
0.0
  0
LINE
  5
F8
  8
2
 10
81.380030000000005
 20
28.619604999999989
 30
0.0
 11
84.380030000000005
 21
28.619604999999989
 31
0.0
  0
LINE
  5
F9
  8
2
 10
81.380030000000005
 20
31.119604999999989
 30
0.0
 11
84.380030000000005
 21
31.119604999999989
 31
0.0
  0
LINE
  5
FA
  8
2
 10
86.046696999999995
 20
31.119604999999989
 30
0.0
 11
84.380030000000005
 21
28.619604999999989
 31
0.0
  0
LINE
  5
FB
  8
0
 10
81.780030000000025
 20
26.119604999999989
 30
0.0
 11
81.380030000000005
 21
26.812425000000012
 31
0.0
  0
LINE
  5
FC
  8
3
 10
90.380030000000005
 20
28.66110500000001
 30
0.0
 11
89.442125000000004
 21
28.119605000000011
 31
0.0
  0
ARC
  5
FD
  8
0
 10
87.780030000000011
 20
27.719604999999991
 30
0.0
 40
0.4
 50
90.0
 51
180.0
  0
LINE
  5
FE
  8
1
 10
102.28003
 20
35.619605
 30
0.0
 11
102.28003
 21
26.619604999999989
 31
0.0
  0
LINE
  5
FF
  8
0
 10
101.58099199999999
 20
34.119604999999993
 30
0.0
 11
101.58099199999999
 21
28.119604999999989
 31
0.0
  0
LINE
  5
100
  8
0
 10
102.88003
 20
33.369604999999993
 30
0.0
 11
101.58099199999999
 21
34.119604999999993
 31
0.0
  0
ARC
  5
101
  8
2
 10
102.28003
 20
31.119604999999989
 30
0.0
 40
2.0
 50
72.542397000000008
 51
287.45760300000001
  0
LINE
  5
102
  8
0
 10
102.88003
 20
28.869604999999989
 30
0.0
 11
101.58099199999999
 21
28.119604999999989
 31
0.0
  0
ARC
  5
103
  8
0
 10
102.28003
 20
31.119604999999989
 30
0.0
 40
2.0
 50
287.45760300000001
 51
72.542397000000008
  0
LINE
  5
104
  8
0
 10
102.88003
 20
33.369604999999993
 30
0.0
 11
102.88003
 21
28.869604999999989
 31
0.0
  0
TEXT
  5
1F6
  8
0
 62
     3
 10
0.0
 20
0.0
 30
0.0
 40
5.0
  1
BCR6X16-SUS
  7
STANDARD1
  0
ENDSEC
  0
EOF
