  0
SECTION
  2
HEADER
  9
$ACADVER
  1
AC1009
  9
$INSBASE
 10
0.0
 20
0.0
 30
0.0
  9
$EXTMIN
 10
0.0
 20
-1.4802182810368341
 30
0.0
  9
$EXTMAX
 10
319.09676400000001
 20
216.296313
 30
0.0
  9
$LIMMIN
 10
0.0
 20
0.0
  9
$LIMMAX
 10
375.0
 20
270.0
  9
$ORTHOMODE
 70
     1
  9
$REGENMODE
 70
     1
  9
$FILLMODE
 70
     1
  9
$QTEXTMODE
 70
     0
  9
$MIRRTEXT
 70
     0
  9
$DRAGMODE
 70
     2
  9
$LTSCALE
 40
10.0
  9
$OSMODE
 70
  3071
  9
$ATTMODE
 70
     1
  9
$TEXTSIZE
 40
5.0
  9
$TRACEWID
 40
0.05
  9
$TEXTSTYLE
  7
STANDARD
  9
$CLAYER
  8
0
  9
$CELTYPE
  6
BYLAYER
  9
$CECOLOR
 62
   256
  9
$DIMSCALE
 40
1.0
  9
$DIMASZ
 40
3.0
  9
$DIMEXO
 40
2.0
  9
$DIMDLI
 40
0.38
  9
$DIMRND
 40
0.0
  9
$DIMDLE
 40
0.0
  9
$DIMEXE
 40
2.0
  9
$DIMTP
 40
0.0
  9
$DIMTM
 40
0.0
  9
$DIMTXT
 40
3.2000000000000002
  9
$DIMCEN
 40
0.0
  9
$DIMTSZ
 40
0.0
  9
$DIMTOL
 70
     0
  9
$DIMLIM
 70
     0
  9
$DIMTIH
 70
     0
  9
$DIMTOH
 70
     0
  9
$DIMSE1
 70
     0
  9
$DIMSE2
 70
     0
  9
$DIMTAD
 70
     1
  9
$DIMZIN
 70
     0
  9
$DIMBLK
  1

  9
$DIMASO
 70
     0
  9
$DIMSHO
 70
     0
  9
$DIMPOST
  1

  9
$DIMAPOST
  1

  9
$DIMALT
 70
     0
  9
$DIMALTD
 70
     2
  9
$DIMALTF
 40
25.399999999999999
  9
$DIMLFAC
 40
1.0
  9
$DIMTOFL
 70
     1
  9
$DIMTVP
 40
1.6000000000000001
  9
$DIMTIX
 70
     1
  9
$DIMSOXD
 70
     0
  9
$DIMSAH
 70
     0
  9
$DIMBLK1
  1

  9
$DIMBLK2
  1

  9
$DIMSTYLE
  2
STANDARD
  9
$DIMCLRD
 70
     0
  9
$DIMCLRE
 70
     0
  9
$DIMCLRT
 70
     0
  9
$DIMTFAC
 40
1.0
  9
$DIMGAP
 40
0.09
  9
$LUNITS
 70
     2
  9
$LUPREC
 70
     4
  9
$SKETCHINC
 40
0.1
  9
$FILLETRAD
 40
0.4
  9
$AUNITS
 70
     0
  9
$AUPREC
 70
     4
  9
$MENU
  1
E:\r13\win\SUPPORT\ACAD
  9
$ELEVATION
 40
0.0
  9
$PELEVATION
 40
0.0
  9
$THICKNESS
 40
0.0
  9
$LIMCHECK
 70
     0
  9
$BLIPMODE
 70
     0
  9
$CHAMFERA
 40
0.0
  9
$CHAMFERB
 40
0.0
  9
$SKPOLY
 70
     0
  9
$TDCREATE
 40
2449840.6226504631
  9
$TDUPDATE
 40
2456597.5951062501
  9
$TDINDWG
 40
0.0015301389
  9
$TDUSRTIMER
 40
0.0015301389
  9
$USRTIMER
 70
     1
  9
$ANGBASE
 50
0.0
  9
$ANGDIR
 70
     0
  9
$PDMODE
 70
     0
  9
$PDSIZE
 40
0.0
  9
$PLINEWID
 40
0.0
  9
$COORDS
 70
     1
  9
$SPLFRAME
 70
     0
  9
$SPLINETYPE
 70
     6
  9
$SPLINESEGS
 70
     8
  9
$ATTDIA
 70
     0
  9
$ATTREQ
 70
     1
  9
$HANDLING
 70
     1
  9
$HANDSEED
  5
292
  9
$SURFTAB1
 70
     6
  9
$SURFTAB2
 70
     6
  9
$SURFTYPE
 70
     6
  9
$SURFU
 70
     6
  9
$SURFV
 70
     6
  9
$UCSNAME
  2

  9
$UCSORG
 10
0.0
 20
0.0
 30
0.0
  9
$UCSXDIR
 10
1.0
 20
0.0
 30
0.0
  9
$UCSYDIR
 10
0.0
 20
1.0
 30
0.0
  9
$PUCSNAME
  2

  9
$PUCSORG
 10
0.0
 20
0.0
 30
0.0
  9
$PUCSXDIR
 10
1.0
 20
0.0
 30
0.0
  9
$PUCSYDIR
 10
0.0
 20
1.0
 30
0.0
  9
$USERI1
 70
     0
  9
$USERI2
 70
     1
  9
$USERI3
 70
     0
  9
$USERI4
 70
     0
  9
$USERI5
 70
     0
  9
$USERR1
 40
0.0
  9
$USERR2
 40
0.0
  9
$USERR3
 40
0.0
  9
$USERR4
 40
0.0
  9
$USERR5
 40
0.0
  9
$WORLDVIEW
 70
     1
  9
$SHADEDGE
 70
     3
  9
$SHADEDIF
 70
    70
  9
$TILEMODE
 70
     1
  9
$MAXACTVP
 70
    16
  9
$PLIMCHECK
 70
     0
  9
$PEXTMIN
 10
1.0000000000000000E+020
 20
1.0000000000000000E+020
 30
1.0000000000000000E+020
  9
$PEXTMAX
 10
-1.0000000000000000E+020
 20
-1.0000000000000000E+020
 30
-1.0000000000000000E+020
  9
$PLIMMIN
 10
0.0
 20
0.0
  9
$PLIMMAX
 10
12.0
 20
9.0
  9
$UNITMODE
 70
     0
  9
$VISRETAIN
 70
     0
  9
$PLINEGEN
 70
     0
  9
$PSLTSCALE
 70
     0
  0
ENDSEC
  0
SECTION
  2
TABLES
  0
TABLE
  2
VPORT
 70
     1
  0
VPORT
  2
*ACTIVE
 70
     0
 10
0.0
 20
0.0
 11
1.0
 21
1.0
 12
195.01701172807989
 22
134.25430329196891
 13
0.0
 23
0.0
 14
10.0
 24
10.0
 15
10.0
 25
10.0
 16
0.0
 26
0.0
 36
1.0
 17
0.0
 27
0.0
 37
0.0
 40
273.92629380544389
 41
1.831871345029239
 42
50.0
 43
0.0
 44
0.0
 50
0.0
 51
0.0
 71
     0
 72
   100
 73
     1
 74
     0
 75
     0
 76
     0
 77
     0
 78
     2
  0
ENDTAB
  0
TABLE
  2
LTYPE
 70
     4
  0
LTYPE
  2
CONTINUOUS
 70
     0
  3
Solid Line
 72
    65
 73
     0
 40
0.0
  0
LTYPE
  2
CENTER
 70
     0
  3
____ _ ____ _ ____ _ ____ _ ____ _ ____ _ ____
 72
    65
 73
     4
 40
2.0
 49
1.25
 49
-0.25
 49
0.25
 49
-0.25
  0
LTYPE
  2
HIDDEN
 70
     0
  3
_ _ _ _ _ _ _ _ _ _ _ _ _ _ _ _ _ _ _ _ _ _ _
 72
    65
 73
     2
 40
0.375
 49
0.25
 49
-0.125
  0
LTYPE
  2
PHANTOM2
 70
     0
  3
___ _ _ ___ _ _ ___ _ _ ___ _ _
 72
    65
 73
     6
 40
1.25
 49
0.625
 49
-0.125
 49
0.125
 49
-0.125
 49
0.125
 49
-0.125
  0
ENDTAB
  0
TABLE
  2
LAYER
 70
     4
  0
LAYER
  2
0
 70
     0
 62
     7
  6
CONTINUOUS
  0
LAYER
  2
1
 70
     0
 62
     1
  6
CENTER
  0
LAYER
  2
2
 70
     0
 62
     2
  6
HIDDEN
  0
LAYER
  2
3
 70
     0
 62
     3
  6
CONTINUOUS
  0
ENDTAB
  0
TABLE
  2
STYLE
 70
     2
  0
STYLE
  2
STANDARD
 70
     0
 40
0.0
 41
1.0
 50
0.0
 71
     0
 42
5.0
  3
TXT
  4
BIGFONT
  0
STYLE
  2
STANDARD1
 70
     0
 40
0.0
 41
1.0
 50
0.0
 71
     0
 42
3.0
  3
txt
  4

  0
ENDTAB
  0
TABLE
  2
VIEW
 70
     1
  0
VIEW
  2
ALL
 70
     0
 40
270.0
 10
213.256891
 20
135.0
 41
0.0
 11
0.0
 21
0.0
 31
1.0
 12
0.0
 22
0.0
 32
0.0
 42
0.0
 43
0.0
 44
0.0
 50
0.0
 71
     0
  0
ENDTAB
  0
TABLE
  2
UCS
 70
     0
  0
ENDTAB
  0
TABLE
  2
APPID
 70
     3
  0
APPID
  2
ACAD
 70
     0
  0
APPID
  2
ACAD_MLEADERVER
 70
     0
  0
APPID
  2
ACAD_NAV_VCDISPLAY
 70
     0
  0
ENDTAB
  0
TABLE
  2
DIMSTYLE
 70
     1
  0
DIMSTYLE
  2
STANDARD
 70
     0
  3

  4

  5

  6

  7

 40
1.0
 41
0.18
 42
0.0625
 43
0.38
 44
0.18
 45
0.0
 46
0.0
 47
0.0
 48
0.0
140
0.18
141
0.09
142
0.0
143
25.399999999999999
144
1.0
145
0.0
146
1.0
147
0.09
 71
     0
 72
     0
 73
     1
 74
     1
 75
     0
 76
     0
 77
     0
 78
     0
170
     0
171
     2
172
     0
173
     0
174
     0
175
     0
176
     0
177
     0
178
     0
  0
ENDTAB
  0
ENDSEC
  0
SECTION
  2
BLOCKS
  0
BLOCK
  8
0
  2
$MODEL_SPACE
 70
     0
 10
0.0
 20
0.0
 30
0.0
  3
$MODEL_SPACE
  1

  0
ENDBLK
  5
146
  8
0
  0
BLOCK
 67
     1
  8
0
  2
$PAPER_SPACE
 70
     0
 10
0.0
 20
0.0
 30
0.0
  3
$PAPER_SPACE
  1

  0
ENDBLK
  5
144
 67
     1
  8
0
  0
ENDSEC
  0
SECTION
  2
ENTITIES
  0
ARC
  5
3A
  8
2
 10
247.25981100000001
 20
136.03642099999999
 30
0.0
 40
6.0
 50
70.528779
 51
289.47122100000001
  0
ARC
  5
3B
  8
0
 10
247.25981100000001
 20
136.03642099999999
 30
0.0
 40
6.0
 50
289.47122100000001
 51
70.528779
  0
ARC
  5
3C
  8
0
 10
160.65981099999999
 20
127.636421
 30
0.0
 40
0.4
 50
90.0
 51
180.0
  0
ARC
  5
3D
  8
0
 10
160.65981099999999
 20
144.436421
 30
0.0
 40
0.4
 50
180.0
 51
270.0
  0
LINE
  5
3E
  8
2
 10
152.25981100000001
 20
144.119325
 30
0.0
 11
156.92647700000001
 21
136.03642099999999
 31
0.0
  0
LINE
  5
3F
  8
2
 10
152.25981100000001
 20
127.95351700000001
 30
0.0
 11
156.92647700000001
 21
136.03642099999999
 31
0.0
  0
LINE
  5
40
  8
2
 10
152.25981100000001
 20
127.95351700000001
 30
0.0
 11
152.25981100000001
 21
144.119325
 31
0.0
  0
LINE
  5
41
  8
2
 10
144.25981100000001
 20
127.95351700000001
 30
0.0
 11
152.25981100000001
 21
127.95351700000001
 31
0.0
  0
LINE
  5
42
  8
2
 10
144.25981100000001
 20
131.994969
 30
0.0
 11
152.25981100000001
 21
131.994969
 31
0.0
  0
LINE
  5
43
  8
2
 10
144.25981100000001
 20
140.07787300000001
 30
0.0
 11
152.25981100000001
 21
140.07787300000001
 31
0.0
  0
LINE
  5
44
  8
2
 10
144.25981100000001
 20
144.119325
 30
0.0
 11
152.25981100000001
 21
144.119325
 31
0.0
  0
LINE
  5
45
  8
1
 10
247.25981100000001
 20
147.03642099999999
 30
0.0
 11
247.25981100000001
 21
125.036421
 31
0.0
  0
LINE
  5
46
  8
0
 10
249.25981100000001
 20
129.78642099999999
 30
0.0
 11
246.228722
 21
128.03642099999999
 31
0.0
  0
LINE
  5
47
  8
0
 10
249.25981100000001
 20
142.28642099999999
 30
0.0
 11
246.228722
 21
144.03642099999999
 31
0.0
  0
LINE
  5
48
  8
0
 10
246.228722
 20
128.03642099999999
 30
0.0
 11
246.228722
 21
144.03642099999999
 31
0.0
  0
LINE
  5
49
  8
1
 10
258.25981100000001
 20
136.03642099999999
 30
0.0
 11
139.25981100000001
 21
136.03642099999999
 31
0.0
  0
LINE
  5
4A
  8
1
 10
94.098725999999985
 20
153.03642099999999
 30
0.0
 11
94.098725999999985
 21
119.036421
 31
0.0
  0
LINE
  5
4B
  8
1
 10
111.098726
 20
136.03642099999999
 30
0.0
 11
77.098725999999999
 21
136.03642099999999
 31
0.0
  0
LINE
  5
4C
  8
0
 10
145.25981100000001
 20
148.03642099999999
 30
0.0
 11
160.25981100000001
 21
148.03642099999999
 31
0.0
  0
LINE
  5
4D
  8
0
 10
160.25981100000001
 20
148.03642099999999
 30
0.0
 11
160.25981100000001
 21
124.036421
 31
0.0
  0
LINE
  5
4E
  8
0
 10
160.25981100000001
 20
124.036421
 30
0.0
 11
145.25981100000001
 21
124.036421
 31
0.0
  0
LINE
  5
4F
  8
0
 10
144.25981100000001
 20
125.768472
 30
0.0
 11
144.25981100000001
 21
146.30437000000001
 31
0.0
  0
LINE
  5
50
  8
0
 10
145.25981100000001
 20
124.036421
 30
0.0
 11
145.25981100000001
 21
148.03642099999999
 31
0.0
  0
LINE
  5
51
  8
0
 10
145.25981100000001
 20
148.03642099999999
 30
0.0
 11
144.25981100000001
 21
146.30437000000001
 31
0.0
  0
LINE
  5
52
  8
0
 10
145.25981100000001
 20
124.036421
 30
0.0
 11
144.25981100000001
 21
125.768472
 31
0.0
  0
LINE
  5
53
  8
0
 10
249.25981100000001
 20
142.28642099999999
 30
0.0
 11
249.25981100000001
 21
129.78642099999999
 31
0.0
  0
LINE
  5
54
  8
0
 10
160.65981099999999
 20
128.03642099999999
 30
0.0
 11
246.228722
 21
128.03642099999999
 31
0.0
  0
LINE
  5
55
  8
3
 10
206.25981100000001
 20
129.118921
 30
0.0
 11
248.103667
 21
129.118921
 31
0.0
  0
LINE
  5
56
  8
3
 10
206.25981100000001
 20
142.95392100000001
 30
0.0
 11
248.103667
 21
142.95392100000001
 31
0.0
  0
LINE
  5
57
  8
0
 10
160.65981099999999
 20
144.03642099999999
 30
0.0
 11
246.228722
 21
144.03642099999999
 31
0.0
  0
LINE
  5
58
  8
0
 10
206.25981100000001
 20
144.03642099999999
 30
0.0
 11
206.25981100000001
 21
128.03642099999999
 31
0.0
  0
LINE
  5
59
  8
3
 10
206.25981100000001
 20
142.95392100000001
 30
0.0
 11
204.38486599999999
 21
144.03642099999999
 31
0.0
  0
LINE
  5
5A
  8
3
 10
206.25981100000001
 20
129.118921
 30
0.0
 11
204.38486599999999
 21
128.03642099999999
 31
0.0
  0
CIRCLE
  5
5B
  8
0
 10
94.098725999999985
 20
136.03642099999999
 30
0.0
 40
12.0
  0
LINE
  5
5C
  8
0
 10
87.098725999999999
 20
140.07787300000001
 30
0.0
 11
87.098725999999999
 21
131.994969
 31
0.0
  0
LINE
  5
5D
  8
0
 10
94.098725999999985
 20
144.119325
 30
0.0
 11
87.098725999999999
 21
140.07787300000001
 31
0.0
  0
LINE
  5
5E
  8
0
 10
101.098726
 20
140.07787300000001
 30
0.0
 11
94.098725999999985
 21
144.119325
 31
0.0
  0
LINE
  5
5F
  8
0
 10
101.098726
 20
131.994969
 30
0.0
 11
101.098726
 21
140.07787300000001
 31
0.0
  0
LINE
  5
60
  8
0
 10
94.098725999999985
 20
127.95351700000001
 30
0.0
 11
101.098726
 21
131.994969
 31
0.0
  0
LINE
  5
61
  8
0
 10
87.098725999999999
 20
131.994969
 30
0.0
 11
94.098725999999985
 21
127.95351700000001
 31
0.0
  0
CIRCLE
  5
62
  8
0
 10
94.098725999999985
 20
136.03642099999999
 30
0.0
 40
10.267949
  0
CIRCLE
  5
6B
  8
0
 10
302.09676400000001
 20
136.03642099999999
 30
0.0
 40
12.0
  0
LINE
  5
6C
  8
1
 10
319.09676400000001
 20
136.03642099999999
 30
0.0
 11
285.09676400000001
 21
136.03642099999999
 31
0.0
  0
LINE
  5
6D
  8
1
 10
302.09676400000001
 20
153.03642099999999
 30
0.0
 11
302.09676400000001
 21
119.036421
 31
0.0
  0
CIRCLE
  5
6E
  8
0
 10
302.09676400000001
 20
136.03642099999999
 30
0.0
 40
8.0
  0
CIRCLE
  5
6F
  8
3
 10
302.09676400000001
 20
136.03642099999999
 30
0.0
 40
6.9175000000000004
  0
CIRCLE
  5
70
  8
0
 10
302.09676400000001
 20
136.03642099999999
 30
0.0
 40
5.656854
  0
ARC
  5
91
  8
0
 10
160.65981099999999
 20
212.696313
 30
0.0
 40
0.4
 50
180.0
 51
270.0
  0
ARC
  5
92
  8
0
 10
160.65981099999999
 20
195.89631299999999
 30
0.0
 40
0.4
 50
90.0
 51
180.0
  0
LINE
  5
93
  8
2
 10
152.25981100000001
 20
211.296313
 30
0.0
 11
152.25981100000001
 21
197.296313
 31
0.0
  0
LINE
  5
94
  8
2
 10
144.25981100000001
 20
197.296313
 30
0.0
 11
152.25981100000001
 21
197.296313
 31
0.0
  0
LINE
  5
95
  8
2
 10
144.25981100000001
 20
204.296313
 30
0.0
 11
152.25981100000001
 21
204.296313
 31
0.0
  0
LINE
  5
96
  8
2
 10
144.25981100000001
 20
211.296313
 30
0.0
 11
152.25981100000001
 21
211.296313
 31
0.0
  0
LINE
  5
97
  8
2
 10
152.25981100000001
 20
197.296313
 30
0.0
 11
156.92647700000001
 21
204.296313
 31
0.0
  0
LINE
  5
98
  8
2
 10
156.92647700000001
 20
204.296313
 30
0.0
 11
152.25981100000001
 21
211.296313
 31
0.0
  0
ARC
  5
99
  8
2
 10
247.25981100000001
 20
204.296313
 30
0.0
 40
6.0
 50
70.528779
 51
289.47122100000001
  0
ARC
  5
9A
  8
0
 10
247.25981100000001
 20
204.296313
 30
0.0
 40
6.0
 50
289.47122100000001
 51
70.528779
  0
ARC
  5
9B
  8
0
 10
160.65981099999999
 20
212.696313
 30
0.0
 40
0.4
 50
180.0
 51
270.0
  0
ARC
  5
9C
  8
0
 10
160.65981099999999
 20
195.89631299999999
 30
0.0
 40
0.4
 50
90.0
 51
180.0
  0
LINE
  5
9D
  8
1
 10
247.25981100000001
 20
193.296313
 30
0.0
 11
247.25981100000001
 21
215.296313
 31
0.0
  0
LINE
  5
9E
  8
0
 10
249.25981100000001
 20
210.546313
 30
0.0
 11
246.228722
 21
212.296313
 31
0.0
  0
LINE
  5
9F
  8
0
 10
249.25981100000001
 20
198.046313
 30
0.0
 11
246.228722
 21
196.296313
 31
0.0
  0
LINE
  5
A0
  8
0
 10
246.228722
 20
212.296313
 30
0.0
 11
246.228722
 21
196.296313
 31
0.0
  0
LINE
  5
A1
  8
1
 10
258.25981100000001
 20
204.296313
 30
0.0
 11
139.25981100000001
 21
204.296313
 31
0.0
  0
LINE
  5
A2
  8
0
 10
145.25981100000001
 20
192.296313
 30
0.0
 11
160.25981100000001
 21
192.296313
 31
0.0
  0
LINE
  5
A3
  8
0
 10
160.25981100000001
 20
192.296313
 30
0.0
 11
160.25981100000001
 21
216.296313
 31
0.0
  0
LINE
  5
A4
  8
0
 10
160.25981100000001
 20
216.296313
 30
0.0
 11
145.25981100000001
 21
216.296313
 31
0.0
  0
LINE
  5
A5
  8
0
 10
144.25981100000001
 20
214.56426200000001
 30
0.0
 11
144.25981100000001
 21
194.02836400000001
 31
0.0
  0
LINE
  5
A6
  8
0
 10
145.25981100000001
 20
216.296313
 30
0.0
 11
145.25981100000001
 21
192.296313
 31
0.0
  0
LINE
  5
A7
  8
0
 10
145.25981100000001
 20
192.296313
 30
0.0
 11
144.25981100000001
 21
194.02836400000001
 31
0.0
  0
LINE
  5
A8
  8
0
 10
145.25981100000001
 20
216.296313
 30
0.0
 11
144.25981100000001
 21
214.56426200000001
 31
0.0
  0
LINE
  5
A9
  8
0
 10
249.25981100000001
 20
198.046313
 30
0.0
 11
249.25981100000001
 21
210.546313
 31
0.0
  0
LINE
  5
AA
  8
0
 10
160.65981099999999
 20
212.296313
 30
0.0
 11
246.228722
 21
212.296313
 31
0.0
  0
LINE
  5
AB
  8
3
 10
206.25981100000001
 20
211.21381299999999
 30
0.0
 11
248.103667
 21
211.21381299999999
 31
0.0
  0
LINE
  5
AC
  8
3
 10
206.25981100000001
 20
197.37881299999989
 30
0.0
 11
248.103667
 21
197.37881299999989
 31
0.0
  0
LINE
  5
AD
  8
0
 10
160.65981099999999
 20
196.296313
 30
0.0
 11
246.228722
 21
196.296313
 31
0.0
  0
LINE
  5
AE
  8
0
 10
206.25981100000001
 20
196.296313
 30
0.0
 11
206.25981100000001
 21
212.296313
 31
0.0
  0
LINE
  5
AF
  8
3
 10
206.25981100000001
 20
197.37881299999989
 30
0.0
 11
204.38486599999999
 21
196.296313
 31
0.0
  0
LINE
  5
B0
  8
3
 10
206.25981100000001
 20
211.21381299999999
 30
0.0
 11
204.38486599999999
 21
212.296313
 31
0.0
  0
LINE
  5
F0
  8
0
 10
160.65981099999999
 20
75.776528999999982
 30
0.0
 11
246.228722
 21
75.776528999999982
 31
0.0
  0
LINE
  5
F1
  8
0
 10
160.65981099999999
 20
59.776528999999982
 30
0.0
 11
246.228722
 21
59.776528999999982
 31
0.0
  0
LINE
  5
F2
  8
1
 10
258.25981100000001
 20
67.776528999999982
 30
0.0
 11
139.25981100000001
 21
67.776528999999982
 31
0.0
  0
LINE
  5
F3
  8
0
 10
160.25981100000001
 20
55.776528999999982
 30
0.0
 11
145.25981100000001
 21
55.776528999999982
 31
0.0
  0
LINE
  5
F4
  8
0
 10
145.25981100000001
 20
79.776528999999982
 30
0.0
 11
160.25981100000001
 21
79.776528999999982
 31
0.0
  0
LINE
  5
F5
  8
0
 10
145.25981100000001
 20
55.776528999999982
 30
0.0
 11
145.25981100000001
 21
79.776528999999982
 31
0.0
  0
LINE
  5
F6
  8
0
 10
144.25981100000001
 20
57.508579999999967
 30
0.0
 11
144.25981100000001
 21
78.044477999999998
 31
0.0
  0
LINE
  5
F7
  8
2
 10
152.25981100000001
 20
74.776528999999982
 30
0.0
 11
156.92647700000001
 21
67.776528999999982
 31
0.0
  0
LINE
  5
F8
  8
2
 10
152.25981100000001
 20
60.776528999999982
 30
0.0
 11
152.25981100000001
 21
74.776528999999982
 31
0.0
  0
LINE
  5
F9
  8
2
 10
144.25981100000001
 20
74.776528999999982
 30
0.0
 11
152.25981100000001
 21
74.776528999999982
 31
0.0
  0
LINE
  5
FA
  8
0
 10
145.25981100000001
 20
79.776528999999982
 30
0.0
 11
144.25981100000001
 21
78.044477999999998
 31
0.0
  0
LINE
  5
FB
  8
2
 10
156.92647700000001
 20
67.776528999999982
 30
0.0
 11
152.25981100000001
 21
60.776528999999982
 31
0.0
  0
LINE
  5
FC
  8
2
 10
144.25981100000001
 20
67.776528999999982
 30
0.0
 11
152.25981100000001
 21
67.776528999999982
 31
0.0
  0
LINE
  5
FD
  8
2
 10
144.25981100000001
 20
60.776528999999982
 30
0.0
 11
152.25981100000001
 21
60.776528999999982
 31
0.0
  0
LINE
  5
FE
  8
0
 10
145.25981100000001
 20
55.776528999999982
 30
0.0
 11
144.25981100000001
 21
57.508579999999967
 31
0.0
  0
LINE
  5
FF
  8
0
 10
160.25981100000001
 20
79.776528999999982
 30
0.0
 11
160.25981100000001
 21
55.776528999999982
 31
0.0
  0
ARC
  5
100
  8
0
 10
160.65981099999999
 20
76.176528999999988
 30
0.0
 40
0.4
 50
180.0
 51
270.0
  0
ARC
  5
101
  8
0
 10
160.65981099999999
 20
76.176528999999988
 30
0.0
 40
0.4
 50
180.0
 51
270.0
  0
ARC
  5
102
  8
0
 10
160.65981099999999
 20
59.376528999999998
 30
0.0
 40
0.4
 50
90.0
 51
180.0
  0
ARC
  5
103
  8
0
 10
160.65981099999999
 20
59.376528999999998
 30
0.0
 40
0.4
 50
90.0
 51
180.0
  0
LINE
  5
104
  8
3
 10
206.25981100000001
 20
60.859028999999992
 30
0.0
 11
248.103667
 21
60.859028999999992
 31
0.0
  0
LINE
  5
105
  8
3
 10
206.25981100000001
 20
74.694029
 30
0.0
 11
248.103667
 21
74.694029
 31
0.0
  0
ARC
  5
106
  8
2
 10
247.25981100000001
 20
67.776528999999982
 30
0.0
 40
6.0
 50
70.528778999999972
 51
289.47122100000001
  0
LINE
  5
107
  8
0
 10
206.25981100000001
 20
75.776528999999982
 30
0.0
 11
206.25981100000001
 21
59.776528999999982
 31
0.0
  0
LINE
  5
108
  8
3
 10
206.25981100000001
 20
74.694029
 30
0.0
 11
204.38486599999999
 21
75.776528999999982
 31
0.0
  0
LINE
  5
109
  8
3
 10
206.25981100000001
 20
60.859028999999992
 30
0.0
 11
204.38486599999999
 21
59.776528999999982
 31
0.0
  0
LINE
  5
10A
  8
0
 10
249.25981100000001
 20
74.026528999999982
 30
0.0
 11
249.25981100000001
 21
61.526528999999982
 31
0.0
  0
LINE
  5
10B
  8
0
 10
246.228722
 20
59.776528999999982
 30
0.0
 11
246.228722
 21
75.776528999999982
 31
0.0
  0
LINE
  5
10C
  8
1
 10
247.25981100000001
 20
78.776528999999982
 30
0.0
 11
247.25981100000001
 21
56.776528999999982
 31
0.0
  0
LINE
  5
10D
  8
0
 10
249.25981100000001
 20
74.026528999999982
 30
0.0
 11
246.228722
 21
75.776528999999982
 31
0.0
  0
ARC
  5
10E
  8
0
 10
247.25981100000001
 20
67.776528999999982
 30
0.0
 40
6.0
 50
289.47122100000001
 51
70.528778999999972
  0
LINE
  5
10F
  8
0
 10
249.25981100000001
 20
61.526528999999982
 30
0.0
 11
246.228722
 21
59.776528999999982
 31
0.0
  0
TEXT
  5
201
  8
0
 62
     3
 10
0.0
 20
0.0
 30
0.0
 40
5.0
  1
BCR16X90-SUS
  7
STANDARD1
  0
ENDSEC
  0
EOF
