  0
SECTION
  2
HEADER
  9
$ACADVER
  1
AC1009
  9
$INSBASE
 10
0.0
 20
0.0
 30
0.0
  9
$EXTMIN
 10
0.0
 20
-1.4802182810368341
 30
0.0
  9
$EXTMAX
 10
306.04002100000002
 20
209.81424899999999
 30
0.0
  9
$LIMMIN
 10
0.0
 20
0.0
  9
$LIMMAX
 10
375.0
 20
270.0
  9
$ORTHOMODE
 70
     1
  9
$REGENMODE
 70
     1
  9
$FILLMODE
 70
     1
  9
$QTEXTMODE
 70
     0
  9
$MIRRTEXT
 70
     0
  9
$DRAGMODE
 70
     2
  9
$LTSCALE
 40
10.0
  9
$OSMODE
 70
  3071
  9
$ATTMODE
 70
     1
  9
$TEXTSIZE
 40
5.0
  9
$TRACEWID
 40
0.05
  9
$TEXTSTYLE
  7
STANDARD
  9
$CLAYER
  8
0
  9
$CELTYPE
  6
BYLAYER
  9
$CECOLOR
 62
   256
  9
$DIMSCALE
 40
1.0
  9
$DIMASZ
 40
3.0
  9
$DIMEXO
 40
2.0
  9
$DIMDLI
 40
0.38
  9
$DIMRND
 40
0.0
  9
$DIMDLE
 40
0.0
  9
$DIMEXE
 40
2.0
  9
$DIMTP
 40
0.0
  9
$DIMTM
 40
0.0
  9
$DIMTXT
 40
3.2000000000000002
  9
$DIMCEN
 40
0.0
  9
$DIMTSZ
 40
0.0
  9
$DIMTOL
 70
     0
  9
$DIMLIM
 70
     0
  9
$DIMTIH
 70
     0
  9
$DIMTOH
 70
     0
  9
$DIMSE1
 70
     0
  9
$DIMSE2
 70
     0
  9
$DIMTAD
 70
     1
  9
$DIMZIN
 70
     0
  9
$DIMBLK
  1

  9
$DIMASO
 70
     0
  9
$DIMSHO
 70
     0
  9
$DIMPOST
  1

  9
$DIMAPOST
  1

  9
$DIMALT
 70
     0
  9
$DIMALTD
 70
     2
  9
$DIMALTF
 40
25.399999999999999
  9
$DIMLFAC
 40
1.0
  9
$DIMTOFL
 70
     1
  9
$DIMTVP
 40
1.6000000000000001
  9
$DIMTIX
 70
     1
  9
$DIMSOXD
 70
     0
  9
$DIMSAH
 70
     0
  9
$DIMBLK1
  1

  9
$DIMBLK2
  1

  9
$DIMSTYLE
  2
STANDARD
  9
$DIMCLRD
 70
     0
  9
$DIMCLRE
 70
     0
  9
$DIMCLRT
 70
     0
  9
$DIMTFAC
 40
1.0
  9
$DIMGAP
 40
0.09
  9
$LUNITS
 70
     2
  9
$LUPREC
 70
     4
  9
$SKETCHINC
 40
0.1
  9
$FILLETRAD
 40
0.4
  9
$AUNITS
 70
     0
  9
$AUPREC
 70
     4
  9
$MENU
  1
E:\r13\win\SUPPORT\ACAD
  9
$ELEVATION
 40
0.0
  9
$PELEVATION
 40
0.0
  9
$THICKNESS
 40
0.0
  9
$LIMCHECK
 70
     0
  9
$BLIPMODE
 70
     0
  9
$CHAMFERA
 40
0.0
  9
$CHAMFERB
 40
0.0
  9
$SKPOLY
 70
     0
  9
$TDCREATE
 40
2449840.6226273151
  9
$TDUPDATE
 40
2456597.5950375348
  9
$TDINDWG
 40
0.0035936806
  9
$TDUSRTIMER
 40
0.0035936806
  9
$USRTIMER
 70
     1
  9
$ANGBASE
 50
0.0
  9
$ANGDIR
 70
     0
  9
$PDMODE
 70
     0
  9
$PDSIZE
 40
0.0
  9
$PLINEWID
 40
0.0
  9
$COORDS
 70
     1
  9
$SPLFRAME
 70
     0
  9
$SPLINETYPE
 70
     6
  9
$SPLINESEGS
 70
     8
  9
$ATTDIA
 70
     0
  9
$ATTREQ
 70
     1
  9
$HANDLING
 70
     1
  9
$HANDSEED
  5
292
  9
$SURFTAB1
 70
     6
  9
$SURFTAB2
 70
     6
  9
$SURFTYPE
 70
     6
  9
$SURFU
 70
     6
  9
$SURFV
 70
     6
  9
$UCSNAME
  2

  9
$UCSORG
 10
0.0
 20
0.0
 30
0.0
  9
$UCSXDIR
 10
1.0
 20
0.0
 30
0.0
  9
$UCSYDIR
 10
0.0
 20
1.0
 30
0.0
  9
$PUCSNAME
  2

  9
$PUCSORG
 10
0.0
 20
0.0
 30
0.0
  9
$PUCSXDIR
 10
1.0
 20
0.0
 30
0.0
  9
$PUCSYDIR
 10
0.0
 20
1.0
 30
0.0
  9
$USERI1
 70
     0
  9
$USERI2
 70
     1
  9
$USERI3
 70
     0
  9
$USERI4
 70
     0
  9
$USERI5
 70
     0
  9
$USERR1
 40
0.0
  9
$USERR2
 40
0.0
  9
$USERR3
 40
0.0
  9
$USERR4
 40
0.0
  9
$USERR5
 40
0.0
  9
$WORLDVIEW
 70
     1
  9
$SHADEDGE
 70
     3
  9
$SHADEDIF
 70
    70
  9
$TILEMODE
 70
     1
  9
$MAXACTVP
 70
    16
  9
$PLIMCHECK
 70
     0
  9
$PEXTMIN
 10
1.0000000000000000E+020
 20
1.0000000000000000E+020
 30
1.0000000000000000E+020
  9
$PEXTMAX
 10
-1.0000000000000000E+020
 20
-1.0000000000000000E+020
 30
-1.0000000000000000E+020
  9
$PLIMMIN
 10
0.0
 20
0.0
  9
$PLIMMAX
 10
12.0
 20
9.0
  9
$UNITMODE
 70
     0
  9
$VISRETAIN
 70
     0
  9
$PLINEGEN
 70
     0
  9
$PSLTSCALE
 70
     0
  0
ENDSEC
  0
SECTION
  2
TABLES
  0
TABLE
  2
VPORT
 70
     1
  0
VPORT
  2
*ACTIVE
 70
     0
 10
0.0
 20
0.0
 11
1.0
 21
1.0
 12
195.01701172807989
 22
134.25430329196891
 13
0.0
 23
0.0
 14
10.0
 24
10.0
 15
10.0
 25
10.0
 16
0.0
 26
0.0
 36
1.0
 17
0.0
 27
0.0
 37
0.0
 40
273.92629380544389
 41
1.831871345029239
 42
50.0
 43
0.0
 44
0.0
 50
0.0
 51
0.0
 71
     0
 72
   100
 73
     1
 74
     0
 75
     0
 76
     0
 77
     0
 78
     2
  0
ENDTAB
  0
TABLE
  2
LTYPE
 70
     4
  0
LTYPE
  2
CONTINUOUS
 70
     0
  3
Solid Line
 72
    65
 73
     0
 40
0.0
  0
LTYPE
  2
CENTER
 70
     0
  3
____ _ ____ _ ____ _ ____ _ ____ _ ____ _ ____
 72
    65
 73
     4
 40
2.0
 49
1.25
 49
-0.25
 49
0.25
 49
-0.25
  0
LTYPE
  2
HIDDEN
 70
     0
  3
_ _ _ _ _ _ _ _ _ _ _ _ _ _ _ _ _ _ _ _ _ _ _
 72
    65
 73
     2
 40
0.375
 49
0.25
 49
-0.125
  0
LTYPE
  2
PHANTOM2
 70
     0
  3
___ _ _ ___ _ _ ___ _ _ ___ _ _
 72
    65
 73
     6
 40
1.25
 49
0.625
 49
-0.125
 49
0.125
 49
-0.125
 49
0.125
 49
-0.125
  0
ENDTAB
  0
TABLE
  2
LAYER
 70
     4
  0
LAYER
  2
0
 70
     0
 62
     7
  6
CONTINUOUS
  0
LAYER
  2
1
 70
     0
 62
     1
  6
CENTER
  0
LAYER
  2
2
 70
     0
 62
     2
  6
HIDDEN
  0
LAYER
  2
3
 70
     0
 62
     3
  6
CONTINUOUS
  0
ENDTAB
  0
TABLE
  2
STYLE
 70
     2
  0
STYLE
  2
STANDARD
 70
     0
 40
0.0
 41
1.0
 50
0.0
 71
     0
 42
5.0
  3
TXT
  4
BIGFONT
  0
STYLE
  2
STANDARD1
 70
     0
 40
0.0
 41
1.0
 50
0.0
 71
     0
 42
3.0
  3
txt
  4

  0
ENDTAB
  0
TABLE
  2
VIEW
 70
     1
  0
VIEW
  2
ALL
 70
     0
 40
270.0
 10
213.256891
 20
135.0
 41
0.0
 11
0.0
 21
0.0
 31
1.0
 12
0.0
 22
0.0
 32
0.0
 42
0.0
 43
0.0
 44
0.0
 50
0.0
 71
     0
  0
ENDTAB
  0
TABLE
  2
UCS
 70
     0
  0
ENDTAB
  0
TABLE
  2
APPID
 70
     3
  0
APPID
  2
ACAD
 70
     0
  0
APPID
  2
ACAD_MLEADERVER
 70
     0
  0
APPID
  2
ACAD_NAV_VCDISPLAY
 70
     0
  0
ENDTAB
  0
TABLE
  2
DIMSTYLE
 70
     1
  0
DIMSTYLE
  2
STANDARD
 70
     0
  3

  4

  5

  6

  7

 40
1.0
 41
0.18
 42
0.0625
 43
0.38
 44
0.18
 45
0.0
 46
0.0
 47
0.0
 48
0.0
140
0.18
141
0.09
142
0.0
143
25.399999999999999
144
1.0
145
0.0
146
1.0
147
0.09
 71
     0
 72
     0
 73
     1
 74
     1
 75
     0
 76
     0
 77
     0
 78
     0
170
     0
171
     2
172
     0
173
     0
174
     0
175
     0
176
     0
177
     0
178
     0
  0
ENDTAB
  0
ENDSEC
  0
SECTION
  2
BLOCKS
  0
BLOCK
  8
0
  2
$MODEL_SPACE
 70
     0
 10
0.0
 20
0.0
 30
0.0
  3
$MODEL_SPACE
  1

  0
ENDBLK
  5
146
  8
0
  0
BLOCK
 67
     1
  8
0
  2
$PAPER_SPACE
 70
     0
 10
0.0
 20
0.0
 30
0.0
  3
$PAPER_SPACE
  1

  0
ENDBLK
  5
144
 67
     1
  8
0
  0
ENDSEC
  0
SECTION
  2
ENTITIES
  0
ARC
  5
3A
  8
2
 10
223.238946
 20
130.25679500000001
 30
0.0
 40
6.0
 50
70.528779
 51
289.47122100000001
  0
ARC
  5
3B
  8
0
 10
223.238946
 20
130.25679500000001
 30
0.0
 40
6.0
 50
289.47122100000001
 51
70.528779
  0
ARC
  5
3C
  8
0
 10
166.638946
 20
121.85679500000001
 30
0.0
 40
0.4
 50
90.0
 51
180.0
  0
ARC
  5
3D
  8
0
 10
166.638946
 20
138.65679499999999
 30
0.0
 40
0.4
 50
180.0
 51
270.0
  0
LINE
  5
3E
  8
2
 10
158.238946
 20
138.339698
 30
0.0
 11
162.90561199999999
 21
130.25679500000001
 31
0.0
  0
LINE
  5
3F
  8
2
 10
158.238946
 20
122.173891
 30
0.0
 11
162.90561199999999
 21
130.25679500000001
 31
0.0
  0
LINE
  5
40
  8
2
 10
158.238946
 20
122.173891
 30
0.0
 11
158.238946
 21
138.339698
 31
0.0
  0
LINE
  5
41
  8
2
 10
150.238946
 20
122.173891
 30
0.0
 11
158.238946
 21
122.173891
 31
0.0
  0
LINE
  5
42
  8
2
 10
150.238946
 20
126.215343
 30
0.0
 11
158.238946
 21
126.215343
 31
0.0
  0
LINE
  5
43
  8
2
 10
150.238946
 20
134.29824600000001
 30
0.0
 11
158.238946
 21
134.29824600000001
 31
0.0
  0
LINE
  5
44
  8
2
 10
150.238946
 20
138.339698
 30
0.0
 11
158.238946
 21
138.339698
 31
0.0
  0
LINE
  5
45
  8
1
 10
223.238946
 20
141.25679500000001
 30
0.0
 11
223.238946
 21
119.256795
 31
0.0
  0
LINE
  5
46
  8
0
 10
225.238946
 20
124.006795
 30
0.0
 11
222.20785699999999
 21
122.256795
 31
0.0
  0
LINE
  5
47
  8
0
 10
225.238946
 20
136.50679500000001
 30
0.0
 11
222.20785699999999
 21
138.25679500000001
 31
0.0
  0
LINE
  5
48
  8
0
 10
222.20785699999999
 20
122.256795
 30
0.0
 11
222.20785699999999
 21
138.25679500000001
 31
0.0
  0
LINE
  5
49
  8
1
 10
234.238946
 20
130.25679500000001
 30
0.0
 11
145.238946
 21
130.25679500000001
 31
0.0
  0
LINE
  5
4A
  8
1
 10
91.546670999999989
 20
147.25679500000001
 30
0.0
 11
91.546670999999989
 21
113.256795
 31
0.0
  0
LINE
  5
4B
  8
1
 10
108.546671
 20
130.25679500000001
 30
0.0
 11
74.546670999999989
 21
130.25679500000001
 31
0.0
  0
LINE
  5
4C
  8
0
 10
151.238946
 20
142.25679500000001
 30
0.0
 11
166.238946
 21
142.25679500000001
 31
0.0
  0
LINE
  5
4D
  8
0
 10
166.238946
 20
142.25679500000001
 30
0.0
 11
166.238946
 21
118.256795
 31
0.0
  0
LINE
  5
4E
  8
0
 10
166.238946
 20
118.256795
 30
0.0
 11
151.238946
 21
118.256795
 31
0.0
  0
LINE
  5
4F
  8
0
 10
150.238946
 20
119.988845
 30
0.0
 11
150.238946
 21
140.524744
 31
0.0
  0
LINE
  5
50
  8
0
 10
151.238946
 20
118.256795
 30
0.0
 11
151.238946
 21
142.25679500000001
 31
0.0
  0
LINE
  5
51
  8
0
 10
151.238946
 20
142.25679500000001
 30
0.0
 11
150.238946
 21
140.524744
 31
0.0
  0
LINE
  5
52
  8
0
 10
151.238946
 20
118.256795
 30
0.0
 11
150.238946
 21
119.988845
 31
0.0
  0
LINE
  5
53
  8
0
 10
225.238946
 20
136.50679500000001
 30
0.0
 11
225.238946
 21
124.006795
 31
0.0
  0
LINE
  5
54
  8
0
 10
166.638946
 20
122.256795
 30
0.0
 11
222.20785699999999
 21
122.256795
 31
0.0
  0
LINE
  5
55
  8
3
 10
182.238946
 20
123.33929500000001
 30
0.0
 11
224.08280199999999
 21
123.33929500000001
 31
0.0
  0
LINE
  5
56
  8
3
 10
182.238946
 20
137.174295
 30
0.0
 11
224.08280199999999
 21
137.174295
 31
0.0
  0
LINE
  5
57
  8
0
 10
166.638946
 20
138.25679500000001
 30
0.0
 11
222.20785699999999
 21
138.25679500000001
 31
0.0
  0
LINE
  5
58
  8
0
 10
182.238946
 20
138.25679500000001
 30
0.0
 11
182.238946
 21
122.256795
 31
0.0
  0
LINE
  5
59
  8
3
 10
182.238946
 20
137.174295
 30
0.0
 11
180.36400012661289
 21
138.25679500000001
 31
0.0
  0
LINE
  5
5A
  8
3
 10
182.238946
 20
123.33929500000001
 30
0.0
 11
180.3640033741103
 21
122.256795
 31
0.0
  0
CIRCLE
  5
5B
  8
0
 10
91.546670999999989
 20
130.25679500000001
 30
0.0
 40
12.0
  0
LINE
  5
5C
  8
0
 10
84.546670999999989
 20
134.29824600000001
 30
0.0
 11
84.546670999999989
 21
126.215343
 31
0.0
  0
LINE
  5
5D
  8
0
 10
91.546670999999989
 20
138.339698
 30
0.0
 11
84.546670999999989
 21
134.29824600000001
 31
0.0
  0
LINE
  5
5E
  8
0
 10
98.546671000000003
 20
134.29824600000001
 30
0.0
 11
91.546670999999989
 21
138.339698
 31
0.0
  0
LINE
  5
5F
  8
0
 10
98.546671000000003
 20
126.215343
 30
0.0
 11
98.546671000000003
 21
134.29824600000001
 31
0.0
  0
LINE
  5
60
  8
0
 10
91.546670999999989
 20
122.173891
 30
0.0
 11
98.546671000000003
 21
126.215343
 31
0.0
  0
LINE
  5
61
  8
0
 10
84.546670999999989
 20
126.215343
 30
0.0
 11
91.546670999999989
 21
122.173891
 31
0.0
  0
CIRCLE
  5
62
  8
0
 10
91.546670999999989
 20
130.25679500000001
 30
0.0
 40
10.267949
  0
CIRCLE
  5
6B
  8
0
 10
289.04002100000002
 20
130.25679500000001
 30
0.0
 40
12.0
  0
LINE
  5
6C
  8
1
 10
306.04002100000002
 20
130.25679500000001
 30
0.0
 11
272.04002100000002
 21
130.25679500000001
 31
0.0
  0
LINE
  5
6D
  8
1
 10
289.04002100000002
 20
147.25679500000001
 30
0.0
 11
289.04002100000002
 21
113.256795
 31
0.0
  0
CIRCLE
  5
6E
  8
0
 10
289.04002100000002
 20
130.25679500000001
 30
0.0
 40
8.0
  0
CIRCLE
  5
6F
  8
3
 10
289.04002100000002
 20
130.25679500000001
 30
0.0
 40
6.9175000000000004
  0
CIRCLE
  5
70
  8
0
 10
289.04002100000002
 20
130.25679500000001
 30
0.0
 40
5.656854
  0
ARC
  5
91
  8
0
 10
166.638946
 20
206.214249
 30
0.0
 40
0.4
 50
180.0
 51
270.0
  0
ARC
  5
92
  8
0
 10
166.638946
 20
189.41424900000001
 30
0.0
 40
0.4
 50
90.0
 51
180.0
  0
LINE
  5
93
  8
2
 10
158.238946
 20
204.81424899999999
 30
0.0
 11
158.238946
 21
190.81424899999999
 31
0.0
  0
LINE
  5
94
  8
2
 10
150.238946
 20
190.81424899999999
 30
0.0
 11
158.238946
 21
190.81424899999999
 31
0.0
  0
LINE
  5
95
  8
2
 10
150.238946
 20
197.81424899999999
 30
0.0
 11
158.238946
 21
197.81424899999999
 31
0.0
  0
LINE
  5
96
  8
2
 10
150.238946
 20
204.81424899999999
 30
0.0
 11
158.238946
 21
204.81424899999999
 31
0.0
  0
LINE
  5
97
  8
2
 10
158.238946
 20
190.81424899999999
 30
0.0
 11
162.90561199999999
 21
197.81424899999999
 31
0.0
  0
LINE
  5
98
  8
2
 10
162.90561199999999
 20
197.81424899999999
 30
0.0
 11
158.238946
 21
204.81424899999999
 31
0.0
  0
ARC
  5
99
  8
2
 10
223.238946
 20
197.81424899999999
 30
0.0
 40
6.0
 50
70.528779
 51
289.47122100000001
  0
ARC
  5
9A
  8
0
 10
223.238946
 20
197.81424899999999
 30
0.0
 40
6.0
 50
289.47122100000001
 51
70.528779
  0
ARC
  5
9B
  8
0
 10
166.638946
 20
206.214249
 30
0.0
 40
0.4
 50
180.0
 51
270.0
  0
ARC
  5
9C
  8
0
 10
166.638946
 20
189.41424900000001
 30
0.0
 40
0.4
 50
90.0
 51
180.0
  0
LINE
  5
9D
  8
1
 10
223.238946
 20
186.81424899999999
 30
0.0
 11
223.238946
 21
208.81424899999999
 31
0.0
  0
LINE
  5
9E
  8
0
 10
225.238946
 20
204.06424899999999
 30
0.0
 11
222.20785699999999
 21
205.81424899999999
 31
0.0
  0
LINE
  5
9F
  8
0
 10
225.238946
 20
191.56424899999999
 30
0.0
 11
222.20785699999999
 21
189.81424899999999
 31
0.0
  0
LINE
  5
A0
  8
0
 10
222.20785699999999
 20
205.81424899999999
 30
0.0
 11
222.20785699999999
 21
189.81424899999999
 31
0.0
  0
LINE
  5
A1
  8
1
 10
234.238946
 20
197.81424899999999
 30
0.0
 11
145.238946
 21
197.81424899999999
 31
0.0
  0
LINE
  5
A2
  8
0
 10
151.238946
 20
185.81424899999999
 30
0.0
 11
166.238946
 21
185.81424899999999
 31
0.0
  0
LINE
  5
A3
  8
0
 10
166.238946
 20
185.81424899999999
 30
0.0
 11
166.238946
 21
209.81424899999999
 31
0.0
  0
LINE
  5
A4
  8
0
 10
166.238946
 20
209.81424899999999
 30
0.0
 11
151.238946
 21
209.81424899999999
 31
0.0
  0
LINE
  5
A5
  8
0
 10
150.238946
 20
208.08219800000001
 30
0.0
 11
150.238946
 21
187.546299
 31
0.0
  0
LINE
  5
A6
  8
0
 10
151.238946
 20
209.81424899999999
 30
0.0
 11
151.238946
 21
185.81424899999999
 31
0.0
  0
LINE
  5
A7
  8
0
 10
151.238946
 20
185.81424899999999
 30
0.0
 11
150.238946
 21
187.546299
 31
0.0
  0
LINE
  5
A8
  8
0
 10
151.238946
 20
209.81424899999999
 30
0.0
 11
150.238946
 21
208.08219800000001
 31
0.0
  0
LINE
  5
A9
  8
0
 10
225.238946
 20
191.56424899999999
 30
0.0
 11
225.238946
 21
204.06424899999999
 31
0.0
  0
LINE
  5
AA
  8
0
 10
166.638946
 20
205.81424899999999
 30
0.0
 11
222.20785699999999
 21
205.81424899999999
 31
0.0
  0
LINE
  5
AB
  8
3
 10
182.238946
 20
204.73174900000001
 30
0.0
 11
224.08280199999999
 21
204.73174900000001
 31
0.0
  0
LINE
  5
AC
  8
3
 10
182.238946
 20
190.896749
 30
0.0
 11
224.08280199999999
 21
190.896749
 31
0.0
  0
LINE
  5
AD
  8
0
 10
166.638946
 20
189.81424899999999
 30
0.0
 11
222.20785699999999
 21
189.81424899999999
 31
0.0
  0
LINE
  5
F0
  8
0
 10
182.238946
 20
205.81424899999999
 30
0.0
 11
182.238946
 21
189.81424899999999
 31
0.0
  0
LINE
  5
F1
  8
3
 10
182.238946
 20
190.896749
 30
0.0
 11
180.3640033741103
 21
189.81424899999999
 31
0.0
  0
LINE
  5
F2
  8
3
 10
182.238946
 20
204.73174900000001
 30
0.0
 11
180.36400012661289
 21
205.81424899999999
 31
0.0
  0
LINE
  5
F3
  8
3
 10
182.238946
 20
69.616840999999965
 30
0.0
 11
224.08280199999999
 21
69.616840999999965
 31
0.0
  0
LINE
  5
F4
  8
3
 10
182.238946
 20
55.781840999999957
 30
0.0
 11
224.08280199999999
 21
55.781840999999957
 31
0.0
  0
LINE
  5
F5
  8
0
 10
166.638946
 20
70.699340999999976
 30
0.0
 11
222.20785699999999
 21
70.699340999999976
 31
0.0
  0
LINE
  5
F6
  8
0
 10
166.638946
 20
54.699340999999968
 30
0.0
 11
222.20785699999999
 21
54.699340999999968
 31
0.0
  0
LINE
  5
F7
  8
1
 10
234.238946
 20
62.699340999999968
 30
0.0
 11
145.238946
 21
62.699340999999968
 31
0.0
  0
LINE
  5
F8
  8
0
 10
166.238946
 20
50.69934099999994
 30
0.0
 11
151.238946
 21
50.69934099999994
 31
0.0
  0
LINE
  5
F9
  8
0
 10
151.238946
 20
74.699340999999976
 30
0.0
 11
166.238946
 21
74.699340999999976
 31
0.0
  0
LINE
  5
FA
  8
2
 10
150.238946
 20
55.699340999999968
 30
0.0
 11
158.238946
 21
55.699340999999968
 31
0.0
  0
LINE
  5
FB
  8
2
 10
150.238946
 20
62.699340999999968
 30
0.0
 11
158.238946
 21
62.699340999999968
 31
0.0
  0
LINE
  5
FC
  8
2
 10
150.238946
 20
69.699340999999976
 30
0.0
 11
158.238946
 21
69.699340999999976
 31
0.0
  0
LINE
  5
FD
  8
0
 10
151.238946
 20
50.69934099999994
 30
0.0
 11
151.238946
 21
74.699340999999976
 31
0.0
  0
LINE
  5
FE
  8
0
 10
150.238946
 20
52.43139199999996
 30
0.0
 11
150.238946
 21
72.96729099999996
 31
0.0
  0
LINE
  5
FF
  8
0
 10
151.238946
 20
74.699340999999976
 30
0.0
 11
150.238946
 21
72.96729099999996
 31
0.0
  0
LINE
  5
100
  8
0
 10
151.238946
 20
50.69934099999994
 30
0.0
 11
150.238946
 21
52.43139199999996
 31
0.0
  0
LINE
  5
101
  8
0
 10
182.238946
 20
54.699340999999968
 30
0.0
 11
182.238946
 21
70.699340999999933
 31
0.0
  0
LINE
  5
102
  8
0
 10
166.238946
 20
74.699340999999976
 30
0.0
 11
166.238946
 21
50.69934099999994
 31
0.0
  0
LINE
  5
103
  8
2
 10
162.90561199999999
 20
62.699340999999968
 30
0.0
 11
158.238946
 21
55.699340999999968
 31
0.0
  0
LINE
  5
104
  8
2
 10
158.238946
 20
55.699340999999968
 30
0.0
 11
158.238946
 21
69.699340999999976
 31
0.0
  0
LINE
  5
105
  8
2
 10
158.238946
 20
69.699340999999976
 30
0.0
 11
162.90561199999999
 21
62.699340999999968
 31
0.0
  0
ARC
  5
106
  8
0
 10
166.638946
 20
71.099340999999953
 30
0.0
 40
0.4
 50
180.0
 51
270.0
  0
ARC
  5
107
  8
0
 10
166.638946
 20
71.099340999999953
 30
0.0
 40
0.4
 50
180.0
 51
270.0
  0
LINE
  5
108
  8
3
 10
182.238946
 20
69.616840999999965
 30
0.0
 11
180.3640033741103
 21
70.699340999999976
 31
0.0
  0
ARC
  5
109
  8
0
 10
166.638946
 20
54.299340999999963
 30
0.0
 40
0.4
 50
90.0
 51
180.0
  0
ARC
  5
10A
  8
0
 10
166.638946
 20
54.299340999999963
 30
0.0
 40
0.4
 50
90.0
 51
180.0
  0
LINE
  5
10B
  8
3
 10
182.238946
 20
55.781840999999957
 30
0.0
 11
180.36400012661289
 21
54.699340999999968
 31
0.0
  0
LINE
  5
10C
  8
0
 10
225.238946
 20
68.949340999999976
 30
0.0
 11
225.238946
 21
56.449340999999968
 31
0.0
  0
LINE
  5
10D
  8
0
 10
222.20785699999999
 20
54.699340999999968
 30
0.0
 11
222.20785699999999
 21
70.699340999999976
 31
0.0
  0
LINE
  5
10E
  8
1
 10
223.238946
 20
73.699340999999976
 30
0.0
 11
223.238946
 21
51.699340999999983
 31
0.0
  0
ARC
  5
10F
  8
0
 10
223.238946
 20
62.699340999999968
 30
0.0
 40
6.0
 50
289.47122100000001
 51
70.528778999999972
  0
ARC
  5
110
  8
2
 10
223.238946
 20
62.699340999999968
 30
0.0
 40
6.0
 50
70.528778999999972
 51
289.47122100000001
  0
LINE
  5
111
  8
0
 10
225.238946
 20
68.949340999999976
 30
0.0
 11
222.20785699999999
 21
70.699340999999976
 31
0.0
  0
LINE
  5
112
  8
0
 10
225.238946
 20
56.449340999999968
 30
0.0
 11
222.20785699999999
 21
54.699340999999968
 31
0.0
  0
TEXT
  5
201
  8
0
 62
     3
 10
0.0
 20
0.0
 30
0.0
 40
5.0
  1
BCR16X60-SUS
  7
STANDARD1
  0
ENDSEC
  0
EOF
