  0
SECTION
  2
HEADER
  9
$ACADVER
  1
AC1009
  9
$INSBASE
 10
0.0
 20
0.0
 30
0.0
  9
$EXTMIN
 10
0.0
 20
-2.960436562073669
 30
0.0
  9
$EXTMAX
 10
1034.923106272114
 20
570.0
 30
0.0
  9
$LIMMIN
 10
0.0
 20
0.0
  9
$LIMMAX
 10
1125.0
 20
810.0
  9
$ORTHOMODE
 70
     1
  9
$REGENMODE
 70
     1
  9
$FILLMODE
 70
     1
  9
$QTEXTMODE
 70
     0
  9
$MIRRTEXT
 70
     0
  9
$DRAGMODE
 70
     2
  9
$LTSCALE
 40
30.0
  9
$OSMODE
 70
  3071
  9
$ATTMODE
 70
     1
  9
$TEXTSIZE
 40
8.0000000000000497
  9
$TRACEWID
 40
0.05
  9
$TEXTSTYLE
  7
STANDARD
  9
$CLAYER
  8
0
  9
$CELTYPE
  6
BYLAYER
  9
$CECOLOR
 62
   256
  9
$DIMSCALE
 40
3.0
  9
$DIMASZ
 40
3.0
  9
$DIMEXO
 40
2.0
  9
$DIMDLI
 40
0.38
  9
$DIMRND
 40
0.0
  9
$DIMDLE
 40
0.0
  9
$DIMEXE
 40
2.0
  9
$DIMTP
 40
0.0
  9
$DIMTM
 40
0.0
  9
$DIMTXT
 40
3.2000000000000002
  9
$DIMCEN
 40
0.0
  9
$DIMTSZ
 40
0.0
  9
$DIMTOL
 70
     0
  9
$DIMLIM
 70
     0
  9
$DIMTIH
 70
     0
  9
$DIMTOH
 70
     0
  9
$DIMSE1
 70
     0
  9
$DIMSE2
 70
     0
  9
$DIMTAD
 70
     1
  9
$DIMZIN
 70
     0
  9
$DIMBLK
  1

  9
$DIMASO
 70
     1
  9
$DIMSHO
 70
     0
  9
$DIMPOST
  1

  9
$DIMAPOST
  1

  9
$DIMALT
 70
     0
  9
$DIMALTD
 70
     2
  9
$DIMALTF
 40
25.399999999999999
  9
$DIMLFAC
 40
1.0
  9
$DIMTOFL
 70
     1
  9
$DIMTVP
 40
1.6000000000000001
  9
$DIMTIX
 70
     1
  9
$DIMSOXD
 70
     0
  9
$DIMSAH
 70
     0
  9
$DIMBLK1
  1

  9
$DIMBLK2
  1

  9
$DIMSTYLE
  2
STANDARD
  9
$DIMCLRD
 70
     0
  9
$DIMCLRE
 70
     0
  9
$DIMCLRT
 70
     0
  9
$DIMTFAC
 40
1.0
  9
$DIMGAP
 40
0.09
  9
$LUNITS
 70
     2
  9
$LUPREC
 70
     4
  9
$SKETCHINC
 40
0.1
  9
$FILLETRAD
 40
3.0
  9
$AUNITS
 70
     1
  9
$AUPREC
 70
     4
  9
$MENU
  1
E:\r13\win\SUPPORT\ACAD
  9
$ELEVATION
 40
0.0
  9
$PELEVATION
 40
0.0
  9
$THICKNESS
 40
0.0
  9
$LIMCHECK
 70
     0
  9
$BLIPMODE
 70
     0
  9
$CHAMFERA
 40
0.0
  9
$CHAMFERB
 40
0.0
  9
$SKPOLY
 70
     0
  9
$TDCREATE
 40
2449839.7906365739
  9
$TDUPDATE
 40
2456597.5938021298
  9
$TDINDWG
 40
0.0001574769
  9
$TDUSRTIMER
 40
0.0001574769
  9
$USRTIMER
 70
     1
  9
$ANGBASE
 50
0.0
  9
$ANGDIR
 70
     0
  9
$PDMODE
 70
     0
  9
$PDSIZE
 40
0.0
  9
$PLINEWID
 40
0.0
  9
$COORDS
 70
     1
  9
$SPLFRAME
 70
     0
  9
$SPLINETYPE
 70
     6
  9
$SPLINESEGS
 70
     8
  9
$ATTDIA
 70
     0
  9
$ATTREQ
 70
     1
  9
$HANDLING
 70
     1
  9
$HANDSEED
  5
3B6
  9
$SURFTAB1
 70
     6
  9
$SURFTAB2
 70
     6
  9
$SURFTYPE
 70
     6
  9
$SURFU
 70
     6
  9
$SURFV
 70
     6
  9
$UCSNAME
  2

  9
$UCSORG
 10
0.0
 20
0.0
 30
0.0
  9
$UCSXDIR
 10
1.0
 20
0.0
 30
0.0
  9
$UCSYDIR
 10
0.0
 20
1.0
 30
0.0
  9
$PUCSNAME
  2

  9
$PUCSORG
 10
0.0
 20
0.0
 30
0.0
  9
$PUCSXDIR
 10
1.0
 20
0.0
 30
0.0
  9
$PUCSYDIR
 10
0.0
 20
1.0
 30
0.0
  9
$USERI1
 70
     0
  9
$USERI2
 70
     1
  9
$USERI3
 70
     1
  9
$USERI4
 70
     0
  9
$USERI5
 70
     0
  9
$USERR1
 40
0.0
  9
$USERR2
 40
0.0
  9
$USERR3
 40
0.0
  9
$USERR4
 40
0.0
  9
$USERR5
 40
0.0
  9
$WORLDVIEW
 70
     1
  9
$SHADEDGE
 70
     3
  9
$SHADEDIF
 70
    70
  9
$TILEMODE
 70
     1
  9
$MAXACTVP
 70
    16
  9
$PLIMCHECK
 70
     0
  9
$PEXTMIN
 10
1.0000000000000000E+020
 20
1.0000000000000000E+020
 30
1.0000000000000000E+020
  9
$PEXTMAX
 10
-1.0000000000000000E+020
 20
-1.0000000000000000E+020
 30
-1.0000000000000000E+020
  9
$PLIMMIN
 10
0.0
 20
0.0
  9
$PLIMMAX
 10
12.0
 20
9.0
  9
$UNITMODE
 70
     0
  9
$VISRETAIN
 70
     0
  9
$PLINEGEN
 70
     0
  9
$PSLTSCALE
 70
     0
  0
ENDSEC
  0
SECTION
  2
TABLES
  0
TABLE
  2
VPORT
 70
     1
  0
VPORT
  2
*ACTIVE
 70
     0
 10
0.0
 20
0.0
 11
1.0
 21
1.0
 12
585.00993858023253
 22
403.50448702520742
 13
0.0
 23
0.0
 14
30.0
 24
30.0
 15
30.0
 25
30.0
 16
0.0
 26
0.0
 36
1.0
 17
0.0
 27
0.0
 37
0.0
 40
820.28242528545559
 41
1.8318713450292401
 42
50.0
 43
0.0
 44
0.0
 50
0.0
 51
0.0
 71
     0
 72
   500
 73
     1
 74
     0
 75
     0
 76
     0
 77
     0
 78
     2
  0
ENDTAB
  0
TABLE
  2
LTYPE
 70
     4
  0
LTYPE
  2
CONTINUOUS
 70
     0
  3
Solid Line
 72
    65
 73
     0
 40
0.0
  0
LTYPE
  2
CENTER
 70
     0
  3
____ _ ____ _ ____ _ ____ _ ____ _ ____ _ ____
 72
    65
 73
     4
 40
2.0
 49
1.25
 49
-0.25
 49
0.25
 49
-0.25
  0
LTYPE
  2
HIDDEN
 70
     0
  3
_ _ _ _ _ _ _ _ _ _ _ _ _ _ _ _ _ _ _ _ _ _ _
 72
    65
 73
     2
 40
0.375
 49
0.25
 49
-0.125
  0
LTYPE
  2
PHANTOM2
 70
     0
  3
___ _ _ ___ _ _ ___ _ _ ___ _ _
 72
    65
 73
     6
 40
1.25
 49
0.625
 49
-0.125
 49
0.125
 49
-0.125
 49
0.125
 49
-0.125
  0
ENDTAB
  0
TABLE
  2
LAYER
 70
     3
  0
LAYER
  2
0
 70
     0
 62
     7
  6
CONTINUOUS
  0
LAYER
  2
1
 70
     0
 62
     1
  6
CENTER
  0
LAYER
  2
2
 70
     0
 62
     2
  6
HIDDEN
  0
ENDTAB
  0
TABLE
  2
STYLE
 70
     2
  0
STYLE
  2
STANDARD
 70
     0
 40
0.0
 41
1.0
 50
0.0
 71
     0
 42
8.0000000000000497
  3
TXT
  4
BIGFONT
  0
STYLE
  2
STANDARD1
 70
     0
 40
0.0
 41
1.0
 50
0.0
 71
     0
 42
3.0
  3
txt
  4

  0
ENDTAB
  0
TABLE
  2
VIEW
 70
     1
  0
VIEW
  2
ALL
 70
     0
 40
810.0
 10
662.97478991596643
 20
405.0
 41
0.0
 11
0.0
 21
0.0
 31
1.0
 12
0.0
 22
0.0
 32
0.0
 42
0.0
 43
0.0
 44
0.0
 50
0.0
 71
     0
  0
ENDTAB
  0
TABLE
  2
UCS
 70
     0
  0
ENDTAB
  0
TABLE
  2
APPID
 70
     3
  0
APPID
  2
ACAD
 70
     0
  0
APPID
  2
ACAD_MLEADERVER
 70
     0
  0
APPID
  2
ACAD_NAV_VCDISPLAY
 70
     0
  0
ENDTAB
  0
TABLE
  2
DIMSTYLE
 70
     1
  0
DIMSTYLE
  2
STANDARD
 70
     0
  3

  4

  5

  6

  7

 40
1.0
 41
0.18
 42
0.0625
 43
0.38
 44
0.18
 45
0.0
 46
0.0
 47
0.0
 48
0.0
140
0.18
141
0.09
142
0.0
143
25.399999999999999
144
1.0
145
0.0
146
1.0
147
0.09
 71
     0
 72
     0
 73
     1
 74
     1
 75
     0
 76
     0
 77
     0
 78
     0
170
     0
171
     2
172
     0
173
     0
174
     0
175
     0
176
     0
177
     0
178
     0
  0
ENDTAB
  0
ENDSEC
  0
SECTION
  2
BLOCKS
  0
BLOCK
  8
0
  2
$MODEL_SPACE
 70
     0
 10
0.0
 20
0.0
 30
0.0
  3
$MODEL_SPACE
  1

  0
ENDBLK
  5
237
  8
0
  0
BLOCK
 67
     1
  8
0
  2
$PAPER_SPACE
 70
     0
 10
0.0
 20
0.0
 30
0.0
  3
$PAPER_SPACE
  1

  0
ENDBLK
  5
235
 67
     1
  8
0
  0
ENDSEC
  0
SECTION
  2
ENTITIES
  0
ARC
  5
35
  8
0
 10
200.0
 20
530.0
 30
0.0
 40
25.0
 50
87.296365664396816
 51
272.70363433560323
  0
LINE
  5
36
  8
1
 10
442.0
 20
530.0
 30
0.0
 11
160.0
 21
530.0
 31
0.0
  0
LINE
  5
37
  8
1
 10
200.0
 20
570.0
 30
0.0
 11
200.0
 21
490.0
 31
0.0
  0
LINE
  5
38
  8
1
 10
412.0
 20
560.03343066405341
 30
0.0
 11
412.0
 21
499.96656933594659
 31
0.0
  0
ARC
  5
39
  8
0
 10
412.0
 20
530.0
 30
0.0
 40
15.0
 50
272.70363433560328
 51
87.296365664396745
  0
LINE
  5
3A
  8
0
 10
201.1792452830189
 20
554.97217212343526
 30
0.0
 11
412.70754716981128
 21
544.98330327406109
 31
0.0
  0
LINE
  5
3B
  8
0
 10
201.1792452830189
 20
505.02782787656469
 30
0.0
 11
412.70754716981128
 21
515.01669672593869
 31
0.0
  0
CIRCLE
  5
3C
  8
0
 10
200.0
 20
530.0
 30
0.0
 40
22.75
  0
CIRCLE
  5
3D
  8
0
 10
200.0
 20
530.0
 30
0.0
 40
20.25
  0
CIRCLE
  5
3E
  8
0
 10
200.0
 20
530.0
 30
0.0
 40
15.75
  0
LINE
  5
3F
  8
0
 10
200.96580188679241
 20
552.72949024319428
 30
0.0
 11
412.58372641509419
 21
543.73760399313926
 31
0.0
  0
LINE
  5
40
  8
0
 10
211.21854324910171
 20
549.79158375087832
 30
0.0
 11
347.51952604736869
 21
544.0
 31
0.0
  0
LINE
  5
41
  8
0
 10
211.2185432491016
 20
510.20841624912151
 30
0.0
 11
347.51952604737011
 21
516.0
 31
0.0
  0
LINE
  5
42
  8
1
 10
200.0
 20
310.5
 30
0.0
 11
199.99999999999989
 21
220.00000000000011
 31
0.0
  0
LINE
  5
43
  8
1
 10
412.0
 20
334.0
 30
0.0
 11
412.0
 21
258.98597621985652
 31
0.0
  0
LINE
  5
44
  8
0
 10
176.0
 20
250.0
 30
0.0
 11
224.0
 21
250.0
 31
0.0
  0
LINE
  5
45
  8
0
 10
176.0
 20
250.0
 30
0.0
 11
176.0
 21
251.58571284984711
 31
0.0
  0
LINE
  5
46
  8
0
 10
179.75
 20
295.5
 30
0.0
 11
220.25
 21
295.5
 31
0.0
  0
LINE
  5
47
  8
0
 10
177.25
 20
292.69999999999999
 30
0.0
 11
222.75
 21
292.69999999999999
 31
0.0
  0
LINE
  5
48
  8
0
 10
176.73576150292999
 20
251.47062977217189
 30
0.0
 11
425.54502793672168
 21
275.35519254488861
 31
0.0
  0
LINE
  5
49
  8
0
 10
179.75
 20
295.5
 30
0.0
 11
177.25
 21
292.69999999999999
 31
0.0
  0
LINE
  5
4A
  8
0
 10
177.25
 20
292.69999999999999
 30
0.0
 11
175.0946379997776
 21
253.0451752888776
 31
0.0
  0
ARC
  5
4B
  8
0
 10
176.5924272037517
 20
252.96376582715121
 30
0.0
 40
1.5
 50
176.88885900393669
 51
275.48333333333329
  0
ARC
  5
4C
  8
0
 10
425.4016936375433
 20
276.84832859986778
 30
0.0
 40
1.5
 50
275.48333333333329
 51
4.0000000000000178
  0
LINE
  5
4D
  8
0
 10
398.25
 20
296.0
 30
0.0
 11
425.75
 21
296.0
 31
0.0
  0
LINE
  5
4E
  8
0
 10
398.25
 20
296.0
 30
0.0
 11
398.25
 21
295.0
 31
0.0
  0
LINE
  5
4F
  8
0
 10
425.75
 20
296.0
 30
0.0
 11
426.89803971293298
 21
276.95296331048399
 31
0.0
  0
LINE
  5
50
  8
0
 10
404.57902739203712
 20
295.15467809776811
 30
0.0
 11
211.2185432491014
 21
290.42904965312351
 31
0.0
  0
LINE
  5
51
  8
0
 10
220.25
 20
295.5
 30
0.0
 11
222.75
 21
292.69999999999999
 31
0.0
  0
LINE
  5
52
  8
0
 10
222.75
 20
292.7000000000001
 30
0.0
 11
222.75
 21
292.24797949519518
 31
0.0
  0
ARC
  5
53
  8
0
 10
224.25
 20
292.24797949519518
 30
0.0
 40
1.5
 50
180.0
 51
271.39999999999998
  0
LINE
  5
54
  8
0
 10
224.0
 20
250.0
 30
0.0
 11
224.2105020444354
 21
256.02798986102431
 31
0.0
  0
LINE
  5
55
  8
0
 10
181.0
 20
235.0
 30
0.0
 11
219.0
 21
235.0
 31
0.0
  0
LINE
  5
56
  8
0
 10
180.0
 20
250.0
 30
0.0
 11
180.0
 21
236.0
 31
0.0
  0
LINE
  5
57
  8
0
 10
220.0
 20
250.0
 30
0.0
 11
220.0
 21
236.0
 31
0.0
  0
LINE
  5
58
  8
0
 10
180.0
 20
236.0
 30
0.0
 11
181.0
 21
235.0
 31
0.0
  0
LINE
  5
59
  8
0
 10
219.0
 20
235.0
 30
0.0
 11
220.0
 21
236.0
 31
0.0
  0
LINE
  5
5A
  8
0
 10
180.0
 20
236.0
 30
0.0
 11
220.0
 21
236.0
 31
0.0
  0
LINE
  5
5B
  8
2
 10
182.0
 20
288.50000000000011
 30
0.0
 11
182.0
 21
250.00000000000011
 31
0.0
  0
LINE
  5
5C
  8
2
 10
218.0
 20
288.50000000000011
 30
0.0
 11
218.0
 21
250.0
 31
0.0
  0
LINE
  5
5D
  8
2
 10
182.0
 20
288.50000000000011
 30
0.0
 11
218.0
 21
288.50000000000011
 31
0.0
  0
LINE
  5
5E
  8
2
 10
184.25
 20
289.30000000000001
 30
0.0
 11
215.75
 21
289.30000000000001
 31
0.0
  0
LINE
  5
5F
  8
2
 10
184.25
 20
289.30000000000001
 30
0.0
 11
184.25
 21
288.50000000000011
 31
0.0
  0
LINE
  5
60
  8
2
 10
215.75
 20
289.30000000000001
 30
0.0
 11
215.75
 21
288.50000000000011
 31
0.0
  0
LINE
  5
61
  8
2
 10
184.25
 20
289.30000000000013
 30
0.0
 11
183.8164537659502
 21
295.5
 31
0.0
  0
LINE
  5
62
  8
2
 10
215.75
 20
289.30000000000013
 30
0.0
 11
216.1835462340498
 21
295.5
 31
0.0
  0
LINE
  5
63
  8
2
 10
194.0
 20
270.00000000000011
 30
0.0
 11
194.0
 21
235.50000000000011
 31
0.0
  0
LINE
  5
64
  8
2
 10
206.0
 20
270.00000000000011
 30
0.0
 11
206.0
 21
235.50000000000011
 31
0.0
  0
LINE
  5
65
  8
2
 10
194.0
 20
270.00000000000011
 30
0.0
 11
200.0
 21
273.46410161513791
 31
0.0
  0
LINE
  5
66
  8
2
 10
206.0
 20
270.00000000000011
 30
0.0
 11
200.0
 21
273.46410161513791
 31
0.0
  0
LINE
  5
67
  8
2
 10
194.0
 20
235.50000000000011
 30
0.0
 11
193.5
 21
235.00000000000011
 31
0.0
  0
LINE
  5
68
  8
2
 10
206.0
 20
235.50000000000011
 30
0.0
 11
206.5
 21
235.00000000000011
 31
0.0
  0
LINE
  5
69
  8
2
 10
194.0
 20
235.50000000000011
 30
0.0
 11
206.0
 21
235.50000000000011
 31
0.0
  0
CIRCLE
  5
6A
  8
0
 10
200.0
 20
530.0
 30
0.0
 40
16.1835462340498
  0
LINE
  5
6B
  8
0
 10
412.58371929131448
 20
292.84956205561417
 30
0.0
 11
200.96580188674881
 21
287.67773155303729
 31
0.0
  0
ARC
  5
6C
  8
0
 10
199.76039510149161
 20
312.64865453321579
 30
0.0
 40
25.0
 50
272.76366039230902
 51
297.27913521249252
  0
ARC
  5
6D
  8
0
 10
412.0
 20
530.0
 30
0.0
 40
13.75
 50
208.50713519957631
 51
151.49286480041761
  0
LINE
  5
6E
  8
0
 10
200.96580188679241
 20
507.2705097568055
 30
0.0
 11
412.58372641509419
 21
516.26239600686063
 31
0.0
  0
LINE
  5
6F
  8
0
 10
405.0
 20
319.0
 30
0.0
 11
423.0
 21
319.0
 31
0.0
  0
LINE
  5
70
  8
0
 10
425.0
 20
318.0
 30
0.0
 11
425.0
 21
296.0
 31
0.0
  0
LINE
  5
71
  8
0
 10
402.0
 20
316.0
 30
0.0
 11
402.0
 21
296.0
 31
0.0
  0
LINE
  5
72
  8
0
 10
423.0
 20
319.0
 30
0.0
 11
425.0
 21
318.0
 31
0.0
  0
LINE
  5
73
  8
0
 10
425.0
 20
318.0
 30
0.0
 11
402.76393202250023
 21
318.0
 31
0.0
  0
ARC
  5
74
  8
0
 10
405.0
 20
316.0
 30
0.0
 40
3.0
 50
90.0
 51
179.99999999999989
  0
LINE
  5
75
  8
1
 10
292.0
 20
309.0
 30
0.0
 11
425.75
 21
309.0
 31
0.0
  0
CIRCLE
  5
76
  8
0
 10
412.0
 20
309.0
 30
0.0
 40
2.0
  0
LINE
  5
77
  8
0
 10
396.69999999999987
 20
300.5
 30
0.0
 11
397.0
 21
300.5
 31
0.0
  0
LINE
  5
78
  8
0
 10
396.69999999999999
 20
317.5
 30
0.0
 11
397.0
 21
317.5
 31
0.0
  0
ARC
  5
79
  8
0
 10
395.7000000000001
 20
298.42646564252033
 30
0.0
 40
1.0
 50
274.37190658262182
 51
0.0
  0
LINE
  5
7A
  8
0
 10
364.0
 20
295.0
 30
0.0
 11
395.7762301413951
 21
297.42937539307297
 31
0.0
  0
LINE
  5
7B
  8
0
 10
364.0
 20
323.0
 30
0.0
 11
395.7762301413951
 21
320.57062460692691
 31
0.0
  0
LINE
  5
7C
  8
0
 10
396.69999999999999
 20
319.57353435747962
 30
0.0
 11
396.69999999999999
 21
298.42646564252033
 31
0.0
  0
LINE
  5
7D
  8
0
 10
364.0
 20
322.99999999999989
 30
0.0
 11
364.0
 21
294.99999999999989
 31
0.0
  0
ARC
  5
7E
  8
0
 10
373.6249999999996
 20
308.99999999999977
 30
0.0
 40
66.624999999999702
 50
170.19713716097479
 51
189.8028622857172
  0
LINE
  5
7F
  8
0
 10
308.11191166691452
 20
297.38808833308548
 30
0.0
 11
310.35355339059322
 21
295.14644660940661
 31
0.0
  0
LINE
  5
80
  8
0
 10
308.11191166691231
 20
320.61191166691231
 30
0.0
 11
310.35355339059328
 21
322.85355339059328
 31
0.0
  0
LINE
  5
81
  8
0
 10
310.5
 20
321.58578643762689
 30
0.0
 11
310.49999999999989
 21
296.41421356237311
 31
0.0
  0
LINE
  5
82
  8
0
 10
308.0
 20
319.08578643762689
 30
0.0
 11
308.0
 21
298.91421356237311
 31
0.0
  0
LINE
  5
83
  8
0
 10
397.0
 20
317.5
 30
0.0
 11
397.0
 21
300.5
 31
0.0
  0
LINE
  5
84
  8
0
 10
310.7071067811865
 20
295.0
 30
0.0
 11
364.0
 21
295.0
 31
0.0
  0
LINE
  5
85
  8
0
 10
310.70710678118661
 20
323.0
 30
0.0
 11
364.0
 21
323.0
 31
0.0
  0
LINE
  5
86
  8
0
 10
397.0
 20
316.0
 30
0.0
 11
402.0
 21
315.25
 31
0.0
  0
LINE
  5
87
  8
0
 10
397.0
 20
302.0
 30
0.0
 11
402.0
 21
302.75
 31
0.0
  0
ARC
  5
88
  8
0
 10
412.0
 20
530.0
 30
0.0
 40
13.0
 50
219.71513723180249
 51
140.2848627681976
  0
ARC
  5
89
  8
0
 10
412.0
 20
530.0
 30
0.0
 40
11.0
 50
230.47880364136921
 51
129.52119635863079
  0
ARC
  5
8A
  8
0
 10
412.0
 20
530.0
 30
0.0
 40
6.25
 50
219.79181949955691
 51
140.20818050044309
  0
LINE
  5
8B
  8
0
 10
417.49999999999989
 20
532.96858552175945
 30
0.0
 11
417.49999999999989
 21
527.03141447822088
 31
0.0
  0
LINE
  5
8C
  8
0
 10
416.80234317807458
 20
534.0
 30
0.0
 11
402.00000000000011
 21
534.0
 31
0.0
  0
LINE
  5
8D
  8
0
 10
416.80234317807458
 20
526.0
 30
0.0
 11
402.00000000000011
 21
526.0
 31
0.0
  0
ARC
  5
8E
  8
0
 10
412.0
 20
530.0
 30
0.0
 40
5.0
 50
306.86989764584399
 51
53.13010235415598
  0
LINE
  5
8F
  8
0
 10
402.0
 20
521.69337613707478
 30
0.0
 11
402.0
 21
538.30662386291101
 31
0.0
  0
LINE
  5
90
  8
0
 10
405.0
 20
521.51471862575795
 30
0.0
 11
405.0
 21
526.0
 31
0.0
  0
LINE
  5
91
  8
0
 10
405.0
 20
534.0
 30
0.0
 11
405.0
 21
538.4852813742317
 31
0.0
  0
LINE
  5
92
  8
0
 10
310.7071067811865
 20
544.0
 30
0.0
 11
364.0
 21
544.0
 31
0.0
  0
LINE
  5
93
  8
0
 10
310.7071067811865
 20
516.0
 30
0.0
 11
364.0
 21
516.0
 31
0.0
  0
LINE
  5
94
  8
0
 10
397.0
 20
538.49999999999989
 30
0.0
 11
397.0
 21
521.49999999999989
 31
0.0
  0
LINE
  5
95
  8
0
 10
308.0
 20
540.08578643762689
 30
0.0
 11
308.0
 21
519.91421356237299
 31
0.0
  0
LINE
  5
96
  8
0
 10
310.50000000000011
 20
542.58578643762678
 30
0.0
 11
310.49999999999989
 21
517.41421356237311
 31
0.0
  0
LINE
  5
97
  8
0
 10
308.11191166691219
 20
541.61191166691208
 30
0.0
 11
310.35355339059322
 21
543.85355339059333
 31
0.0
  0
LINE
  5
98
  8
0
 10
308.1119116669156
 20
518.38808833308406
 30
0.0
 11
310.35355339059322
 21
516.14644660940655
 31
0.0
  0
ARC
  5
99
  8
0
 10
373.6249999999996
 20
529.99999999999977
 30
0.0
 40
66.624999999999702
 50
170.19713771428459
 51
189.80286228571831
  0
LINE
  5
9A
  8
0
 10
364.0
 20
543.99999999999977
 30
0.0
 11
364.0
 21
515.99999999999989
 31
0.0
  0
LINE
  5
9B
  8
0
 10
396.69999999999999
 20
540.57353435747973
 30
0.0
 11
396.69999999999999
 21
519.42646564252016
 31
0.0
  0
LINE
  5
9C
  8
0
 10
364.0
 20
544.0
 30
0.0
 11
395.7762301413951
 21
541.57062460692691
 31
0.0
  0
LINE
  5
9D
  8
0
 10
364.0
 20
516.0
 30
0.0
 11
395.7762301413951
 21
518.42937539307297
 31
0.0
  0
ARC
  5
9E
  8
0
 10
395.7000000000001
 20
540.57353435747973
 30
0.0
 40
1.0
 50
0.0
 51
85.628093417378139
  0
ARC
  5
9F
  8
0
 10
395.7000000000001
 20
519.42646564252016
 30
0.0
 40
1.0
 50
274.37190658262182
 51
0.0
  0
LINE
  5
A0
  8
0
 10
396.69999999999999
 20
538.49999999999989
 30
0.0
 11
397.0
 21
538.49999999999989
 31
0.0
  0
LINE
  5
A1
  8
0
 10
396.69999999999987
 20
521.49999999999989
 30
0.0
 11
397.0
 21
521.49999999999989
 31
0.0
  0
LINE
  5
A2
  8
0
 10
397.0
 20
537.0
 30
0.0
 11
402.0
 21
536.24999999999989
 31
0.0
  0
LINE
  5
A3
  8
0
 10
397.0
 20
523.0
 30
0.0
 11
402.0
 21
523.74999999999989
 31
0.0
  0
LINE
  5
A4
  8
0
 10
384.61966806135229
 20
517.57642722181595
 30
0.0
 11
404.57902739203951
 21
518.42452309614009
 31
0.0
  0
LINE
  5
A5
  8
0
 10
384.6196680613528
 20
542.42357277818405
 30
0.0
 11
404.57902739203951
 21
541.57547690385968
 31
0.0
  0
ARC
  5
A6
  8
0
 10
308.46546505750553
 20
541.25835827631909
 30
0.0
 40
0.5
 50
135.00000000000921
 51
170.19713771428451
  0
ARC
  5
A7
  8
0
 10
310.7071067811865
 20
543.5
 30
0.0
 40
0.5
 50
90.0
 51
134.99999999999989
  0
ARC
  5
A8
  8
0
 10
308.46546505750888
 20
518.74164172367739
 30
0.0
 40
0.5
 50
189.80286228571779
 51
225.0
  0
ARC
  5
A9
  8
0
 10
310.7071067811865
 20
516.5
 30
0.0
 40
0.5
 50
225.00000000000139
 51
269.99999999999989
  0
ARC
  5
AA
  8
0
 10
310.70710678118661
 20
322.5
 30
0.0
 40
0.5
 50
90.0
 51
134.99999999999989
  0
ARC
  5
AB
  8
0
 10
308.46546505750553
 20
320.25835827631897
 30
0.0
 40
0.5
 50
135.0
 51
170.19713771428451
  0
ARC
  5
AC
  8
0
 10
308.4654650575078
 20
297.74164172367881
 30
0.0
 40
0.5
 50
189.8028622857195
 51
224.99999999999309
  0
ARC
  5
AD
  8
0
 10
310.7071067811865
 20
295.5
 30
0.0
 40
0.5
 50
225.0
 51
269.99999999999989
  0
LINE
  5
AE
  8
2
 10
193.99999999999989
 20
270.00000000000011
 30
0.0
 11
206.0
 21
270.00000000000011
 31
0.0
  0
LINE
  5
AF
  8
0
 10
140.25
 20
295.50000000000011
 30
0.0
 11
99.750000000000014
 21
295.5
 31
0.0
  0
LINE
  5
B0
  8
1
 10
120.0
 20
338.0
 30
0.0
 11
120.0
 21
220.00000000000011
 31
0.0
  0
LINE
  5
B1
  8
0
 10
100.0000000000001
 20
236.00000000000011
 30
0.0
 11
140.0000000000002
 21
236.00000000000011
 31
0.0
  0
LINE
  5
B2
  8
0
 10
100.0000000000001
 20
236.00000000000011
 30
0.0
 11
101.0000000000002
 21
235.00000000000011
 31
0.0
  0
LINE
  5
B3
  8
0
 10
100.0000000000001
 20
250.00000000000011
 30
0.0
 11
100.0000000000001
 21
236.00000000000011
 31
0.0
  0
LINE
  5
B4
  8
0
 10
101.0000000000002
 20
235.00000000000011
 30
0.0
 11
139.0000000000002
 21
235.00000000000011
 31
0.0
  0
LINE
  5
B5
  8
0
 10
139.0000000000002
 20
235.00000000000011
 30
0.0
 11
140.0000000000002
 21
236.00000000000011
 31
0.0
  0
LINE
  5
B6
  8
0
 10
140.0000000000002
 20
250.00000000000011
 30
0.0
 11
140.0000000000002
 21
236.00000000000011
 31
0.0
  0
LINE
  5
B7
  8
0
 10
144.0
 20
250.0
 30
0.0
 11
96.0
 21
250.0
 31
0.0
  0
LINE
  5
B8
  8
0
 10
142.75
 20
292.7000000000001
 30
0.0
 11
97.249999999999943
 21
292.7000000000001
 31
0.0
  0
LINE
  5
B9
  8
0
 10
97.250000000000014
 20
292.7000000000001
 30
0.0
 11
95.076893727885704
 21
255.03658294027679
 31
0.0
  0
LINE
  5
BA
  8
0
 10
142.75
 20
292.7000000000001
 30
0.0
 11
144.9231062721143
 21
255.0365829402767
 31
0.0
  0
LINE
  5
BB
  8
0
 10
96.000000000000057
 20
253.56451687788601
 30
0.0
 11
96.000000000000057
 21
250.0
 31
0.0
  0
LINE
  5
BC
  8
0
 10
144.0
 20
253.5645168779017
 30
0.0
 11
144.0
 21
250.0
 31
0.0
  0
LINE
  5
BD
  8
0
 10
99.750000000000014
 20
295.5
 30
0.0
 11
97.250000000000014
 21
292.7000000000001
 31
0.0
  0
LINE
  5
BE
  8
0
 10
140.25
 20
295.5
 30
0.0
 11
142.75
 21
292.7000000000001
 31
0.0
  0
ARC
  5
BF
  8
0
 10
120.0000000000001
 20
392.08494246848289
 30
0.0
 40
140.62117664133169
 50
260.30620192573321
 51
279.69379807426668
  0
ARC
  5
C0
  8
0
 10
96.574403144654127
 20
254.95017954514739
 30
0.0
 40
1.5
 50
176.6978055710359
 51
260.30620192573173
  0
ARC
  5
C1
  8
0
 10
143.4255968553459
 20
254.95017954514739
 30
0.0
 40
1.5
 50
279.69379807426782
 51
3.3021944289630079
  0
LINE
  5
C2
  8
0
 10
106.25
 20
296.0
 30
0.0
 11
133.75
 21
296.0
 31
0.0
  0
LINE
  5
C3
  8
0
 10
106.25
 20
296.0
 30
0.0
 11
106.25
 21
295.5
 31
0.0
  0
LINE
  5
C4
  8
0
 10
133.75
 20
296.0
 30
0.0
 11
133.75
 21
295.5
 31
0.0
  0
ARC
  5
C5
  8
0
 10
503.42559685534587
 20
254.95017954514739
 30
0.0
 40
1.5
 50
292.51562888113489
 51
3.3021944289630079
  0
ARC
  5
C6
  8
0
 10
456.57440314465401
 20
254.95017954514739
 30
0.0
 40
1.5
 50
176.6978055710359
 51
247.48437111825069
  0
LINE
  5
C7
  8
0
 10
500.25
 20
295.5
 30
0.0
 11
502.74999999999989
 21
292.7000000000001
 31
0.0
  0
LINE
  5
C8
  8
0
 10
459.75
 20
295.5
 30
0.0
 11
457.24999999999989
 21
292.7000000000001
 31
0.0
  0
LINE
  5
C9
  8
0
 10
504.0
 20
253.79660428179079
 30
0.0
 11
504.0
 21
250.0
 31
0.0
  0
LINE
  5
CA
  8
0
 10
456.0
 20
253.79660428179079
 30
0.0
 11
456.0
 21
250.0
 31
0.0
  0
LINE
  5
CB
  8
0
 10
502.74999999999989
 20
292.7000000000001
 30
0.0
 11
504.92310627211418
 21
255.0365829402767
 31
0.0
  0
LINE
  5
CC
  8
0
 10
457.24999999999989
 20
292.7000000000001
 30
0.0
 11
455.07689372788559
 21
255.03658294027679
 31
0.0
  0
LINE
  5
CD
  8
0
 10
502.74999999999989
 20
292.7000000000001
 30
0.0
 11
495.84324737344741
 21
292.7000000000001
 31
0.0
  0
LINE
  5
CE
  8
0
 10
504.0
 20
250.0
 30
0.0
 11
456.0
 21
250.0
 31
0.0
  0
LINE
  5
CF
  8
0
 10
500.00000000000023
 20
250.00000000000011
 30
0.0
 11
500.00000000000023
 21
236.00000000000011
 31
0.0
  0
LINE
  5
D0
  8
0
 10
499.00000000000011
 20
235.00000000000011
 30
0.0
 11
500.00000000000023
 21
236.00000000000011
 31
0.0
  0
LINE
  5
D1
  8
0
 10
461.00000000000023
 20
235.00000000000011
 30
0.0
 11
499.00000000000011
 21
235.00000000000011
 31
0.0
  0
LINE
  5
D2
  8
0
 10
460.00000000000023
 20
250.00000000000011
 30
0.0
 11
460.00000000000023
 21
236.00000000000011
 31
0.0
  0
LINE
  5
D3
  8
0
 10
460.00000000000023
 20
236.00000000000011
 30
0.0
 11
461.00000000000023
 21
235.00000000000011
 31
0.0
  0
LINE
  5
D4
  8
0
 10
460.00000000000023
 20
236.00000000000011
 30
0.0
 11
500.00000000000023
 21
236.00000000000011
 31
0.0
  0
LINE
  5
D5
  8
0
 10
500.25
 20
295.50000000000011
 30
0.0
 11
493.76674776875512
 21
295.50000000000023
 31
0.0
  0
LINE
  5
D6
  8
1
 10
479.99999999999977
 20
338.00000000000051
 30
0.0
 11
480.0
 21
220.00000000000011
 31
0.0
  0
LINE
  5
D7
  8
0
 10
466.262395704163
 20
296.0
 30
0.0
 11
493.73760429583712
 21
296.0
 31
0.0
  0
LINE
  5
D8
  8
0
 10
466.57326095229138
 20
274.05493120555082
 30
0.0
 11
470.48941362304731
 21
274.05493120555099
 31
0.0
  0
LINE
  5
D9
  8
0
 10
466.26239570416311
 20
296.0
 30
0.0
 11
465.07580203415012
 21
275.64220542020939
 31
0.0
  0
LINE
  5
DA
  8
0
 10
493.737604295837
 20
296.0
 30
0.0
 11
494.92419749577761
 21
275.64221348500507
 31
0.0
  0
LINE
  5
DB
  8
0
 10
464.15675262655219
 20
292.7000000000001
 30
0.0
 11
457.24999999999989
 21
292.7000000000001
 31
0.0
  0
LINE
  5
DC
  8
0
 10
466.23325223124522
 20
295.50000000000011
 30
0.0
 11
459.75
 21
295.5
 31
0.0
  0
ARC
  5
DD
  8
0
 10
466.57326095229138
 20
275.55493120555087
 30
0.0
 40
1.5
 50
176.6641782579357
 51
269.99999999999989
  0
ARC
  5
DE
  8
0
 10
493.42673904770868
 20
275.55493120555082
 30
0.0
 40
1.5
 50
269.99999999999989
 51
3.3358217420637222
  0
ARC
  5
DF
  8
0
 10
479.99999999999977
 20
229.70639879352279
 30
0.0
 40
45.356847116330009
 50
77.8961897426245
 51
102.1038102573747
  0
LINE
  5
E0
  8
0
 10
489.51058637695257
 20
274.05493120555087
 30
0.0
 11
493.42673904770868
 21
274.05493120555082
 31
0.0
  0
ARC
  5
E1
  8
0
 10
479.99999999999977
 20
229.70639879352279
 30
0.0
 40
45.787121128982868
 50
77.8961897426245
 51
102.1038102573747
  0
LINE
  5
E2
  8
0
 10
456.00000000000011
 20
253.79660428179079
 30
0.0
 11
461.07444355717632
 21
253.79660428179079
 31
0.0
  0
LINE
  5
E3
  8
0
 10
498.92555644282379
 20
253.79660428179079
 30
0.0
 11
504.0
 21
253.79660428179079
 31
0.0
  0
LINE
  5
E4
  8
0
 10
461.07444355717638
 20
253.79660428179079
 30
0.0
 11
470.48941362304981
 21
274.05493120555099
 31
0.0
  0
LINE
  5
E5
  8
0
 10
489.51058637694968
 20
274.05493120555087
 30
0.0
 11
498.92555644282379
 21
253.79660428179079
 31
0.0
  0
LINE
  5
E6
  8
0
 10
456.60534142632702
 20
256.02798986102431
 30
0.0
 11
464.98328466797312
 21
274.05493120555087
 31
0.0
  0
LINE
  5
E7
  8
0
 10
503.39465857367259
 20
256.02798986102431
 30
0.0
 11
495.01671533202659
 21
274.05493120555087
 31
0.0
  0
LINE
  5
E8
  8
0
 10
456.94250132750432
 20
287.37055482001398
 30
0.0
 11
460.20841624912163
 21
290.42904965312363
 31
0.0
  0
LINE
  5
E9
  8
0
 10
460.20841624912163
 20
290.42904965312363
 30
0.0
 11
466.13641640064208
 21
293.83863604939199
 31
0.0
  0
LINE
  5
EA
  8
0
 10
457.27051008040331
 20
287.67773155303792
 30
0.0
 11
466.0723966372264
 21
292.74028096323423
 31
0.0
  0
LINE
  5
EB
  8
0
 10
502.7294899195964
 20
287.67773155303792
 30
0.0
 11
493.92760336277331
 21
292.74028096323423
 31
0.0
  0
LINE
  5
EC
  8
0
 10
503.05749867249551
 20
287.37055482001398
 30
0.0
 11
499.79158375087809
 21
290.42904965312363
 31
0.0
  0
LINE
  5
ED
  8
0
 10
499.79158375087809
 20
290.42904965312363
 30
0.0
 11
493.86358359935758
 21
293.83863604939199
 31
0.0
  0
ARC
  5
EE
  8
0
 10
416.10352757106529
 20
320.1233764143314
 30
0.0
 40
27.5
 50
245.22394086711529
 51
262.64636754829769
  0
ARC
  5
EF
  8
0
 10
946.10352757106534
 20
320.1233764143314
 30
0.0
 40
27.5
 50
245.22394086711529
 51
262.64636754829769
  0
LINE
  5
F0
  8
0
 10
1029.7915837508781
 20
290.42904965312363
 30
0.0
 11
1023.863583599357
 21
293.83863604939199
 31
0.0
  0
LINE
  5
F1
  8
0
 10
1033.0574986724951
 20
287.37055482001398
 30
0.0
 11
1029.7915837508781
 21
290.42904965312363
 31
0.0
  0
LINE
  5
F2
  8
0
 10
1032.7294899195961
 20
287.67773155303792
 30
0.0
 11
1023.927603362773
 21
292.74028096323423
 31
0.0
  0
LINE
  5
F3
  8
0
 10
987.27051008040326
 20
287.67773155303792
 30
0.0
 11
996.07239663722646
 21
292.74028096323423
 31
0.0
  0
LINE
  5
F4
  8
0
 10
990.20841624912168
 20
290.42904965312363
 30
0.0
 11
996.13641640064225
 21
293.83863604939199
 31
0.0
  0
LINE
  5
F5
  8
0
 10
986.94250132750415
 20
287.37055482001398
 30
0.0
 11
990.20841624912168
 21
290.42904965312363
 31
0.0
  0
LINE
  5
F6
  8
0
 10
1033.3946585736719
 20
256.02798986102431
 30
0.0
 11
1025.0167153320269
 21
274.05493120555087
 31
0.0
  0
LINE
  5
F7
  8
0
 10
986.60534142632707
 20
256.02798986102431
 30
0.0
 11
994.98328466797307
 21
274.05493120555087
 31
0.0
  0
LINE
  5
F8
  8
0
 10
1019.51058637695
 20
274.05493120555087
 30
0.0
 11
1028.925556442824
 21
253.79660428179079
 31
0.0
  0
LINE
  5
F9
  8
0
 10
991.07444355717644
 20
253.79660428179079
 30
0.0
 11
1000.48941362305
 21
274.05493120555099
 31
0.0
  0
LINE
  5
FA
  8
0
 10
1028.925556442824
 20
253.79660428179079
 30
0.0
 11
1034.0
 21
253.79660428179079
 31
0.0
  0
LINE
  5
FB
  8
0
 10
986.00000000000011
 20
253.79660428179079
 30
0.0
 11
991.07444355717621
 21
253.79660428179079
 31
0.0
  0
ARC
  5
FC
  8
0
 10
1010.0
 20
229.70639879352279
 30
0.0
 40
45.787121128982868
 50
77.8961897426245
 51
102.1038102573747
  0
LINE
  5
FD
  8
0
 10
1019.510586376952
 20
274.05493120555087
 30
0.0
 11
1023.426739047708
 21
274.05493120555082
 31
0.0
  0
ARC
  5
FE
  8
0
 10
1010.0
 20
229.70639879352279
 30
0.0
 40
45.356847116330009
 50
77.8961897426245
 51
102.1038102573747
  0
ARC
  5
FF
  8
0
 10
1023.426739047708
 20
275.55493120555082
 30
0.0
 40
1.5
 50
269.99999999999989
 51
3.3358217420637222
  0
ARC
  5
100
  8
0
 10
996.57326095229143
 20
275.55493120555087
 30
0.0
 40
1.5
 50
176.6641782579357
 51
269.99999999999989
  0
LINE
  5
101
  8
0
 10
996.23325223124516
 20
295.50000000000011
 30
0.0
 11
989.75
 21
295.5
 31
0.0
  0
LINE
  5
102
  8
0
 10
994.15675262655225
 20
292.7000000000001
 30
0.0
 11
987.25
 21
292.7000000000001
 31
0.0
  0
LINE
  5
103
  8
0
 10
1023.7376042958369
 20
296.0
 30
0.0
 11
1024.924197495777
 21
275.64221348500507
 31
0.0
  0
LINE
  5
104
  8
0
 10
996.26239570416317
 20
296.0
 30
0.0
 11
995.07580203415012
 21
275.64220542020939
 31
0.0
  0
LINE
  5
105
  8
0
 10
996.57326095229143
 20
274.05493120555082
 30
0.0
 11
1000.489413623047
 21
274.05493120555099
 31
0.0
  0
LINE
  5
106
  8
0
 10
996.26239570416305
 20
296.0
 30
0.0
 11
1023.7376042958369
 21
296.0
 31
0.0
  0
LINE
  5
107
  8
1
 10
1010.0
 20
424.85519254488861
 30
0.0
 11
1010.0
 21
220.00000000000011
 31
0.0
  0
LINE
  5
108
  8
0
 10
1030.25
 20
295.50000000000011
 30
0.0
 11
1023.766747768755
 21
295.50000000000023
 31
0.0
  0
LINE
  5
109
  8
0
 10
990.00000000000023
 20
236.00000000000011
 30
0.0
 11
1030.0
 21
236.00000000000011
 31
0.0
  0
LINE
  5
10A
  8
0
 10
990.00000000000023
 20
236.00000000000011
 30
0.0
 11
991.00000000000011
 21
235.00000000000011
 31
0.0
  0
LINE
  5
10B
  8
0
 10
990.00000000000023
 20
250.00000000000011
 30
0.0
 11
990.00000000000023
 21
236.00000000000011
 31
0.0
  0
LINE
  5
10C
  8
0
 10
991.00000000000011
 20
235.00000000000011
 30
0.0
 11
1029.0
 21
235.00000000000011
 31
0.0
  0
LINE
  5
10D
  8
0
 10
1029.0
 20
235.00000000000011
 30
0.0
 11
1030.0
 21
236.00000000000011
 31
0.0
  0
LINE
  5
10E
  8
0
 10
1030.0
 20
250.00000000000011
 30
0.0
 11
1030.0
 21
236.00000000000011
 31
0.0
  0
LINE
  5
10F
  8
0
 10
1034.0
 20
250.0
 30
0.0
 11
986.0
 21
250.0
 31
0.0
  0
LINE
  5
110
  8
0
 10
1032.75
 20
292.7000000000001
 30
0.0
 11
1025.843247373447
 21
292.7000000000001
 31
0.0
  0
LINE
  5
111
  8
0
 10
987.25
 20
292.7000000000001
 30
0.0
 11
985.0768937278857
 21
255.03658294027679
 31
0.0
  0
LINE
  5
112
  8
0
 10
1032.75
 20
292.7000000000001
 30
0.0
 11
1034.923106272114
 21
255.0365829402767
 31
0.0
  0
LINE
  5
113
  8
0
 10
986.0
 20
253.79660428179079
 30
0.0
 11
986.0
 21
250.0
 31
0.0
  0
LINE
  5
114
  8
0
 10
1034.0
 20
253.79660428179079
 30
0.0
 11
1034.0
 21
250.0
 31
0.0
  0
LINE
  5
115
  8
0
 10
989.75
 20
295.5
 30
0.0
 11
987.25
 21
292.7000000000001
 31
0.0
  0
LINE
  5
116
  8
0
 10
1030.25
 20
295.5
 30
0.0
 11
1032.75
 21
292.7000000000001
 31
0.0
  0
ARC
  5
117
  8
0
 10
986.57440314465396
 20
254.95017954514739
 30
0.0
 40
1.5
 50
176.6978055710359
 51
247.48437111825069
  0
ARC
  5
118
  8
0
 10
1033.4255968553459
 20
254.95017954514739
 30
0.0
 40
1.5
 50
292.51562888113489
 51
3.3021944289630079
  0
ARC
  5
119
  8
0
 10
673.42559685534593
 20
254.95017954514739
 30
0.0
 40
1.5
 50
279.69379807426782
 51
3.3021944289630079
  0
ARC
  5
11A
  8
0
 10
626.57440314465407
 20
254.95017954514739
 30
0.0
 40
1.5
 50
176.6978055710359
 51
260.30620192573173
  0
ARC
  5
11B
  8
0
 10
650.00000000000023
 20
392.08494246848289
 30
0.0
 40
140.62117664133169
 50
260.30620192573321
 51
279.69379807426668
  0
LINE
  5
11C
  8
0
 10
670.25
 20
295.5
 30
0.0
 11
672.75
 21
292.7000000000001
 31
0.0
  0
LINE
  5
11D
  8
0
 10
629.75
 20
295.5
 30
0.0
 11
627.24999999999989
 21
292.7000000000001
 31
0.0
  0
LINE
  5
11E
  8
0
 10
674.0
 20
253.5645168779017
 30
0.0
 11
674.0
 21
250.0
 31
0.0
  0
LINE
  5
11F
  8
0
 10
626.0
 20
253.56451687788601
 30
0.0
 11
626.0
 21
250.0
 31
0.0
  0
LINE
  5
120
  8
0
 10
672.75
 20
292.7000000000001
 30
0.0
 11
674.92310627211418
 21
255.0365829402767
 31
0.0
  0
LINE
  5
121
  8
0
 10
627.24999999999989
 20
292.7000000000001
 30
0.0
 11
625.0768937278857
 21
255.03658294027679
 31
0.0
  0
LINE
  5
122
  8
0
 10
672.75
 20
292.7000000000001
 30
0.0
 11
627.24999999999989
 21
292.7000000000001
 31
0.0
  0
LINE
  5
123
  8
0
 10
674.0
 20
250.0
 30
0.0
 11
626.0
 21
250.0
 31
0.0
  0
LINE
  5
124
  8
0
 10
670.00000000000023
 20
250.00000000000011
 30
0.0
 11
670.00000000000023
 21
236.00000000000011
 31
0.0
  0
LINE
  5
125
  8
0
 10
669.00000000000023
 20
235.00000000000011
 30
0.0
 11
670.00000000000023
 21
236.00000000000011
 31
0.0
  0
LINE
  5
126
  8
0
 10
631.00000000000023
 20
235.00000000000011
 30
0.0
 11
669.00000000000023
 21
235.00000000000011
 31
0.0
  0
LINE
  5
127
  8
0
 10
630.00000000000023
 20
250.00000000000011
 30
0.0
 11
630.00000000000023
 21
236.00000000000011
 31
0.0
  0
LINE
  5
128
  8
0
 10
630.00000000000023
 20
236.00000000000011
 30
0.0
 11
631.00000000000023
 21
235.00000000000011
 31
0.0
  0
LINE
  5
129
  8
0
 10
630.00000000000023
 20
236.00000000000011
 30
0.0
 11
670.00000000000023
 21
236.00000000000011
 31
0.0
  0
LINE
  5
12A
  8
1
 10
650.0
 20
424.8551925448885
 30
0.0
 11
650.0
 21
220.00000000000011
 31
0.0
  0
LINE
  5
12B
  8
2
 10
724.0
 20
270.00000000000011
 30
0.0
 11
736.0
 21
270.00000000000011
 31
0.0
  0
LINE
  5
12C
  8
0
  6
CONTINUOUS
 10
935.0
 20
319.85519254488833
 30
0.0
 11
935.12827888173319
 21
319.0
 31
0.0
  0
LINE
  5
12D
  8
0
  6
CONTINUOUS
 10
949.0
 20
319.85519254488833
 30
0.0
 11
948.87172111826669
 21
319.0
 31
0.0
  0
LINE
  5
12E
  8
0
  6
CONTINUOUS
 10
933.5
 20
320.15519254488839
 30
0.0
 11
933.5
 21
319.85519254488833
 31
0.0
  0
LINE
  5
12F
  8
0
  6
CONTINUOUS
 10
950.5
 20
320.15519254488828
 30
0.0
 11
950.5
 21
319.85519254488833
 31
0.0
  0
ARC
  5
130
  8
0
  6
CONTINUOUS
 10
931.42646564252027
 20
321.15519254488828
 30
0.0
 40
1.0
 50
184.3719065826217
 51
270.0
  0
ARC
  5
131
  8
0
  6
CONTINUOUS
 10
952.57353435747984
 20
321.15519254488828
 30
0.0
 40
1.0
 50
270.0
 51
355.62809341737812
  0
LINE
  5
132
  8
0
  6
CONTINUOUS
 10
928.0
 20
352.85519254488833
 30
0.0
 11
930.42937539307297
 21
321.07896240349322
 31
0.0
  0
LINE
  5
133
  8
0
  6
CONTINUOUS
 10
956.0
 20
352.85519254488833
 30
0.0
 11
953.57062460692703
 21
321.07896240349322
 31
0.0
  0
LINE
  5
134
  8
0
  6
CONTINUOUS
 10
952.57353435747984
 20
320.15519254488828
 30
0.0
 11
931.42646564252027
 21
320.15519254488828
 31
0.0
  0
LINE
  5
135
  8
0
  6
CONTINUOUS
 10
955.99999999999977
 20
352.85519254488833
 30
0.0
 11
927.99999999999989
 21
352.85519254488833
 31
0.0
  0
ARC
  5
136
  8
0
  6
CONTINUOUS
 10
941.99999999999977
 20
343.23019254488872
 30
0.0
 40
66.624999999999702
 50
80.060518543779125
 51
99.939481456220534
  0
LINE
  5
137
  8
0
  6
CONTINUOUS
 10
930.49999999999989
 20
408.85519254488833
 30
0.0
 11
928.0
 21
406.35519254488838
 31
0.0
  0
LINE
  5
138
  8
0
  6
CONTINUOUS
 10
953.5
 20
408.85519254488833
 30
0.0
 11
956.0
 21
406.35519254488833
 31
0.0
  0
LINE
  5
139
  8
0
  6
CONTINUOUS
 10
956.0
 20
406.35519254488833
 30
0.0
 11
928.0
 21
406.35519254488838
 31
0.0
  0
LINE
  5
13A
  8
0
  6
CONTINUOUS
 10
953.5
 20
408.85519254488833
 30
0.0
 11
930.49999999999989
 21
408.85519254488833
 31
0.0
  0
LINE
  5
13B
  8
0
  6
CONTINUOUS
 10
950.5
 20
319.85519254488833
 30
0.0
 11
933.5
 21
319.85519254488833
 31
0.0
  0
LINE
  5
13C
  8
0
  6
CONTINUOUS
 10
928.0
 20
406.35519254488838
 30
0.0
 11
928.0
 21
352.85519254488833
 31
0.0
  0
LINE
  5
13D
  8
0
  6
CONTINUOUS
 10
956.0
 20
406.35519254488833
 30
0.0
 11
956.0
 21
352.85519254488833
 31
0.0
  0
CIRCLE
  5
13E
  8
0
 10
942.0
 20
309.0
 30
0.0
 40
2.0
  0
LINE
  5
13F
  8
1
 10
930.0
 20
309.0
 30
0.0
 11
954.0
 21
309.0
 31
0.0
  0
ARC
  5
140
  8
0
 10
935.0
 20
316.0
 30
0.0
 40
3.0
 50
90.0
 51
179.99999999999989
  0
LINE
  5
141
  8
0
 10
955.0
 20
318.0
 30
0.0
 11
932.76393202250028
 21
318.0
 31
0.0
  0
LINE
  5
142
  8
0
 10
953.0
 20
319.0
 30
0.0
 11
955.0
 21
318.0
 31
0.0
  0
LINE
  5
143
  8
0
 10
932.0
 20
316.0
 30
0.0
 11
932.0
 21
296.0
 31
0.0
  0
LINE
  5
144
  8
0
 10
955.0
 20
318.0
 30
0.0
 11
955.0
 21
296.0
 31
0.0
  0
LINE
  5
145
  8
0
 10
935.0
 20
319.0
 30
0.0
 11
953.0
 21
319.0
 31
0.0
  0
ARC
  5
146
  8
0
 10
729.76039510149167
 20
312.64865453321579
 30
0.0
 40
25.0
 50
272.76366039230902
 51
297.27913521249252
  0
LINE
  5
147
  8
0
 10
942.58371929131465
 20
292.84956205561417
 30
0.0
 11
730.96580188674875
 21
287.67773155303729
 31
0.0
  0
LINE
  5
148
  8
2
 10
724.0
 20
235.50000000000011
 30
0.0
 11
736.0
 21
235.50000000000011
 31
0.0
  0
LINE
  5
149
  8
2
 10
736.0
 20
235.50000000000011
 30
0.0
 11
736.5
 21
235.00000000000011
 31
0.0
  0
LINE
  5
14A
  8
2
 10
724.0
 20
235.50000000000011
 30
0.0
 11
723.5
 21
235.00000000000011
 31
0.0
  0
LINE
  5
14B
  8
2
 10
736.0
 20
270.00000000000011
 30
0.0
 11
730.0
 21
273.46410161513791
 31
0.0
  0
LINE
  5
14C
  8
2
 10
724.0
 20
270.00000000000011
 30
0.0
 11
730.0
 21
273.46410161513791
 31
0.0
  0
LINE
  5
14D
  8
2
 10
736.0
 20
270.00000000000011
 30
0.0
 11
736.0
 21
235.50000000000011
 31
0.0
  0
LINE
  5
14E
  8
2
 10
724.0
 20
270.00000000000011
 30
0.0
 11
724.0
 21
235.50000000000011
 31
0.0
  0
LINE
  5
14F
  8
2
 10
745.75
 20
289.30000000000013
 30
0.0
 11
746.1835462340498
 21
295.5
 31
0.0
  0
LINE
  5
150
  8
2
 10
714.25
 20
289.30000000000013
 30
0.0
 11
713.8164537659502
 21
295.5
 31
0.0
  0
LINE
  5
151
  8
2
 10
745.75
 20
289.30000000000001
 30
0.0
 11
745.75
 21
288.50000000000011
 31
0.0
  0
LINE
  5
152
  8
2
 10
714.25
 20
289.30000000000001
 30
0.0
 11
714.25
 21
288.50000000000011
 31
0.0
  0
LINE
  5
153
  8
2
 10
714.25
 20
289.30000000000001
 30
0.0
 11
745.75
 21
289.30000000000001
 31
0.0
  0
LINE
  5
154
  8
2
 10
712.0
 20
288.50000000000011
 30
0.0
 11
748.0
 21
288.50000000000011
 31
0.0
  0
LINE
  5
155
  8
2
 10
748.0
 20
288.50000000000011
 30
0.0
 11
748.0
 21
250.0
 31
0.0
  0
LINE
  5
156
  8
2
 10
712.0
 20
288.50000000000011
 30
0.0
 11
712.0
 21
250.00000000000011
 31
0.0
  0
LINE
  5
157
  8
0
 10
710.0
 20
236.0
 30
0.0
 11
750.0
 21
236.0
 31
0.0
  0
LINE
  5
158
  8
0
 10
749.0
 20
235.0
 30
0.0
 11
750.0
 21
236.0
 31
0.0
  0
LINE
  5
159
  8
0
 10
710.0
 20
236.0
 30
0.0
 11
711.0
 21
235.0
 31
0.0
  0
LINE
  5
15A
  8
0
 10
750.0
 20
250.0
 30
0.0
 11
750.0
 21
236.0
 31
0.0
  0
LINE
  5
15B
  8
0
 10
710.0
 20
250.0
 30
0.0
 11
710.0
 21
236.0
 31
0.0
  0
LINE
  5
15C
  8
0
 10
711.0
 20
235.0
 30
0.0
 11
749.0
 21
235.0
 31
0.0
  0
LINE
  5
15D
  8
0
 10
754.0
 20
250.0
 30
0.0
 11
754.21050204443543
 21
256.02798986102431
 31
0.0
  0
ARC
  5
15E
  8
0
 10
754.25
 20
292.24797949519518
 30
0.0
 40
1.5
 50
180.0
 51
271.39999999999998
  0
LINE
  5
15F
  8
0
 10
752.74999999999989
 20
292.7000000000001
 30
0.0
 11
752.74999999999989
 21
292.24797949519518
 31
0.0
  0
LINE
  5
160
  8
0
 10
750.25
 20
295.5
 30
0.0
 11
752.74999999999989
 21
292.69999999999999
 31
0.0
  0
LINE
  5
161
  8
0
 10
934.57902739203712
 20
295.15467809776811
 30
0.0
 11
741.21854324910134
 21
290.42904965312351
 31
0.0
  0
LINE
  5
162
  8
0
 10
955.75
 20
296.0
 30
0.0
 11
956.89803971293304
 21
276.95296331048399
 31
0.0
  0
LINE
  5
163
  8
0
 10
928.25
 20
296.0
 30
0.0
 11
928.25
 21
295.0
 31
0.0
  0
LINE
  5
164
  8
0
 10
928.25
 20
296.0
 30
0.0
 11
955.75
 21
296.0
 31
0.0
  0
ARC
  5
165
  8
0
 10
955.4016936375433
 20
276.84832859986778
 30
0.0
 40
1.5
 50
275.48333333333329
 51
4.0000000000000178
  0
ARC
  5
166
  8
0
 10
706.59242720375164
 20
252.96376582715121
 30
0.0
 40
1.5
 50
176.88885900393669
 51
275.48333333333329
  0
LINE
  5
167
  8
0
 10
707.24999999999989
 20
292.69999999999999
 30
0.0
 11
705.09463799977755
 21
253.0451752888776
 31
0.0
  0
LINE
  5
168
  8
0
 10
709.75
 20
295.5
 30
0.0
 11
707.24999999999989
 21
292.69999999999999
 31
0.0
  0
LINE
  5
169
  8
0
 10
706.73576150293002
 20
251.47062977217189
 30
0.0
 11
955.54502793672168
 21
275.35519254488861
 31
0.0
  0
LINE
  5
16A
  8
0
 10
707.24999999999989
 20
292.69999999999999
 30
0.0
 11
752.74999999999989
 21
292.69999999999999
 31
0.0
  0
LINE
  5
16B
  8
0
 10
709.75
 20
295.5
 30
0.0
 11
750.25
 21
295.5
 31
0.0
  0
LINE
  5
16C
  8
0
 10
706.0
 20
250.0
 30
0.0
 11
706.0
 21
251.58571284984711
 31
0.0
  0
LINE
  5
16D
  8
0
 10
706.0
 20
250.0
 30
0.0
 11
754.0
 21
250.0
 31
0.0
  0
LINE
  5
16E
  8
1
 10
941.99999999999989
 20
424.85519254488838
 30
0.0
 11
942.0
 21
258.98597621985652
 31
0.0
  0
LINE
  5
16F
  8
1
 10
730.0
 20
310.5
 30
0.0
 11
730.00000000000011
 21
220.00000000000011
 31
0.0
  0
LINE
  5
170
  8
1
 10
149.0
 20
309.0
 30
0.0
 11
91.0
 21
309.0
 31
0.0
  0
ARC
  5
171
  8
0
 10
120.0
 20
309.0
 30
0.0
 40
14.0
 50
291.78678929825639
 51
248.21321070174361
  0
CIRCLE
  5
172
  8
0
 10
120.0
 20
309.0
 30
0.0
 40
11.49999999999994
  0
LINE
  5
173
  8
0
 10
107.0
 20
303.80384757729342
 30
0.0
 11
107.0
 21
296.0
 31
0.0
  0
LINE
  5
174
  8
0
 10
133.0
 20
303.80384757729342
 30
0.0
 11
133.0
 21
296.0
 31
0.0
  0
LINE
  5
175
  8
0
 10
468.99999999999977
 20
319.0
 30
0.0
 11
490.99999999999989
 21
319.0
 31
0.0
  0
LINE
  5
176
  8
0
 10
466.99999999999977
 20
318.0
 30
0.0
 11
466.99999999999977
 21
296.0
 31
0.0
  0
LINE
  5
177
  8
0
 10
492.99999999999977
 20
318.0
 30
0.0
 11
493.0
 21
296.0
 31
0.0
  0
LINE
  5
178
  8
0
 10
468.99999999999977
 20
319.0
 30
0.0
 11
466.99999999999977
 21
318.0
 31
0.0
  0
LINE
  5
179
  8
0
 10
490.99999999999989
 20
319.0
 30
0.0
 11
492.99999999999977
 21
318.0
 31
0.0
  0
LINE
  5
17A
  8
0
 10
466.99999999999977
 20
318.0
 30
0.0
 11
493.0
 21
318.0
 31
0.0
  0
ARC
  5
17B
  8
0
 10
395.7000000000001
 20
319.57353435747962
 30
0.0
 40
1.0
 50
0.0
 51
85.628093417378025
  0
LINE
  5
17C
  8
1
 10
450.99999999999977
 20
309.0
 30
0.0
 11
508.99999999999977
 21
309.0
 31
0.0
  0
ARC
  5
17D
  8
0
 10
479.99999999999977
 20
309.0
 30
0.0
 40
14.0
 50
158.21321070174889
 51
201.78678929825119
  0
ARC
  5
17E
  8
0
 10
479.99999999999977
 20
309.0
 30
0.0
 40
11.49999999999994
 50
60.408154206049289
 51
119.5918457939507
  0
ARC
  5
17F
  8
0
 10
479.99999999999977
 20
309.0
 30
0.0
 40
14.0
 50
45.584691402807103
 51
134.4153085971931
  0
ARC
  5
180
  8
0
 10
479.99999999999977
 20
309.0
 30
0.0
 40
14.0
 50
338.21321070174889
 51
21.786789298251069
  0
ARC
  5
181
  8
0
 10
730.0
 20
530.0
 30
0.0
 40
25.0
 50
87.296365664396816
 51
272.70363433560323
  0
LINE
  5
182
  8
1
 10
972.0
 20
530.0
 30
0.0
 11
690.0
 21
530.0
 31
0.0
  0
LINE
  5
183
  8
1
 10
730.0
 20
570.0
 30
0.0
 11
730.0
 21
490.0
 31
0.0
  0
LINE
  5
184
  8
1
 10
942.0
 20
560.03343066405353
 30
0.0
 11
942.00000000000011
 21
499.96656933594659
 31
0.0
  0
ARC
  5
185
  8
0
 10
942.0
 20
530.0
 30
0.0
 40
15.0
 50
272.70363433560328
 51
87.296365664396745
  0
LINE
  5
186
  8
0
 10
731.17924528301876
 20
554.97217212343526
 30
0.0
 11
942.70754716981128
 21
544.98330327406109
 31
0.0
  0
LINE
  5
187
  8
0
 10
731.17924528301876
 20
505.02782787656469
 30
0.0
 11
942.70754716981128
 21
515.01669672593869
 31
0.0
  0
CIRCLE
  5
188
  8
0
 10
730.0
 20
530.0
 30
0.0
 40
22.75
  0
CIRCLE
  5
189
  8
0
 10
730.0
 20
530.0
 30
0.0
 40
20.25
  0
CIRCLE
  5
18A
  8
0
 10
730.0
 20
530.0
 30
0.0
 40
15.75
  0
LINE
  5
18B
  8
0
 10
730.96580188679229
 20
552.72949024319428
 30
0.0
 11
939.95218752297865
 21
543.84942107306415
 31
0.0
  0
LINE
  5
18C
  8
0
 10
741.21854324910169
 20
549.79158375087832
 30
0.0
 11
934.15219003916309
 21
541.59361370835256
 31
0.0
  0
LINE
  5
18D
  8
0
 10
741.21854324910169
 20
510.20841624912151
 30
0.0
 11
934.15219003916309
 21
518.40638629164732
 31
0.0
  0
CIRCLE
  5
18E
  8
0
 10
730.0
 20
530.0
 30
0.0
 40
16.1835462340498
  0
LINE
  5
18F
  8
0
 10
730.96580188679229
 20
507.2705097568055
 30
0.0
 11
939.9521875230007
 21
516.15057892693676
 31
0.0
  0
CIRCLE
  5
190
  8
0
  6
CONTINUOUS
 10
942.0
 20
530.0
 30
0.0
 40
14.0
  0
LINE
  5
191
  8
0
 10
998.99999999999977
 20
319.0
 30
0.0
 11
1021.0
 21
319.0
 31
0.0
  0
LINE
  5
192
  8
0
 10
996.99999999999966
 20
318.0
 30
0.0
 11
996.99999999999977
 21
296.0
 31
0.0
  0
LINE
  5
193
  8
0
 10
1023.0
 20
318.0
 30
0.0
 11
1023.0
 21
296.0
 31
0.0
  0
LINE
  5
194
  8
0
 10
998.99999999999977
 20
319.0
 30
0.0
 11
996.99999999999966
 21
318.0
 31
0.0
  0
LINE
  5
195
  8
0
 10
1021.0
 20
319.0
 30
0.0
 11
1023.0
 21
318.0
 31
0.0
  0
LINE
  5
196
  8
0
 10
996.99999999999977
 20
318.00000000000011
 30
0.0
 11
1023.0
 21
318.00000000000011
 31
0.0
  0
LINE
  5
197
  8
0
  6
CONTINUOUS
 10
1018.5
 20
319.85519254488838
 30
0.0
 11
1001.5
 21
319.85519254488838
 31
0.0
  0
LINE
  5
198
  8
0
  6
CONTINUOUS
 10
1020.573534357479
 20
320.15519254488839
 30
0.0
 11
999.42646564252016
 21
320.15519254488839
 31
0.0
  0
ARC
  5
199
  8
0
  6
CONTINUOUS
 10
1020.573534357479
 20
321.15519254488839
 30
0.0
 40
1.0
 50
270.0
 51
355.62809341737812
  0
ARC
  5
19A
  8
0
  6
CONTINUOUS
 10
999.42646564252016
 20
321.15519254488839
 30
0.0
 40
1.0
 50
184.3719065826217
 51
270.0
  0
LINE
  5
19B
  8
0
  6
CONTINUOUS
 10
1018.5
 20
320.15519254488839
 30
0.0
 11
1018.5
 21
319.85519254488838
 31
0.0
  0
LINE
  5
19C
  8
0
  6
CONTINUOUS
 10
1001.5
 20
320.15519254488851
 30
0.0
 11
1001.5
 21
319.85519254488838
 31
0.0
  0
LINE
  5
19D
  8
0
  6
CONTINUOUS
 10
1017.0
 20
319.85519254488838
 30
0.0
 11
1016.871721118266
 21
319.00000000000011
 31
0.0
  0
LINE
  5
19E
  8
0
  6
CONTINUOUS
 10
1003.0
 20
319.85519254488838
 30
0.0
 11
1003.128278881733
 21
319.00000000000011
 31
0.0
  0
LINE
  5
19F
  8
0
  6
CONTINUOUS
 10
995.99999999999966
 20
352.85519254488838
 30
0.0
 11
998.42937539307275
 21
321.07896240349339
 31
0.0
  0
LINE
  5
1A0
  8
0
  6
CONTINUOUS
 10
1024.0
 20
352.85519254488838
 30
0.0
 11
1021.570624606927
 21
321.07896240349339
 31
0.0
  0
LINE
  5
1A1
  8
0
  6
CONTINUOUS
 10
1024.0
 20
406.35519254488838
 30
0.0
 11
1024.0
 21
352.85519254488838
 31
0.0
  0
LINE
  5
1A2
  8
0
  6
CONTINUOUS
 10
995.99999999999966
 20
406.35519254488838
 30
0.0
 11
995.99999999999966
 21
352.85519254488838
 31
0.0
  0
LINE
  5
1A3
  8
0
  6
CONTINUOUS
 10
1021.5
 20
408.85519254488838
 30
0.0
 11
998.49999999999966
 21
408.8551925448885
 31
0.0
  0
LINE
  5
1A4
  8
0
  6
CONTINUOUS
 10
1024.0
 20
406.35519254488838
 30
0.0
 11
995.99999999999966
 21
406.35519254488838
 31
0.0
  0
LINE
  5
1A5
  8
0
  6
CONTINUOUS
 10
1021.5
 20
408.85519254488838
 30
0.0
 11
1024.0
 21
406.35519254488838
 31
0.0
  0
LINE
  5
1A6
  8
0
  6
CONTINUOUS
 10
998.49999999999966
 20
408.8551925448885
 30
0.0
 11
995.99999999999966
 21
406.35519254488838
 31
0.0
  0
ARC
  5
1A7
  8
0
  6
CONTINUOUS
 10
1009.999999999999
 20
343.23019254488878
 30
0.0
 40
66.624999999999702
 50
80.060518543779125
 51
99.939481456220534
  0
LINE
  5
1A8
  8
0
  6
CONTINUOUS
 10
1024.0
 20
352.85519254488838
 30
0.0
 11
995.99999999999966
 21
352.85519254488838
 31
0.0
  0
LINE
  5
1A9
  8
0
  6
CONTINUOUS
 10
663.99999999999966
 20
352.85519254488838
 30
0.0
 11
635.99999999999955
 21
352.85519254488838
 31
0.0
  0
ARC
  5
1AA
  8
0
  6
CONTINUOUS
 10
649.99999999999955
 20
343.23019254488878
 30
0.0
 40
66.624999999999702
 50
80.060518543779125
 51
99.939481456220534
  0
LINE
  5
1AB
  8
0
  6
CONTINUOUS
 10
638.49999999999977
 20
408.8551925448885
 30
0.0
 11
635.99999999999966
 21
406.35519254488838
 31
0.0
  0
LINE
  5
1AC
  8
0
  6
CONTINUOUS
 10
661.49999999999966
 20
408.85519254488838
 30
0.0
 11
663.99999999999966
 21
406.35519254488838
 31
0.0
  0
LINE
  5
1AD
  8
0
  6
CONTINUOUS
 10
663.99999999999966
 20
406.35519254488838
 30
0.0
 11
635.99999999999966
 21
406.35519254488838
 31
0.0
  0
LINE
  5
1AE
  8
0
  6
CONTINUOUS
 10
661.49999999999966
 20
408.85519254488838
 30
0.0
 11
638.49999999999977
 21
408.8551925448885
 31
0.0
  0
LINE
  5
1AF
  8
0
  6
CONTINUOUS
 10
635.99999999999966
 20
406.35519254488838
 30
0.0
 11
635.99999999999966
 21
352.85519254488838
 31
0.0
  0
LINE
  5
1B0
  8
0
  6
CONTINUOUS
 10
663.99999999999966
 20
406.35519254488838
 30
0.0
 11
663.99999999999966
 21
352.85519254488838
 31
0.0
  0
LINE
  5
1B1
  8
0
  6
CONTINUOUS
 10
663.99999999999966
 20
352.85519254488838
 30
0.0
 11
661.5706246069268
 21
321.07896240349339
 31
0.0
  0
LINE
  5
1B2
  8
0
  6
CONTINUOUS
 10
635.99999999999966
 20
352.85519254488838
 30
0.0
 11
638.42937539307275
 21
321.07896240349339
 31
0.0
  0
LINE
  5
1B3
  8
0
  6
CONTINUOUS
 10
642.99999999999966
 20
319.85519254488838
 30
0.0
 11
643.12827888173297
 21
319.00000000000011
 31
0.0
  0
LINE
  5
1B4
  8
0
  6
CONTINUOUS
 10
656.99999999999966
 20
319.85519254488838
 30
0.0
 11
656.87172111826635
 21
319.00000000000011
 31
0.0
  0
LINE
  5
1B5
  8
0
  6
CONTINUOUS
 10
641.49999999999977
 20
320.15519254488851
 30
0.0
 11
641.49999999999977
 21
319.85519254488838
 31
0.0
  0
LINE
  5
1B6
  8
0
  6
CONTINUOUS
 10
658.49999999999977
 20
320.15519254488839
 30
0.0
 11
658.49999999999977
 21
319.85519254488838
 31
0.0
  0
ARC
  5
1B7
  8
0
  6
CONTINUOUS
 10
639.42646564252016
 20
321.15519254488839
 30
0.0
 40
1.0
 50
184.3719065826217
 51
270.0
  0
ARC
  5
1B8
  8
0
  6
CONTINUOUS
 10
660.5735343574795
 20
321.15519254488839
 30
0.0
 40
1.0
 50
270.0
 51
355.62809341737812
  0
LINE
  5
1B9
  8
0
  6
CONTINUOUS
 10
660.5735343574795
 20
320.15519254488839
 30
0.0
 11
639.42646564252016
 21
320.15519254488839
 31
0.0
  0
LINE
  5
1BA
  8
0
  6
CONTINUOUS
 10
658.49999999999977
 20
319.85519254488838
 30
0.0
 11
641.49999999999977
 21
319.85519254488838
 31
0.0
  0
LINE
  5
1BB
  8
0
 10
636.99999999999989
 20
318.00000000000011
 30
0.0
 11
638.69337613708183
 21
318.00000000000011
 31
0.0
  0
LINE
  5
1BC
  8
0
 10
660.99999999999989
 20
319.0
 30
0.0
 11
662.99999999999989
 21
318.0
 31
0.0
  0
LINE
  5
1BD
  8
0
 10
638.99999999999966
 20
319.0
 30
0.0
 11
636.99999999999966
 21
318.0
 31
0.0
  0
LINE
  5
1BE
  8
0
 10
662.99999999999989
 20
318.0
 30
0.0
 11
662.99999999999977
 21
296.0
 31
0.0
  0
LINE
  5
1BF
  8
0
 10
636.99999999999966
 20
318.0
 30
0.0
 11
636.99999999999989
 21
296.0
 31
0.0
  0
LINE
  5
1C0
  8
0
 10
638.99999999999966
 20
319.0
 30
0.0
 11
646.0
 21
319.0
 31
0.0
  0
LINE
  5
1C1
  8
0
 10
663.73760429583695
 20
296.0
 30
0.0
 11
663.76674776875495
 21
295.50000000000011
 31
0.0
  0
LINE
  5
1C2
  8
0
 10
636.26239570416305
 20
296.0
 30
0.0
 11
636.23325223124505
 21
295.50000000000011
 31
0.0
  0
LINE
  5
1C3
  8
0
 10
629.75
 20
295.5
 30
0.0
 11
670.25
 21
295.5
 31
0.0
  0
LINE
  5
1C4
  8
0
 10
636.26239570416305
 20
296.0
 30
0.0
 11
663.73760429583695
 21
296.0
 31
0.0
  0
LINE
  5
1C5
  8
0
 10
646.0
 20
319.0
 30
0.0
 11
646.0
 21
304.0
 31
0.0
  0
LINE
  5
1C6
  8
0
 10
654.0
 20
319.0
 30
0.0
 11
654.0
 21
304.0
 31
0.0
  0
LINE
  5
1C7
  8
0
 10
646.0
 20
304.0
 30
0.0
 11
654.0
 21
304.0
 31
0.0
  0
LINE
  5
1C8
  8
0
 10
661.30662386291795
 20
318.00000000000011
 30
0.0
 11
662.99999999999977
 21
318.00000000000011
 31
0.0
  0
LINE
  5
1C9
  8
0
 10
654.0
 20
319.0
 30
0.0
 11
660.99999999999989
 21
319.0
 31
0.0
  0
LINE
  5
1CA
  8
0
 10
641.69337613708183
 20
315.00000000000011
 30
0.0
 11
641.69337613708194
 21
296.0
 31
0.0
  0
LINE
  5
1CB
  8
0
 10
658.30662386291795
 20
315.00000000000011
 30
0.0
 11
658.30662386291795
 21
296.0
 31
0.0
  0
ARC
  5
1CC
  8
0
 10
638.69337613708183
 20
315.00000000000011
 30
0.0
 40
3.0
 50
0.0
 51
90.0
  0
ARC
  5
1CD
  8
0
 10
661.30662386291795
 20
315.00000000000011
 30
0.0
 40
3.0
 50
90.0
 51
179.99999999999989
  0
ARC
  5
1CE
  8
0
 10
649.99999999999989
 20
309.0
 30
0.0
 40
5.0
 50
216.86989764584399
 51
323.13010235415601
  0
LINE
  5
1CF
  8
0
 10
646.0
 20
314.85519254488838
 30
0.0
 11
654.0
 21
314.85519254488838
 31
0.0
  0
TEXT
  5
327
  8
0
 62
     3
 10
0.0
 20
0.0
 30
0.0
 40
10.0
  1
BCH210F
  7
STANDARD1
  0
ENDSEC
  0
EOF
