  0
SECTION
  2
HEADER
  9
$ACADVER
  1
AC1009
  9
$INSBASE
 10
0.0
 20
0.0
 30
0.0
  9
$EXTMIN
 10
-0.0204638472032742
 20
-2.960436562073669
 30
0.0
  9
$EXTMAX
 10
160.00000000000011
 20
249.5
 30
0.0
  9
$LIMMIN
 10
0.0
 20
0.0
  9
$LIMMAX
 10
187.5
 20
135.0
  9
$ORTHOMODE
 70
     1
  9
$REGENMODE
 70
     1
  9
$FILLMODE
 70
     1
  9
$QTEXTMODE
 70
     0
  9
$MIRRTEXT
 70
     0
  9
$DRAGMODE
 70
     2
  9
$LTSCALE
 40
5.0
  9
$OSMODE
 70
    37
  9
$ATTMODE
 70
     1
  9
$TEXTSIZE
 40
4.0
  9
$TRACEWID
 40
0.05
  9
$TEXTSTYLE
  7
STANDARD
  9
$CLAYER
  8
0
  9
$CELTYPE
  6
BYLAYER
  9
$CECOLOR
 62
   256
  9
$DIMSCALE
 40
1.0
  9
$DIMASZ
 40
3.0
  9
$DIMEXO
 40
2.0
  9
$DIMDLI
 40
0.38
  9
$DIMRND
 40
0.0
  9
$DIMDLE
 40
0.0
  9
$DIMEXE
 40
2.0
  9
$DIMTP
 40
0.0
  9
$DIMTM
 40
0.0
  9
$DIMTXT
 40
3.2000000000000002
  9
$DIMCEN
 40
0.0
  9
$DIMTSZ
 40
0.0
  9
$DIMTOL
 70
     0
  9
$DIMLIM
 70
     0
  9
$DIMTIH
 70
     0
  9
$DIMTOH
 70
     0
  9
$DIMSE1
 70
     0
  9
$DIMSE2
 70
     0
  9
$DIMTAD
 70
     1
  9
$DIMZIN
 70
     8
  9
$DIMBLK
  1

  9
$DIMASO
 70
     0
  9
$DIMSHO
 70
     0
  9
$DIMPOST
  1

  9
$DIMAPOST
  1

  9
$DIMALT
 70
     0
  9
$DIMALTD
 70
     2
  9
$DIMALTF
 40
25.399999999999999
  9
$DIMLFAC
 40
1.0
  9
$DIMTOFL
 70
     1
  9
$DIMTVP
 40
1.6000000000000001
  9
$DIMTIX
 70
     0
  9
$DIMSOXD
 70
     0
  9
$DIMSAH
 70
     0
  9
$DIMBLK1
  1

  9
$DIMBLK2
  1

  9
$DIMSTYLE
  2
STANDARD
  9
$DIMCLRD
 70
     4
  9
$DIMCLRE
 70
     4
  9
$DIMCLRT
 70
     4
  9
$DIMTFAC
 40
1.0
  9
$DIMGAP
 40
0.5
  9
$LUNITS
 70
     2
  9
$LUPREC
 70
     1
  9
$SKETCHINC
 40
0.1
  9
$FILLETRAD
 40
0.0
  9
$AUNITS
 70
     0
  9
$AUPREC
 70
     1
  9
$MENU
  1
E:\r13\win\SUPPORT\ACAD
  9
$ELEVATION
 40
0.0
  9
$PELEVATION
 40
0.0
  9
$THICKNESS
 40
0.0
  9
$LIMCHECK
 70
     0
  9
$BLIPMODE
 70
     0
  9
$CHAMFERA
 40
1.1999999999999991
  9
$CHAMFERB
 40
1.1999999999999991
  9
$SKPOLY
 70
     0
  9
$TDCREATE
 40
2449933.4048958332
  9
$TDUPDATE
 40
2456927.6945257522
  9
$TDINDWG
 40
0.6565293171
  9
$TDUSRTIMER
 40
0.6565293171
  9
$USRTIMER
 70
     1
  9
$ANGBASE
 50
0.0
  9
$ANGDIR
 70
     0
  9
$PDMODE
 70
     0
  9
$PDSIZE
 40
0.0
  9
$PLINEWID
 40
0.0
  9
$COORDS
 70
     1
  9
$SPLFRAME
 70
     0
  9
$SPLINETYPE
 70
     6
  9
$SPLINESEGS
 70
     8
  9
$ATTDIA
 70
     0
  9
$ATTREQ
 70
     1
  9
$HANDLING
 70
     1
  9
$HANDSEED
  5
80FD
  9
$SURFTAB1
 70
     6
  9
$SURFTAB2
 70
     6
  9
$SURFTYPE
 70
     6
  9
$SURFU
 70
     6
  9
$SURFV
 70
     6
  9
$UCSNAME
  2

  9
$UCSORG
 10
0.0
 20
0.0
 30
0.0
  9
$UCSXDIR
 10
1.0
 20
0.0
 30
0.0
  9
$UCSYDIR
 10
0.0
 20
1.0
 30
0.0
  9
$PUCSNAME
  2

  9
$PUCSORG
 10
0.0
 20
0.0
 30
0.0
  9
$PUCSXDIR
 10
1.0
 20
0.0
 30
0.0
  9
$PUCSYDIR
 10
0.0
 20
1.0
 30
0.0
  9
$USERI1
 70
     0
  9
$USERI2
 70
     1
  9
$USERI3
 70
     0
  9
$USERI4
 70
     0
  9
$USERI5
 70
     0
  9
$USERR1
 40
0.0
  9
$USERR2
 40
0.0
  9
$USERR3
 40
0.0
  9
$USERR4
 40
0.0
  9
$USERR5
 40
0.0
  9
$WORLDVIEW
 70
     1
  9
$SHADEDGE
 70
     3
  9
$SHADEDIF
 70
    70
  9
$TILEMODE
 70
     1
  9
$MAXACTVP
 70
    16
  9
$PLIMCHECK
 70
     0
  9
$PEXTMIN
 10
1.0000000000000000E+020
 20
1.0000000000000000E+020
 30
1.0000000000000000E+020
  9
$PEXTMAX
 10
-1.0000000000000000E+020
 20
-1.0000000000000000E+020
 30
-1.0000000000000000E+020
  9
$PLIMMIN
 10
0.0
 20
0.0
  9
$PLIMMAX
 10
12.0
 20
9.0
  9
$UNITMODE
 70
     0
  9
$VISRETAIN
 70
     0
  9
$PLINEGEN
 70
     0
  9
$PSLTSCALE
 70
     0
  0
ENDSEC
  0
SECTION
  2
TABLES
  0
TABLE
  2
VPORT
 70
     1
  0
VPORT
  2
*ACTIVE
 70
     0
 10
0.0
 20
0.0
 11
1.0
 21
1.0
 12
314.18636995827541
 22
180.0
 13
0.0
 23
0.0
 14
5.0
 24
5.0
 15
5.0
 25
5.0
 16
0.0
 26
0.0
 36
1.0
 17
0.0
 27
0.0
 37
0.0
 40
360.0
 41
1.7454798331015291
 42
50.0
 43
0.0
 44
0.0
 50
0.0
 51
0.0
 71
     0
 72
   500
 73
     1
 74
     0
 75
     0
 76
     0
 77
     0
 78
     2
  0
ENDTAB
  0
TABLE
  2
LTYPE
 70
     4
  0
LTYPE
  2
CONTINUOUS
 70
     0
  3
Solid Line
 72
    65
 73
     0
 40
0.0
  0
LTYPE
  2
CENTER
 70
     0
  3
____ _ ____ _ ____ _ ____ _ ____ _ ____ _ ____
 72
    65
 73
     4
 40
2.0
 49
1.25
 49
-0.25
 49
0.25
 49
-0.25
  0
LTYPE
  2
PHANTOM2
 70
     0
  3
___ _ _ ___ _ _ ___ _ _ ___ _ _
 72
    65
 73
     6
 40
1.25
 49
0.625
 49
-0.125
 49
0.125
 49
-0.125
 49
0.125
 49
-0.125
  0
LTYPE
  2
HIDDEN
 70
     0
  3
Hidden __ __ __ __ __ __ __ __ __ __ __ __ __ __
 72
    65
 73
     2
 40
1.905
 49
1.27
 49
-0.635
  0
ENDTAB
  0
TABLE
  2
LAYER
 70
     5
  0
LAYER
  2
0
 70
     0
 62
     7
  6
CONTINUOUS
  0
LAYER
  2
1
 70
     0
 62
     1
  6
CENTER
  0
LAYER
  2
DEFPOINTS
 70
     0
 62
     7
  6
CONTINUOUS
  0
LAYER
  2
3
 70
     0
 62
     3
  6
CONTINUOUS
  0
LAYER
  2
2
 70
     0
 62
     2
  6
HIDDEN
  0
ENDTAB
  0
TABLE
  2
STYLE
 70
     2
  0
STYLE
  2
STANDARD
 70
     0
 40
0.0
 41
1.0
 50
0.0
 71
     0
 42
4.0
  3
SIMPLEX
  4
BIGFONT
  0
STYLE
  2
STANDARD1
 70
     0
 40
0.0
 41
1.0
 50
0.0
 71
     0
 42
3.0
  3
txt
  4

  0
ENDTAB
  0
TABLE
  2
VIEW
 70
     2
  0
VIEW
  2
ALL
 70
     0
 40
175.0
 10
143.1020066889632
 20
87.5
 41
286.2040133779264
 11
0.0
 21
0.0
 31
1.0
 12
0.0
 22
0.0
 32
0.0
 42
50.0
 43
0.0
 44
0.0
 50
0.0
 71
     0
  0
VIEW
  2
OLE1
 70
     0
 40
43.006246962410721
 10
135.14159993249649
 20
772.38637856260084
 41
54.07096098672028
 11
0.0
 21
0.0
 31
1.0
 12
0.0
 22
0.0
 32
0.0
 42
50.0
 43
0.0
 44
0.0
 50
0.0
 71
     0
  0
ENDTAB
  0
TABLE
  2
UCS
 70
     0
  0
ENDTAB
  0
TABLE
  2
APPID
 70
     7
  0
APPID
  2
ACAD
 70
     0
  0
APPID
  2
ACAD_DSTYLE_DIMJAG
 70
     0
  0
APPID
  2
ACAD_DSTYLE_DIMTALN
 70
     0
  0
APPID
  2
ACAD_EXEMPT_FROM_CAD_STANDARDS
 70
     0
  0
APPID
  2
ACAD_DSTYLE_DIMRADIAL_EXTENSION
 70
     0
  0
APPID
  2
ACAD_MLEADERVER
 70
     0
  0
APPID
  2
ACAD_NAV_VCDISPLAY
 70
     0
  0
ENDTAB
  0
TABLE
  2
DIMSTYLE
 70
     1
  0
DIMSTYLE
  2
STANDARD
 70
     0
  3

  4

  5

  6

  7

 40
1.0
 41
0.18
 42
0.0625
 43
0.38
 44
0.18
 45
0.0
 46
0.0
 47
0.0
 48
0.0
140
0.18
141
0.09
142
0.0
143
25.399999999999999
144
1.0
145
0.0
146
1.0
147
0.09
 71
     0
 72
     0
 73
     1
 74
     1
 75
     0
 76
     0
 77
     0
 78
     0
170
     0
171
     2
172
     0
173
     0
174
     0
175
     0
176
     0
177
     0
178
     0
  0
ENDTAB
  0
ENDSEC
  0
SECTION
  2
BLOCKS
  0
BLOCK
  8
0
  2
$MODEL_SPACE
 70
     0
 10
0.0
 20
0.0
 30
0.0
  3
$MODEL_SPACE
  1

  0
ENDBLK
  5
8A
  8
0
  0
BLOCK
 67
     1
  8
0
  2
$PAPER_SPACE
 70
     0
 10
0.0
 20
0.0
 30
0.0
  3
$PAPER_SPACE
  1

  0
ENDBLK
  5
88
 67
     1
  8
0
  0
ENDSEC
  0
SECTION
  2
ENTITIES
  0
TEXT
  5
4987
  8
0
 62
     3
 10
0.0
 20
0.0
 30
0.0
 40
10.0
  1
AMWF18L-4S
  7
STANDARD1
  0
ARC
  5
65BE
  8
0
 10
74.043909935532838
 20
163.5
 30
0.0
 40
2.0000000000000209
 50
347.97176715537779
 51
12.028232844622201
  0
LINE
  5
65C1
  8
0
 10
90.0
 20
150.0
 30
0.0
 11
90.0
 21
153.0
 31
0.0
  0
LINE
  5
65C2
  8
0
 10
50.0
 20
153.0
 30
0.0
 11
50.0
 21
150.0
 31
0.0
  0
LINE
  5
65C3
  8
0
 10
50.0
 20
150.0
 30
0.0
 11
50.5
 21
149.5
 31
0.0
  0
LINE
  5
65C4
  8
0
 10
89.500000000000014
 20
149.5
 30
0.0
 11
90.0
 21
150.0
 31
0.0
  0
LINE
  5
65C5
  8
0
 10
58.0
 20
142.0
 30
0.0
 11
58.300000000000068
 21
141.4803847577293
 31
0.0
  0
LINE
  5
65C6
  8
0
 10
81.700000000000045
 20
141.4803847577293
 30
0.0
 11
82.0
 21
142.0
 31
0.0
  0
LINE
  5
65C7
  8
0
 10
82.0
 20
142.0
 30
0.0
 11
82.0
 21
149.5
 31
0.0
  0
LINE
  5
65C8
  8
0
 10
58.0
 20
149.5
 30
0.0
 11
58.0
 21
142.0
 31
0.0
  0
LINE
  5
65C9
  8
0
 10
81.700000000000045
 20
121.0
 30
0.0
 11
81.700000000000045
 21
141.4803847577293
 31
0.0
  0
LINE
  5
65CA
  8
0
 10
58.300000000000068
 20
141.4803847577293
 30
0.0
 11
58.300000000000068
 21
121.0
 31
0.0
  0
LINE
  5
65CB
  8
0
 10
58.300000000000068
 20
121.0
 30
0.0
 11
59.300000000000011
 21
120.0
 31
0.0
  0
LINE
  5
65CC
  8
0
 10
80.700000000000045
 20
120.0
 30
0.0
 11
81.700000000000045
 21
121.0
 31
0.0
  0
ARC
  5
65CD
  8
0
 10
63.0
 20
158.5
 30
0.0
 40
1.0
 50
270.0
 51
0.0
  0
ARC
  5
65CE
  8
0
 10
77.0
 20
158.5
 30
0.0
 40
1.0
 50
180.0
 51
270.0
  0
LINE
  5
65CF
  8
0
 10
76.0
 20
158.5
 30
0.0
 11
76.0
 21
167.15358983848611
 31
0.0
  0
LINE
  5
65D0
  8
0
 10
64.0
 20
167.15358983848611
 30
0.0
 11
64.0
 21
158.5
 31
0.0
  0
LINE
  5
65D1
  8
0
 10
76.0
 20
167.15358983848611
 30
0.0
 11
75.800000000000011
 21
167.5
 31
0.0
  0
LINE
  5
65D2
  8
0
 10
64.200000000000045
 20
167.5
 30
0.0
 11
64.0
 21
167.15358983848611
 31
0.0
  0
LINE
  5
65D3
  8
0
 10
75.75
 20
167.5
 30
0.0
 11
75.75
 21
172.5
 31
0.0
  0
LINE
  5
65D4
  8
0
 10
64.25
 20
172.5
 30
0.0
 11
64.25
 21
167.5
 31
0.0
  0
LINE
  5
65D5
  8
0
 10
75.75
 20
172.5
 30
0.0
 11
75.214101615137793
 21
174.5
 31
0.0
  0
LINE
  5
65D6
  8
0
 10
64.785898384862264
 20
174.5
 30
0.0
 11
64.25
 21
172.5
 31
0.0
  0
LINE
  5
65D8
  8
0
 10
73.999999999999829
 20
153.0
 30
0.0
 11
65.999999999999829
 21
153.0
 31
0.0
  0
LINE
  5
65D9
  8
0
 10
73.999999999999829
 20
153.0
 30
0.0
 11
73.999999999999829
 21
157.5
 31
0.0
  0
LINE
  5
65DB
  8
0
 10
89.595917942265373
 20
157.0
 30
0.0
 11
89.595917942265373
 21
153.0
 31
0.0
  0
LINE
  5
65DC
  8
0
 10
90.0
 20
153.0
 30
0.0
 11
89.595917942265373
 21
153.0
 31
0.0
  0
LINE
  5
65DD
  8
0
 10
50.404082057734627
 20
153.0
 30
0.0
 11
50.0
 21
153.0
 31
0.0
  0
LINE
  5
65DE
  8
0
 10
50.404082057734627
 20
153.0
 30
0.0
 11
50.404082057734627
 21
157.0
 31
0.0
  0
LINE
  5
65E0
  8
0
 10
65.999999999999829
 20
157.5
 30
0.0
 11
65.999999999999829
 21
153.0
 31
0.0
  0
LINE
  5
65E1
  8
0
 10
89.500000000000014
 20
149.5
 30
0.0
 11
50.5
 21
149.5
 31
0.0
  0
LINE
  5
65E2
  8
0
 10
89.595917942265373
 20
157.0
 30
0.0
 11
88.973665961010269
 21
157.5
 31
0.0
  0
LINE
  5
65E4
  8
0
 10
51.026334038989773
 20
157.5
 30
0.0
 11
88.973665961010269
 21
157.5
 31
0.0
  0
LINE
  5
65E5
  8
0
 10
51.026334038989717
 20
157.5
 30
0.0
 11
50.404082057734627
 21
157.0
 31
0.0
  0
LINE
  5
65EA
  8
0
 10
81.700000000000045
 20
141.4803847577293
 30
0.0
 11
58.300000000000011
 21
141.4803847577293
 31
0.0
  0
LINE
  5
65EB
  8
0
 10
82.0
 20
142.0
 30
0.0
 11
58.0
 21
142.0
 31
0.0
  0
LINE
  5
65EC
  8
0
 10
58.300000000000068
 20
121.0
 30
0.0
 11
81.700000000000045
 21
121.0
 31
0.0
  0
LINE
  5
65ED
  8
0
 10
80.700000000000045
 20
120.0
 30
0.0
 11
59.300000000000011
 21
120.0
 31
0.0
  0
CIRCLE
  5
65EE
  8
0
 10
70.000000000000114
 20
163.49999999999989
 30
0.0
 40
2.000000000000028
  0
LINE
  5
65EF
  8
0
 10
76.0
 20
167.15358983848611
 30
0.0
 11
64.0
 21
167.15358983848611
 31
0.0
  0
LINE
  5
65F0
  8
0
 10
64.200000000000045
 20
167.5
 30
0.0
 11
75.800000000000011
 21
167.5
 31
0.0
  0
LINE
  5
65F1
  8
0
 10
75.75
 20
172.5
 30
0.0
 11
64.25
 21
172.5
 31
0.0
  0
LINE
  5
65F2
  8
0
 10
64.785898384862264
 20
174.5
 30
0.0
 11
75.214101615137793
 21
174.5
 31
0.0
  0
ARC
  5
66E5
  8
0
 10
74.043909935532838
 20
226.8347524898584
 30
0.0
 40
2.0000000000000191
 50
333.0839625934276
 51
86.916037406573992
  0
ARC
  5
66E6
  8
0
 10
65.956090064467205
 20
226.83475248985849
 30
0.0
 40
2.000000000000004
 50
93.083962593426023
 51
206.91603740657229
  0
ARC
  5
66E7
  8
0
 10
70.0
 20
219.830495020283
 30
0.0
 40
2.0000000000000102
 50
213.0839625934284
 51
326.9160374065716
  0
CIRCLE
  5
66E9
  8
0
 10
70.0
 20
224.5
 30
0.0
 40
5.7500000000000284
  0
CIRCLE
  5
66EA
  8
0
 10
70.0
 20
224.5
 30
0.0
 40
5.2141016151377642
  0
CIRCLE
  5
66EB
  8
0
 10
70.0
 20
224.5
 30
0.0
 40
4.5
  0
CIRCLE
  5
66ED
  8
0
 10
70.0
 20
224.5
 30
0.0
 40
6.0
  0
LINE
  5
66F5
  8
0
 10
74.000000000000114
 20
240.5
 30
0.0
 11
74.000000000000114
 21
244.0959179422654
 31
0.0
  0
LINE
  5
66FA
  8
0
 10
66.000000000000114
 20
244.09591794226549
 30
0.0
 11
66.000000000000057
 21
240.5
 31
0.0
  0
ARC
  5
6709
  8
0
 10
70.000000000000114
 20
240.5
 30
0.0
 40
4.0000000000000284
 50
180.0
 51
0.0
  0
LINE
  5
670A
  8
0
 10
89.595917942265487
 20
228.49999999999989
 30
0.0
 11
86.000000000000057
 21
228.49999999999989
 31
0.0
  0
LINE
  5
670D
  8
0
 10
54.0
 20
228.5
 30
0.0
 11
50.404082057734627
 21
228.5
 31
0.0
  0
ARC
  5
670F
  8
0
 10
54.0
 20
224.5
 30
0.0
 40
4.0
 50
270.0
 51
90.0
  0
ARC
  5
6710
  8
0
 10
86.0
 20
224.49999999999989
 30
0.0
 40
4.0
 50
90.0
 51
270.0
  0
LINE
  5
6712
  8
0
 10
86.0
 20
220.49999999999989
 30
0.0
 11
89.595917942265373
 21
220.49999999999989
 31
0.0
  0
LINE
  5
6716
  8
0
 10
50.404082057734627
 20
220.5
 30
0.0
 11
54.0
 21
220.5
 31
0.0
  0
ARC
  5
671B
  8
0
 10
69.999999999999886
 20
208.5
 30
0.0
 40
4.0
 50
0.0
 51
180.0
  0
LINE
  5
671D
  8
0
 10
65.999999999999886
 20
208.5
 30
0.0
 11
65.999999999999829
 21
204.9040820577346
 31
0.0
  0
LINE
  5
671E
  8
0
 10
73.999999999999829
 20
204.90408205773451
 30
0.0
 11
73.999999999999886
 21
208.5
 31
0.0
  0
CIRCLE
  5
671F
  8
0
 10
70.000000000000114
 20
240.5
 30
0.0
 40
2.2499999999999711
  0
CIRCLE
  5
6721
  8
0
 10
54.0
 20
224.5
 30
0.0
 40
2.25
  0
CIRCLE
  5
6723
  8
0
 10
86.0
 20
224.49999999999989
 30
0.0
 40
2.2499999999999711
  0
CIRCLE
  5
6725
  8
0
 10
69.999999999999886
 20
208.5
 30
0.0
 40
2.25
  0
ARC
  5
672B
  8
0
 10
66.465295112858826
 20
64.048173182144296
 30
0.0
 40
2.0000000000000102
 50
157.9474576579554
 51
243.94710382471749
  0
ARC
  5
672C
  8
0
 10
69.375
 20
70.000000000000114
 30
0.0
 40
8.6250000000000213
 50
243.94710382471749
 51
116.0528961752825
  0
ARC
  5
672D
  8
0
 10
66.465295112858826
 20
75.951826817855817
 30
0.0
 40
2.0000000000000191
 50
116.0528961752825
 51
202.0525416394963
  0
CIRCLE
  5
672E
  8
0
 10
62.75793537725599
 20
74.450000000000045
 30
0.0
 40
1.0
  0
CIRCLE
  5
672F
  8
0
 10
62.75793537725599
 20
65.550000000000054
 30
0.0
 40
1.0
  0
ARC
  5
6730
  8
0
 10
62.75793537725599
 20
74.450000000000045
 30
0.0
 40
2.0
 50
194.1215661101005
 51
22.05254389836837
  0
ARC
  5
6731
  8
0
 10
62.75793537725599
 20
65.550000000000054
 30
0.0
 40
1.9999999999999929
 50
337.94745680417992
 51
165.8784338898995
  0
CIRCLE
  5
6736
  8
0
 10
70.0
 20
70.000000000000114
 30
0.0
 40
10.700000000000021
  0
CIRCLE
  5
6737
  8
0
 10
70.0
 20
70.000000000000114
 30
0.0
 40
11.70000000000001
  0
CIRCLE
  5
6738
  8
0
 10
70.0
 20
70.000000000000114
 30
0.0
 40
10.0
  0
CIRCLE
  5
6739
  8
0
 10
69.999999999999886
 20
70.000000000000114
 30
0.0
 40
12.0
  0
CIRCLE
  5
673B
  8
0
 10
70.0
 20
70.0
 30
0.0
 40
20.0
  0
CIRCLE
  5
6740
  8
0
 10
70.000000000000057
 20
53.999999999999993
 30
0.0
 40
2.25
  0
CIRCLE
  5
6741
  8
0
 10
86.0
 20
70.000000000000114
 30
0.0
 40
2.2499999999999711
  0
CIRCLE
  5
6742
  8
0
 10
54.0
 20
70.0
 30
0.0
 40
2.2499999999999711
  0
CIRCLE
  5
6743
  8
0
 10
69.999999999999829
 20
86.0
 30
0.0
 40
2.25
  0
ARC
  5
6891
  8
0
 10
142.33475248985849
 20
163.5
 30
0.0
 40
1.9999999999999869
 50
281.98407302057751
 51
78.00762912280311
  0
ARC
  5
6892
  8
0
 10
135.33049502028311
 20
163.5
 30
0.0
 40
2.0
 50
180.0
 51
232.77695483557821
  0
ARC
  5
6893
  8
0
 10
135.33049502028311
 20
163.5
 30
0.0
 40
2.0
 50
127.2052997931676
 51
180.0
  0
LINE
  5
6894
  8
0
 10
160.0
 20
150.0
 30
0.0
 11
160.0
 21
153.0
 31
0.0
  0
LINE
  5
6895
  8
0
 10
120.0
 20
153.0
 30
0.0
 11
120.0
 21
150.0
 31
0.0
  0
LINE
  5
6896
  8
0
 10
120.0
 20
150.0
 30
0.0
 11
120.5
 21
149.5
 31
0.0
  0
LINE
  5
6897
  8
0
 10
159.5
 20
149.5
 30
0.0
 11
160.0
 21
150.0
 31
0.0
  0
LINE
  5
6898
  8
0
 10
152.00000000000011
 20
142.0
 30
0.0
 11
152.00000000000011
 21
149.5
 31
0.0
  0
LINE
  5
6899
  8
0
 10
128.0
 20
149.5
 30
0.0
 11
128.0
 21
142.0
 31
0.0
  0
LINE
  5
689A
  8
0
 10
128.0
 20
142.0
 30
0.0
 11
128.3000000000001
 21
141.4803847577293
 31
0.0
  0
LINE
  5
689B
  8
0
 10
151.69999999999999
 20
141.4803847577293
 30
0.0
 11
152.00000000000011
 21
142.0
 31
0.0
  0
LINE
  5
689C
  8
0
 10
128.2999999999999
 20
121.0
 30
0.0
 11
129.2999999999999
 21
120.0
 31
0.0
  0
LINE
  5
689D
  8
0
 10
150.69999999999999
 20
120.0
 30
0.0
 11
151.69999999999999
 21
121.0
 31
0.0
  0
LINE
  5
689E
  8
0
 10
151.69999999999999
 20
121.0
 30
0.0
 11
151.69999999999999
 21
141.4803847577293
 31
0.0
  0
LINE
  5
689F
  8
0
 10
128.2999999999999
 20
141.4803847577293
 30
0.0
 11
128.2999999999999
 21
121.0
 31
0.0
  0
ARC
  5
68A0
  8
0
 10
133.0
 20
158.5
 30
0.0
 40
1.0
 50
270.0
 51
0.0
  0
ARC
  5
68A1
  8
0
 10
147.0
 20
158.5
 30
0.0
 40
1.0
 50
180.0
 51
270.0
  0
LINE
  5
68A2
  8
0
 10
146.0
 20
158.5
 30
0.0
 11
146.0
 21
167.15358983848611
 31
0.0
  0
LINE
  5
68A3
  8
0
 10
134.0
 20
161.49999999999989
 30
0.0
 11
134.0
 21
158.5
 31
0.0
  0
LINE
  5
68A4
  8
0
 10
134.0
 20
167.15358983848611
 30
0.0
 11
134.0
 21
165.49999999999989
 31
0.0
  0
LINE
  5
68A5
  8
0
 10
146.0
 20
167.15358983848611
 30
0.0
 11
145.80000000000001
 21
167.5
 31
0.0
  0
LINE
  5
68A6
  8
0
 10
134.19999999999999
 20
167.5
 30
0.0
 11
134.0
 21
167.15358983848611
 31
0.0
  0
LINE
  5
68A7
  8
0
 10
145.75
 20
167.5
 30
0.0
 11
145.75
 21
172.5
 31
0.0
  0
LINE
  5
68A8
  8
0
 10
134.25
 20
172.5
 30
0.0
 11
134.25
 21
167.5
 31
0.0
  0
LINE
  5
68A9
  8
0
 10
145.75
 20
172.5
 30
0.0
 11
145.21410161513779
 21
174.5
 31
0.0
  0
LINE
  5
68AA
  8
0
 10
134.78589838486229
 20
174.5
 30
0.0
 11
134.25
 21
172.5
 31
0.0
  0
LINE
  5
68AD
  8
0
 10
120.4040820577345
 20
153.0
 30
0.0
 11
120.0
 21
153.0
 31
0.0
  0
LINE
  5
68AE
  8
0
 10
120.4040820577345
 20
153.0
 30
0.0
 11
120.4040820577345
 21
157.0
 31
0.0
  0
LINE
  5
68B0
  8
0
 10
135.99999999999969
 20
157.5
 30
0.0
 11
135.99999999999969
 21
153.0
 31
0.0
  0
LINE
  5
68B1
  8
0
 10
143.99999999999989
 20
153.0
 30
0.0
 11
135.99999999999969
 21
153.0
 31
0.0
  0
LINE
  5
68B2
  8
0
 10
143.99999999999989
 20
153.0
 30
0.0
 11
143.99999999999989
 21
157.5
 31
0.0
  0
LINE
  5
68B4
  8
0
 10
159.59591794226549
 20
157.0
 30
0.0
 11
159.59591794226549
 21
153.0
 31
0.0
  0
LINE
  5
68B5
  8
0
 10
160.00000000000011
 20
153.0
 30
0.0
 11
159.59591794226549
 21
153.0
 31
0.0
  0
LINE
  5
68B6
  8
0
 10
159.5
 20
149.5
 30
0.0
 11
120.5
 21
149.5
 31
0.0
  0
LINE
  5
68B8
  8
0
 10
159.59591794226549
 20
157.0
 30
0.0
 11
158.9736659610102
 21
157.5
 31
0.0
  0
LINE
  5
68BC
  8
0
 10
121.0263340389897
 20
157.5
 30
0.0
 11
120.4040820577345
 21
157.0
 31
0.0
  0
LINE
  5
68BD
  8
0
 10
121.0263340389897
 20
157.5
 30
0.0
 11
158.9736659610102
 21
157.5
 31
0.0
  0
LINE
  5
68C0
  8
0
 10
152.00000000000011
 20
142.00000000000011
 30
0.0
 11
128.0
 21
142.0
 31
0.0
  0
LINE
  5
68C2
  8
0
 10
151.69999999999999
 20
141.48038475772921
 30
0.0
 11
128.3000000000001
 21
141.4803847577293
 31
0.0
  0
LINE
  5
68C4
  8
0
 10
150.69999999999999
 20
120.0
 30
0.0
 11
129.2999999999999
 21
120.0
 31
0.0
  0
LINE
  5
68C7
  8
0
 10
128.2999999999999
 20
121.0
 30
0.0
 11
151.6999999999999
 21
120.9999999999999
 31
0.0
  0
POLYLINE
  5
68C8
  8
0
 66
     1
 10
0.0
 20
0.0
 30
0.0
 70
   128
  0
VERTEX
  5
80DB
  8
0
 10
141.0963763171772
 20
163.5
 30
0.0
  0
VERTEX
  5
80DC
  8
0
 10
141.20578731936561
 20
164.14083428727409
 30
0.0
  0
VERTEX
  5
80DD
  8
0
 10
141.5125038027563
 20
164.7089484759891
 30
0.0
  0
VERTEX
  5
80DE
  8
0
 10
141.98674604249541
 20
165.16357468363009
 30
0.0
  0
VERTEX
  5
80DF
  8
0
 10
142.57111379134059
 20
165.44056534260309
 30
0.0
  0
VERTEX
  5
80E0
  8
0
 10
143.15415732831821
 20
165.49192350622371
 30
0.0
  0
VERTEX
  5
80E1
  8
0
 10
143.66405113860961
 20
165.33411159535731
 30
0.0
  0
VERTEX
  5
80E2
  8
0
 10
144.08233307409529
 20
164.9875588598469
 30
0.0
  0
VERTEX
  5
80E3
  8
0
 10
144.38728432033309
 20
164.4627027998589
 30
0.0
  0
VERTEX
  5
80E4
  8
0
 10
144.54321251456679
 20
163.81526675428961
 30
0.0
  0
VERTEX
  5
80E5
  8
0
 10
144.54015648710961
 20
163.1582120787979
 30
0.0
  0
VERTEX
  5
80E6
  8
0
 10
144.39643576551069
 20
162.5610596767024
 30
0.0
  0
VERTEX
  5
80E7
  8
0
 10
144.1102901097708
 20
162.04680132016529
 30
0.0
  0
VERTEX
  5
80E8
  8
0
 10
143.67338317525829
 20
161.67101477866231
 30
0.0
  0
VERTEX
  5
80E9
  8
0
 10
143.12904826160729
 20
161.50564016924011
 30
0.0
  0
VERTEX
  5
80EA
  8
0
 10
142.55953527335851
 20
161.56266283244869
 30
0.0
  0
VERTEX
  5
80EB
  8
0
 10
142.01677487786549
 20
161.8159451480559
 30
0.0
  0
VERTEX
  5
80EC
  8
0
 10
141.5412341418303
 20
162.25418135675929
 30
0.0
  0
VERTEX
  5
80ED
  8
0
 10
141.20820570682821
 20
162.85228102291751
 30
0.0
  0
VERTEX
  5
80EE
  8
0
 10
141.0963763171772
 20
163.5
 30
0.0
  0
SEQEND
  5
80EF
  8
0
  0
POLYLINE
  5
68C9
  8
0
 66
     1
 10
0.0
 20
0.0
 30
0.0
 70
   128
  0
VERTEX
  5
80F0
  8
0
 10
134.0
 20
165.49999999999989
 30
0.0
  0
VERTEX
  5
80F1
  8
0
 10
134.00268733059161
 20
165.49192350622371
 30
0.0
  0
VERTEX
  5
80F2
  8
0
 10
134.05323908802239
 20
165.33411159535731
 30
0.0
  0
VERTEX
  5
80F3
  8
0
 10
134.15082643773431
 20
164.9875588598469
 30
0.0
  0
VERTEX
  5
80F4
  8
0
 10
134.2618124219527
 20
164.4627027998589
 30
0.0
  0
VERTEX
  5
80F5
  8
0
 10
134.33436736750789
 20
163.81526675428961
 30
0.0
  0
VERTEX
  5
80F6
  8
0
 10
134.33282971995021
 20
163.1582120787979
 30
0.0
  0
VERTEX
  5
80F7
  8
0
 10
134.26575123222631
 20
162.5610596767024
 30
0.0
  0
VERTEX
  5
80F8
  8
0
 10
134.1594703662191
 20
162.04680132016529
 30
0.0
  0
VERTEX
  5
80F9
  8
0
 10
134.05481817436419
 20
161.67101477866231
 30
0.0
  0
VERTEX
  5
80FA
  8
0
 10
134.0018776992672
 20
161.50564016924011
 30
0.0
  0
VERTEX
  5
80FB
  8
0
 10
134.0
 20
161.49999999999989
 30
0.0
  0
SEQEND
  5
80FC
  8
0
  0
LINE
  5
68CA
  8
0
 10
146.0
 20
167.153589838486
 30
0.0
 11
134.0
 21
167.15358983848611
 31
0.0
  0
LINE
  5
68CD
  8
0
 10
134.19999999999999
 20
167.5
 30
0.0
 11
145.80000000000001
 21
167.49999999999989
 31
0.0
  0
LINE
  5
68CE
  8
0
 10
145.75
 20
172.5
 30
0.0
 11
134.25
 21
172.5
 31
0.0
  0
LINE
  5
68CF
  8
0
 10
134.78589838486229
 20
174.5
 30
0.0
 11
145.21410161513779
 21
174.5
 31
0.0
  0
CIRCLE
  5
6A21
  8
0
 10
70.0
 20
224.5
 30
0.0
 40
20.0
  0
LINE
  5
6A92
  8
1
 10
70.0
 20
249.5
 30
0.0
 11
70.0
 21
199.5
 31
0.0
  0
LINE
  5
6A93
  8
1
 10
95.0
 20
224.49999999999989
 30
0.0
 11
45.0
 21
224.49999999999989
 31
0.0
  0
CIRCLE
  5
6A9E
  8
1
 10
70.0
 20
224.49999999999989
 30
0.0
 40
16.00000000000011
  0
CIRCLE
  5
6AEF
  8
0
 10
70.0
 20
70.000000000000114
 30
0.0
 40
2.0669999999999988
  0
CIRCLE
  5
6AF0
  8
3
 10
70.0
 20
70.000000000000114
 30
0.0
 40
2.5
  0
LINE
  5
6AF5
  8
1
 10
70.0
 20
95.000000000000114
 30
0.0
 11
70.0
 21
45.000000000000099
 31
0.0
  0
LINE
  5
6AF6
  8
1
 10
95.0
 20
70.0
 30
0.0
 11
45.0
 21
70.0
 31
0.0
  0
CIRCLE
  5
6AF7
  8
1
 10
70.0
 20
70.0
 30
0.0
 40
16.00000000000011
  0
LINE
  5
6BD6
  8
1
 10
70.0
 20
115.0
 30
0.0
 11
70.0
 21
179.5
 31
0.0
  0
ARC
  5
6BDF
  8
0
 10
65.956090064467162
 20
163.5
 30
0.0
 40
2.0000000000000209
 50
167.97176715537779
 51
192.0282328446221
  0
LINE
  5
6BE0
  8
1
 10
74.000000000000114
 20
163.49999999999989
 30
0.0
 11
66.000000000000057
 21
163.49999999999989
 31
0.0
  0
LINE
  5
6C2C
  8
1
 10
54.0
 20
147.5
 30
0.0
 11
54.0
 21
159.5
 31
0.0
  0
LINE
  5
6C2D
  8
1
 10
86.000000000000114
 20
147.5
 30
0.0
 11
86.000000000000114
 21
159.5
 31
0.0
  0
LINE
  5
6D78
  8
1
 10
124.0000000000002
 20
159.5
 30
0.0
 11
124.0000000000002
 21
147.5
 31
0.0
  0
LINE
  5
6D79
  8
1
 10
140.00000000000011
 20
179.5
 30
0.0
 11
140.00000000000011
 21
115.0
 31
0.0
  0
LINE
  5
6D7A
  8
1
 10
156.0000000000002
 20
159.5
 30
0.0
 11
156.0000000000002
 21
147.5
 31
0.0
  0
LINE
  5
6DC9
  8
1
 10
131.33049502028311
 20
163.49999999999989
 30
0.0
 11
136.33363505289901
 21
163.49999999999989
 31
0.0
  0
LINE
  5
6DCE
  8
1
 10
139.06743623933829
 20
163.49999999999989
 30
0.0
 11
146.54176780976769
 21
163.49999999999989
 31
0.0
  0
LINE
  5
6DD2
  8
1
 10
142.80460202455299
 20
167.46887667125711
 30
0.0
 11
142.80460202455299
 21
159.52812537170431
 31
0.0
  0
LINE
  5
7CF0
  8
2
 10
82.000000000000014
 20
153.0
 30
0.0
 11
89.595917942265373
 21
153.0
 31
0.0
  0
LINE
  5
7CF1
  8
2
 10
50.404082057734591
 20
153.0
 30
0.0
 11
57.999999999999979
 21
153.0
 31
0.0
  0
LINE
  5
7D65
  8
2
 10
67.749999999999858
 20
153.0
 30
0.0
 11
67.749999999999844
 21
149.5
 31
0.0
  0
LINE
  5
7D66
  8
2
 10
72.249999999999858
 20
149.5
 30
0.0
 11
72.249999999999858
 21
153.0
 31
0.0
  0
LINE
  5
7D7F
  8
2
 10
82.000000000000014
 20
157.5
 30
0.0
 11
82.000000000000014
 21
153.0
 31
0.0
  0
LINE
  5
7D80
  8
2
 10
57.999999999999972
 20
153.0
 30
0.0
 11
57.999999999999972
 21
157.5
 31
0.0
  0
LINE
  5
7D8B
  8
2
 10
83.750000000000028
 20
153.0
 30
0.0
 11
83.750000000000028
 21
149.5
 31
0.0
  0
LINE
  5
7D8C
  8
2
 10
88.249999999999972
 20
149.5
 30
0.0
 11
88.249999999999972
 21
153.0
 31
0.0
  0
LINE
  5
7D8D
  8
2
 10
51.750000000000028
 20
153.0
 30
0.0
 11
51.750000000000028
 21
149.5
 31
0.0
  0
LINE
  5
7D8E
  8
2
 10
56.249999999999979
 20
149.5
 30
0.0
 11
56.249999999999972
 21
153.0
 31
0.0
  0
LINE
  5
7F70
  8
2
 10
152.0000000000002
 20
153.0
 30
0.0
 11
159.59591794226549
 21
153.0
 31
0.0
  0
LINE
  5
7F77
  8
2
 10
120.4040820577346
 20
153.0
 30
0.0
 11
128.00000000000011
 21
153.0
 31
0.0
  0
LINE
  5
7FEF
  8
2
 10
137.74999999999989
 20
153.0
 30
0.0
 11
137.74999999999989
 21
149.5
 31
0.0
  0
LINE
  5
7FF0
  8
2
 10
142.24999999999989
 20
149.5
 30
0.0
 11
142.24999999999989
 21
153.0
 31
0.0
  0
LINE
  5
800B
  8
2
 10
152.00000000000011
 20
157.5
 30
0.0
 11
152.00000000000011
 21
153.0
 31
0.0
  0
LINE
  5
800C
  8
2
 10
128.00000000000011
 20
153.0
 30
0.0
 11
128.00000000000011
 21
157.5
 31
0.0
  0
LINE
  5
8016
  8
2
 10
153.75000000000011
 20
153.0
 30
0.0
 11
153.75000000000011
 21
149.5
 31
0.0
  0
LINE
  5
8017
  8
2
 10
158.25000000000011
 20
149.5
 30
0.0
 11
158.25000000000011
 21
153.0
 31
0.0
  0
LINE
  5
8018
  8
2
 10
121.7500000000001
 20
153.0
 30
0.0
 11
121.7500000000001
 21
149.5
 31
0.0
  0
LINE
  5
8019
  8
2
 10
126.2500000000001
 20
149.5
 30
0.0
 11
126.2500000000001
 21
153.0
 31
0.0
  0
ENDSEC
  0
EOF
