  0
SECTION
  2
HEADER
  9
$ACADVER
  1
AC1009
  9
$INSBASE
 10
0.0
 20
0.0
 30
0.0
  9
$EXTMIN
 10
-0.0204638472032742
 20
-2.960436562073669
 30
0.0
  9
$EXTMAX
 10
428.85808410090289
 20
303.79333571190699
 30
0.0
  9
$LIMMIN
 10
0.0
 20
0.0
  9
$LIMMAX
 10
375.0
 20
270.0
  9
$ORTHOMODE
 70
     0
  9
$REGENMODE
 70
     1
  9
$FILLMODE
 70
     1
  9
$QTEXTMODE
 70
     0
  9
$MIRRTEXT
 70
     0
  9
$DRAGMODE
 70
     2
  9
$LTSCALE
 40
10.0
  9
$OSMODE
 70
    37
  9
$ATTMODE
 70
     1
  9
$TEXTSIZE
 40
6.0
  9
$TRACEWID
 40
0.05
  9
$TEXTSTYLE
  7
STANDARD
  9
$CLAYER
  8
0
  9
$CELTYPE
  6
BYLAYER
  9
$CECOLOR
 62
   256
  9
$DIMSCALE
 40
1.0
  9
$DIMASZ
 40
3.0
  9
$DIMEXO
 40
2.0
  9
$DIMDLI
 40
0.3799999999999999
  9
$DIMRND
 40
0.0
  9
$DIMDLE
 40
0.0
  9
$DIMEXE
 40
2.0
  9
$DIMTP
 40
0.0
  9
$DIMTM
 40
0.0
  9
$DIMTXT
 40
3.2000000000000002
  9
$DIMCEN
 40
0.09
  9
$DIMTSZ
 40
0.0
  9
$DIMTOL
 70
     0
  9
$DIMLIM
 70
     0
  9
$DIMTIH
 70
     0
  9
$DIMTOH
 70
     0
  9
$DIMSE1
 70
     0
  9
$DIMSE2
 70
     0
  9
$DIMTAD
 70
     1
  9
$DIMZIN
 70
     0
  9
$DIMBLK
  1

  9
$DIMASO
 70
     0
  9
$DIMSHO
 70
     0
  9
$DIMPOST
  1

  9
$DIMAPOST
  1

  9
$DIMALT
 70
     0
  9
$DIMALTD
 70
     2
  9
$DIMALTF
 40
25.399999999999999
  9
$DIMLFAC
 40
1.0
  9
$DIMTOFL
 70
     0
  9
$DIMTVP
 40
0.0
  9
$DIMTIX
 70
     0
  9
$DIMSOXD
 70
     0
  9
$DIMSAH
 70
     0
  9
$DIMBLK1
  1

  9
$DIMBLK2
  1

  9
$DIMSTYLE
  2
STANDARD
  9
$DIMCLRD
 70
     0
  9
$DIMCLRE
 70
     0
  9
$DIMCLRT
 70
     0
  9
$DIMTFAC
 40
1.0
  9
$DIMGAP
 40
0.09
  9
$LUNITS
 70
     2
  9
$LUPREC
 70
     4
  9
$SKETCHINC
 40
0.1
  9
$FILLETRAD
 40
20.0
  9
$AUNITS
 70
     0
  9
$AUPREC
 70
     0
  9
$MENU
  1
E:\r13\win\SUPPORT\ACAD
  9
$ELEVATION
 40
0.0
  9
$PELEVATION
 40
0.0
  9
$THICKNESS
 40
0.0
  9
$LIMCHECK
 70
     0
  9
$BLIPMODE
 70
     0
  9
$CHAMFERA
 40
0.0
  9
$CHAMFERB
 40
0.0
  9
$SKPOLY
 70
     0
  9
$TDCREATE
 40
2449840.6320370371
  9
$TDUPDATE
 40
2458836.5014901739
  9
$TDINDWG
 40
1.1282919329000001
  9
$TDUSRTIMER
 40
1.1282919329000001
  9
$USRTIMER
 70
     1
  9
$ANGBASE
 50
0.0
  9
$ANGDIR
 70
     0
  9
$PDMODE
 70
     0
  9
$PDSIZE
 40
0.0
  9
$PLINEWID
 40
0.0
  9
$COORDS
 70
     1
  9
$SPLFRAME
 70
     0
  9
$SPLINETYPE
 70
     6
  9
$SPLINESEGS
 70
     8
  9
$ATTDIA
 70
     0
  9
$ATTREQ
 70
     1
  9
$HANDLING
 70
     1
  9
$HANDSEED
  5
B049
  9
$SURFTAB1
 70
     6
  9
$SURFTAB2
 70
     6
  9
$SURFTYPE
 70
     6
  9
$SURFU
 70
     6
  9
$SURFV
 70
     6
  9
$UCSNAME
  2

  9
$UCSORG
 10
0.0
 20
0.0
 30
0.0
  9
$UCSXDIR
 10
1.0
 20
0.0
 30
0.0
  9
$UCSYDIR
 10
0.0
 20
1.0
 30
0.0
  9
$PUCSNAME
  2

  9
$PUCSORG
 10
0.0
 20
0.0
 30
0.0
  9
$PUCSXDIR
 10
1.0
 20
0.0
 30
0.0
  9
$PUCSYDIR
 10
0.0
 20
1.0
 30
0.0
  9
$USERI1
 70
     0
  9
$USERI2
 70
     1
  9
$USERI3
 70
     0
  9
$USERI4
 70
     0
  9
$USERI5
 70
     0
  9
$USERR1
 40
0.0
  9
$USERR2
 40
0.0
  9
$USERR3
 40
0.0
  9
$USERR4
 40
0.0
  9
$USERR5
 40
0.0
  9
$WORLDVIEW
 70
     1
  9
$SHADEDGE
 70
     3
  9
$SHADEDIF
 70
    70
  9
$TILEMODE
 70
     1
  9
$MAXACTVP
 70
    16
  9
$PLIMCHECK
 70
     0
  9
$PEXTMIN
 10
1.0000000000000000E+020
 20
1.0000000000000000E+020
 30
1.0000000000000000E+020
  9
$PEXTMAX
 10
-1.0000000000000000E+020
 20
-1.0000000000000000E+020
 30
-1.0000000000000000E+020
  9
$PLIMMIN
 10
0.0
 20
0.0
  9
$PLIMMAX
 10
12.0
 20
9.0
  9
$UNITMODE
 70
     0
  9
$VISRETAIN
 70
     0
  9
$PLINEGEN
 70
     0
  9
$PSLTSCALE
 70
     0
  0
ENDSEC
  0
SECTION
  2
TABLES
  0
TABLE
  2
VPORT
 70
     1
  0
VPORT
  2
*ACTIVE
 70
     0
 10
0.0
 20
0.0
 11
1.0
 21
1.0
 12
214.4185833142497
 22
168.88304621162121
 13
0.0
 23
0.0
 14
10.0
 24
10.0
 15
10.0
 25
10.0
 16
0.0
 26
0.0
 36
1.0
 17
0.0
 27
0.0
 37
0.0
 40
346.23232563796012
 41
2.3366214549938338
 42
50.0
 43
0.0
 44
0.0
 50
0.0
 51
0.0
 71
     0
 72
   500
 73
     1
 74
     0
 75
     0
 76
     0
 77
     0
 78
     0
  0
ENDTAB
  0
TABLE
  2
LTYPE
 70
     4
  0
LTYPE
  2
CONTINUOUS
 70
     0
  3
Solid Line
 72
    65
 73
     0
 40
0.0
  0
LTYPE
  2
CENTER
 70
     0
  3
____ _ ____ _ ____ _ ____ _ ____ _ ____ _ ____
 72
    65
 73
     4
 40
2.0
 49
1.25
 49
-0.25
 49
0.25
 49
-0.25
  0
LTYPE
  2
HIDDEN
 70
     0
  3
Hidden __ __ __ __ __ __ __ __ __ __ __ __ __ __
 72
    65
 73
     2
 40
1.905
 49
1.27
 49
-0.635
  0
LTYPE
  2
PHANTOM2
 70
     0
  3
___ _ _ ___ _ _ ___ _ _ ___ _ _
 72
    65
 73
     6
 40
1.25
 49
0.625
 49
-0.125
 49
0.125
 49
-0.125
 49
0.125
 49
-0.125
  0
ENDTAB
  0
TABLE
  2
LAYER
 70
     6
  0
LAYER
  2
0
 70
     0
 62
     7
  6
CONTINUOUS
  0
LAYER
  2
1
 70
     0
 62
     1
  6
CENTER
  0
LAYER
  2
3
 70
     0
 62
     3
  6
CONTINUOUS
  0
LAYER
  2
2
 70
     0
 62
     2
  6
HIDDEN
  0
LAYER
  2
DEFPOINTS
 70
     0
 62
     7
  6
CONTINUOUS
  0
LAYER
  2
10_CHOKU02
 70
     0
 62
     7
  6
CONTINUOUS
  0
ENDTAB
  0
TABLE
  2
STYLE
 70
     2
  0
STYLE
  2
STANDARD
 70
     0
 40
0.0
 41
1.0
 50
0.0
 71
     0
 42
6.0
  3
TXT
  4
BIGFONT
  0
STYLE
  2
STANDARD1
 70
     0
 40
0.0
 41
1.0
 50
0.0
 71
     0
 42
3.0
  3
txt
  4

  0
ENDTAB
  0
TABLE
  2
VIEW
 70
     0
  0
ENDTAB
  0
TABLE
  2
UCS
 70
     0
  0
ENDTAB
  0
TABLE
  2
APPID
 70
     6
  0
APPID
  2
ACAD
 70
     0
  0
APPID
  2
ACAD_MLEADERVER
 70
     0
  0
APPID
  2
ACAD_EXEMPT_FROM_CAD_STANDARDS
 70
     0
  0
APPID
  2
DCO15
 70
     0
  0
APPID
  2
ACAD_DSTYLE_DIMRADIAL_EXTENSION
 70
     0
  0
APPID
  2
ACAD_NAV_VCDISPLAY
 70
     0
  0
ENDTAB
  0
TABLE
  2
DIMSTYLE
 70
     1
  0
DIMSTYLE
  2
STANDARD
 70
     0
  3

  4

  5

  6

  7

 40
1.0
 41
0.18
 42
0.0625
 43
0.38
 44
0.18
 45
0.0
 46
0.0
 47
0.0
 48
0.0
140
0.18
141
0.09
142
0.0
143
25.399999999999999
144
1.0
145
0.0
146
1.0
147
0.09
 71
     0
 72
     0
 73
     1
 74
     1
 75
     0
 76
     0
 77
     0
 78
     0
170
     0
171
     2
172
     0
173
     0
174
     0
175
     0
176
     0
177
     0
178
     0
  0
ENDTAB
  0
ENDSEC
  0
SECTION
  2
BLOCKS
  0
BLOCK
  8
0
  2
$MODEL_SPACE
 70
     0
 10
0.0
 20
0.0
 30
0.0
  3
$MODEL_SPACE
  1

  0
ENDBLK
  5
12
  8
0
  0
BLOCK
 67
     1
  8
0
  2
$PAPER_SPACE
 70
     0
 10
0.0
 20
0.0
 30
0.0
  3
$PAPER_SPACE
  1

  0
ENDBLK
  5
19
 67
     1
  8
0
  0
ENDSEC
  0
SECTION
  2
ENTITIES
  0
LINE
  5
2581
  8
1
 10
152.85807960075221
 20
175.3928995468234
 30
0.0
 11
152.85807960075229
 21
162.7933352797732
 31
0.0
  0
LINE
  5
2907
  8
1
 10
141.85807960075221
 20
271.29333615894183
 30
0.0
 11
318.85808648508868
 21
271.29333615894171
 31
0.0
  0
CIRCLE
  5
3338
  8
0
 10
262.85808112067082
 20
52.293337142418352
 30
0.0
 40
6.9999999999999849
  0
CIRCLE
  5
33CC
  8
0
 10
262.85808112067082
 20
52.293337142418352
 30
0.0
 40
9.0
  0
CIRCLE
  5
3404
  8
0
 10
262.85808112067082
 20
52.293337142418352
 30
0.0
 40
4.000000000000056
  0
LINE
  5
342E
  8
1
 10
141.85807960075221
 20
52.293337142418352
 30
0.0
 11
318.85808648508868
 21
52.293337142418352
 31
0.0
  0
LINE
  5
3F52
  8
1
 10
238.10808186572879
 20
297.79333560759881
 30
0.0
 11
219.60808186572871
 21
297.79333560759881
 31
0.0
  0
LINE
  5
3F53
  8
1
 10
199.60808186572871
 20
244.79333560759881
 30
0.0
 11
218.10808186572879
 21
244.79333560759881
 31
0.0
  0
LINE
  5
3F54
  8
1
 10
224.85808186572879
 20
303.04333560759881
 30
0.0
 11
224.85808186572879
 21
292.54333560759881
 31
0.0
  0
LINE
  5
3F55
  8
1
 10
232.85808186572879
 20
303.04333560759881
 30
0.0
 11
232.85808186572879
 21
292.54333560759881
 31
0.0
  0
LINE
  5
3F56
  8
1
 10
212.85808186572879
 20
303.04333560759881
 30
0.0
 11
212.85808186572879
 21
292.54333560759881
 31
0.0
  0
LINE
  5
3F57
  8
1
 10
204.85808186572879
 20
303.04333560759881
 30
0.0
 11
204.85808186572879
 21
292.54333560759881
 31
0.0
  0
LINE
  5
3F66
  8
1
 10
204.85808186572879
 20
250.04333560759881
 30
0.0
 11
204.85808186572879
 21
239.54333560759881
 31
0.0
  0
LINE
  5
3F67
  8
1
 10
212.85808186572879
 20
250.04333560759881
 30
0.0
 11
212.85808186572879
 21
239.54333560759881
 31
0.0
  0
LINE
  5
3F68
  8
1
 10
224.85808186572879
 20
250.04333560759881
 30
0.0
 11
224.85808186572879
 21
239.54333560759881
 31
0.0
  0
LINE
  5
3F69
  8
1
 10
232.85808186572879
 20
250.04333560759881
 30
0.0
 11
232.85808186572879
 21
239.54333560759881
 31
0.0
  0
LINE
  5
3F6A
  8
1
 10
218.10808186572879
 20
297.79333560759881
 30
0.0
 11
199.60808186572871
 21
297.79333560759881
 31
0.0
  0
LINE
  5
3F6B
  8
1
 10
219.60808186572871
 20
244.79333560759881
 30
0.0
 11
238.10808186572879
 21
244.79333560759881
 31
0.0
  0
LINE
  5
3F6C
  8
1
 10
152.85808112067079
 20
276.29333615894183
 30
0.0
 11
152.85808112067079
 21
266.29333615894183
 31
0.0
  0
CIRCLE
  5
3F73
  8
3
 10
152.85808112067079
 20
271.29333615894183
 30
0.0
 40
3.0
  0
CIRCLE
  5
3F74
  8
0
 10
152.85808112067079
 20
271.29333615894183
 30
0.0
 40
2.458499999999999
  0
LINE
  5
3F76
  8
1
 10
238.10808186572891
 20
78.793336591075274
 30
0.0
 11
219.60808186572891
 21
78.793336591075274
 31
0.0
  0
LINE
  5
3F77
  8
1
 10
218.10808186572891
 20
78.793336591075274
 30
0.0
 11
199.60808186572891
 21
78.793336591075274
 31
0.0
  0
LINE
  5
3F78
  8
1
 10
199.60808186572891
 20
25.793336591075221
 30
0.0
 11
218.10808186572891
 21
25.793336591075221
 31
0.0
  0
LINE
  5
3F79
  8
1
 10
219.60808186572891
 20
25.793336591075221
 30
0.0
 11
238.10808186572891
 21
25.793336591075221
 31
0.0
  0
LINE
  5
3F7A
  8
1
 10
224.85808186572891
 20
84.043336591075274
 30
0.0
 11
224.85808186572891
 21
73.543336591075274
 31
0.0
  0
LINE
  5
3F7B
  8
1
 10
224.85808186572891
 20
31.043336591075281
 30
0.0
 11
224.85808186572891
 21
20.54333659107516
 31
0.0
  0
LINE
  5
3F7C
  8
1
 10
232.85808186572891
 20
84.043336591075274
 30
0.0
 11
232.85808186572891
 21
73.543336591075274
 31
0.0
  0
LINE
  5
3F7D
  8
1
 10
232.85808186572891
 20
31.043336591075281
 30
0.0
 11
232.85808186572891
 21
20.54333659107516
 31
0.0
  0
LINE
  5
3F7E
  8
1
 10
212.85808186572891
 20
84.043336591075274
 30
0.0
 11
212.85808186572891
 21
73.543336591075274
 31
0.0
  0
LINE
  5
3F7F
  8
1
 10
212.85808186572891
 20
31.043336591075281
 30
0.0
 11
212.85808186572891
 21
20.54333659107516
 31
0.0
  0
LINE
  5
3F80
  8
1
 10
204.85808186572891
 20
84.043336591075274
 30
0.0
 11
204.85808186572891
 21
73.543336591075274
 31
0.0
  0
LINE
  5
3F81
  8
1
 10
204.85808186572891
 20
31.043336591075281
 30
0.0
 11
204.85808186572891
 21
20.54333659107516
 31
0.0
  0
LINE
  5
3F82
  8
1
 10
152.85808112067079
 20
57.293337142418288
 30
0.0
 11
152.85808112067079
 21
47.293337142418288
 31
0.0
  0
CIRCLE
  5
3F83
  8
3
 10
152.85808112067079
 20
52.293337142418288
 30
0.0
 40
3.0
  0
CIRCLE
  5
3F84
  8
0
 10
152.85808112067079
 20
52.293337142418288
 30
0.0
 40
2.458499999999999
  0
LINE
  5
405F
  8
1
 10
262.85808112067082
 20
63.293337142418352
 30
0.0
 11
262.85808112067082
 21
41.293337142418402
 31
0.0
  0
LINE
  5
4060
  8
1
 10
300.85808112067082
 20
63.293337142418352
 30
0.0
 11
300.85808112067082
 21
41.293337142418402
 31
0.0
  0
LINE
  5
4071
  8
1
 10
262.85808445853132
 20
137.79333595032551
 30
0.0
 11
262.85808445853132
 21
132.79333595032551
 31
0.0
  0
LINE
  5
4072
  8
1
 10
300.85808445853132
 20
137.79333595032551
 30
0.0
 11
300.85808445853132
 21
132.79333595032551
 31
0.0
  0
LINE
  5
4073
  8
1
 10
204.85808445853129
 20
132.79333595032551
 30
0.0
 11
204.85808445853129
 21
148.7933359503256
 31
0.0
  0
LINE
  5
4074
  8
1
 10
212.85808445853129
 20
132.79333595032551
 30
0.0
 11
212.85808445853129
 21
148.7933359503256
 31
0.0
  0
LINE
  5
4075
  8
1
 10
224.85808445853129
 20
132.79333595032551
 30
0.0
 11
224.85808445853129
 21
148.7933359503256
 31
0.0
  0
LINE
  5
4076
  8
1
 10
232.85808445853129
 20
132.79333595032551
 30
0.0
 11
232.85808445853129
 21
148.7933359503256
 31
0.0
  0
LINE
  5
407C
  8
1
 10
262.8580811206707
 20
172.2933359503256
 30
0.0
 11
262.8580811206707
 21
163.2933359503256
 31
0.0
  0
LINE
  5
4080
  8
1
 10
267.3580811206707
 20
167.7933359503256
 30
0.0
 11
258.3580811206707
 21
167.7933359503256
 31
0.0
  0
LINE
  5
40A4
  8
1
 10
396.3580852929959
 20
193.7933359503256
 30
0.0
 11
396.3580852929959
 21
129.7933359503256
 31
0.0
  0
LINE
  5
418D
  8
1
 10
369.85808529299618
 20
148.79333605463361
 30
0.0
 11
369.85808529299612
 21
132.79333595032551
 31
0.0
  0
LINE
  5
418E
  8
1
 10
422.85808529299629
 20
132.79333595032551
 30
0.0
 11
422.85808529299629
 21
148.7933360546337
 31
0.0
  0
LINE
  5
41B3
  8
1
 10
64.358080792844703
 20
193.79333595032551
 30
0.0
 11
64.358080792844703
 21
129.7933359503256
 31
0.0
  0
LINE
  5
41B4
  8
1
 10
37.858080792844817
 20
148.79333605463361
 30
0.0
 11
37.858080792844817
 21
132.7933359503254
 31
0.0
  0
LINE
  5
41B5
  8
1
 10
90.85808079284493
 20
132.79333595032551
 30
0.0
 11
90.85808079284493
 21
148.7933360546335
 31
0.0
  0
CIRCLE
  5
77BC
  8
0
 10
300.85808112067082
 20
52.293337142418352
 30
0.0
 40
6.9999999999999849
  0
CIRCLE
  5
77BD
  8
0
 10
300.85808112067082
 20
52.293337142418352
 30
0.0
 40
9.0
  0
CIRCLE
  5
77BE
  8
0
 10
300.85808112067082
 20
52.293337142418352
 30
0.0
 40
4.000000000000056
  0
CIRCLE
  5
77C6
  8
0
 10
262.8580811206707
 20
167.7933359503256
 30
0.0
 40
2.0669999999999988
  0
CIRCLE
  5
77C7
  8
3
 10
262.8580811206707
 20
167.7933359503256
 30
0.0
 40
2.5
  0
LINE
  5
77C9
  8
1
 10
300.85808112067082
 20
172.29333595032551
 30
0.0
 11
300.85808112067082
 21
163.29333595032551
 31
0.0
  0
LINE
  5
77CA
  8
1
 10
305.35808112067082
 20
167.79333595032551
 30
0.0
 11
296.35808112067082
 21
167.79333595032551
 31
0.0
  0
LINE
  5
94BA
  8
0
 10
178.85808112067059
 20
134.79333595032551
 30
0.0
 11
178.8580811206707
 21
188.79333735103461
 31
0.0
  0
LINE
  5
94BE
  8
0
 10
178.8580811206707
 20
188.79333735103461
 30
0.0
 11
246.85808648508851
 21
188.79333735103461
 31
0.0
  0
LINE
  5
94CC
  8
0
 10
184.1079902382601
 20
148.1980498697996
 30
0.0
 11
184.10787727804251
 21
148.8454749805932
 31
0.0
  0
ARC
  5
94CD
  8
0
 10
183.50787739904121
 20
148.8453705655846
 30
0.0
 40
0.5999999999999993
 50
0.0100000035959425
 51
110.8128596680635
  0
ARC
  5
94CE
  8
0
 10
184.85808112144679
 20
145.293335950325
 30
0.0
 40
4.4000000000000021
 50
110.8128596680657
 51
154.26082952273299
  0
ARC
  5
94CF
  8
0
 10
181.25495976908201
 20
147.03043598202521
 30
0.0
 40
0.4000000000000246
 50
154.26082952273859
 51
250.00000000000509
  0
LINE
  5
94D0
  8
0
 10
181.11815144952919
 20
146.65455862040429
 30
0.0
 11
182.0390030145885
 21
146.31939619094169
 31
0.0
  0
LINE
  5
94D1
  8
0
 10
182.039003221304
 20
144.26727568459191
 30
0.0
 11
181.11815164717649
 21
143.93211308733319
 31
0.0
  0
ARC
  5
94D2
  8
0
 10
181.25495976908201
 20
143.55623591862479
 30
0.0
 40
0.4000000000000045
 50
110.00000000000639
 51
205.73917047727039
  0
ARC
  5
94D3
  8
0
 10
184.85808112144679
 20
145.293335950325
 30
0.0
 40
4.4000000000000004
 50
205.73917047727039
 51
249.1871403325041
  0
ARC
  5
94D4
  8
0
 10
183.5078773990931
 20
141.7413013349902
 30
0.0
 40
0.5999999999481088
 50
249.18714032891421
 51
359.98999999999972
  0
LINE
  5
94D5
  8
0
 10
184.10787737590479
 20
141.74119660799431
 30
0.0
 11
184.10799057046279
 21
142.3886218092068
 31
0.0
  0
LINE
  5
94D6
  8
0
 10
186.61800078638129
 20
142.86379212044261
 30
0.0
 11
188.64430515271221
 21
141.69390474908141
 31
0.0
  0
ARC
  5
94D7
  8
0
 10
184.85808112067031
 20
145.29333595032529
 30
0.0
 40
5.5
 50
45.872723726438053
 51
314.12727627356588
  0
ARC
  5
94D8
  8
0
 10
188.53430535316249
 20
149.08329312586659
 30
0.0
 40
0.2200000000000127
 50
300.00000000000819
 51
45.872723726438053
  0
LINE
  5
94D9
  8
0
 10
188.6443052066634
 20
148.89276757398429
 30
0.0
 11
186.61800072218651
 21
147.72287999798809
 31
0.0
  0
ARC
  5
94DA
  8
0
 10
188.53430535316241
 20
141.50337877478401
 30
0.0
 40
0.2200000000000112
 50
314.12727627356202
 51
60.000000000000277
  0
CIRCLE
  5
94DB
  8
0
 10
184.8580811206707
 20
145.29333595032551
 30
0.0
 40
3.0
  0
ARC
  5
94DC
  8
0
 10
170.8580811206707
 20
157.79333595032551
 30
0.0
 40
8.0
 50
0.0
 51
90.0
  0
LINE
  5
94DD
  8
0
 10
170.85808074069109
 20
165.793335443686
 30
0.0
 11
162.73106472534019
 21
165.793335443686
 31
0.0
  0
ARC
  5
94DE
  8
0
 10
162.73106446687811
 20
157.79333595032551
 30
0.0
 40
8.0
 50
90.0
 51
118.9550243718607
  0
LINE
  5
94E0
  8
0
 10
164.60808111322009
 20
179.86736298198559
 30
0.0
 11
152.8580805842289
 21
173.08349758977749
 31
0.0
  0
ARC
  5
94E1
  8
0
 10
184.8580811206707
 20
144.79333595032551
 30
0.0
 40
40.500000000000028
 50
98.51962425414338
 51
120.0000000000005
  0
LINE
  5
94E2
  8
0
 10
146.85807960075221
 20
164.7933352797732
 30
0.0
 11
146.85807960075221
 21
169.61939857001161
 31
0.0
  0
POLYLINE
  5
94E3
  8
0
 66
     1
 10
0.0
 20
0.0
 30
0.0
 70
   128
  0
VERTEX
  5
AEA9
  8
0
 10
146.85807960075221
 20
169.61939857001161
 30
0.0
  0
VERTEX
  5
AEAA
  8
0
 10
146.9492337290653
 20
169.67202574605801
 30
0.0
  0
VERTEX
  5
AEAB
  8
0
 10
147.21992449802241
 20
169.82830912465911
 30
0.0
  0
VERTEX
  5
AEAC
  8
0
 10
147.66192832928979
 20
170.0834989606843
 30
0.0
  0
VERTEX
  5
AEAD
  8
0
 10
148.26181368869629
 20
170.4298429250226
 30
0.0
  0
VERTEX
  5
AEAE
  8
0
 10
149.0013545934566
 20
170.85681707258081
 30
0.0
  0
VERTEX
  5
AEAF
  8
0
 10
149.8580819551357
 20
171.35144994253969
 30
0.0
  0
VERTEX
  5
AEB0
  8
0
 10
150.80595971983749
 20
171.89870626325461
 30
0.0
  0
VERTEX
  5
AEB1
  8
0
 10
151.81619139355499
 20
172.4819637894139
 30
0.0
  0
VERTEX
  5
AEB2
  8
0
 10
152.8580805842289
 20
173.08349758977749
 30
0.0
  0
SEQEND
  5
AEB3
  8
0
  0
LINE
  5
94E4
  8
0
 10
158.85808112067059
 20
164.79333595032551
 30
0.0
 11
146.85807960075221
 21
164.7933352797732
 31
0.0
  0
CIRCLE
  5
94F1
  8
0
 10
198.8580811206707
 20
169.2933359503256
 30
0.0
 40
4.0000000000000284
  0
CIRCLE
  5
94FE
  8
0
 10
223.8580811206707
 20
169.2933359503256
 30
0.0
 40
4.0000000000000284
  0
LINE
  5
94FF
  8
0
 10
223.8580829088101
 20
175.79333708281371
 30
0.0
 11
198.85808067363581
 21
175.79333708281371
 31
0.0
  0
ARC
  5
9500
  8
0
 10
223.8580811206707
 20
168.2933359503256
 30
0.0
 40
7.5000000000000284
 50
0.0
 51
90.0
  0
LINE
  5
9501
  8
0
 10
231.358079481543
 20
158.29333514566281
 30
0.0
 11
231.358079481543
 21
168.29333678479051
 31
0.0
  0
ARC
  5
9502
  8
0
 10
223.8580811206707
 20
158.29333595032551
 30
0.0
 40
7.5000000000000284
 50
270.0
 51
0.0
  0
LINE
  5
9503
  8
0
 10
198.85808067363581
 20
150.79333671028471
 30
0.0
 11
223.8580829088101
 21
150.79333671028471
 31
0.0
  0
LINE
  5
9504
  8
0
 10
191.35808130693519
 20
168.29333678479051
 30
0.0
 11
191.35808130693519
 21
158.29333514566281
 31
0.0
  0
ARC
  5
9505
  8
0
 10
198.8580811206707
 20
168.2933359503256
 30
0.0
 40
7.5
 50
90.0
 51
180.0
  0
CIRCLE
  5
9506
  8
0
 10
223.8580811206707
 20
169.2933359503256
 30
0.0
 40
4.5
  0
CIRCLE
  5
9507
  8
0
 10
198.8580811206707
 20
169.2933359503256
 30
0.0
 40
4.5
  0
ARC
  5
9508
  8
0
 10
198.8580811206707
 20
158.29333595032551
 30
0.0
 40
7.5
 50
180.0
 51
270.0
  0
LINE
  5
951A
  8
0
 10
192.71619792351029
 20
146.79333605463361
 30
0.0
 11
251.3580811206707
 21
146.79333605463361
 31
0.0
  0
LINE
  5
9532
  8
0
 10
313.85808648508879
 20
134.79333595032551
 30
0.0
 11
178.8580811206707
 21
134.79333595032551
 31
0.0
  0
LINE
  5
9533
  8
0
 10
313.85808648508879
 20
176.79333538408139
 30
0.0
 11
313.85808648508879
 21
134.79333595032551
 31
0.0
  0
LINE
  5
953E
  8
0
 10
255.85808648508879
 20
176.79333538408139
 30
0.0
 11
313.85808648508879
 21
176.79333538408139
 31
0.0
  0
LINE
  5
9542
  8
0
 10
178.8580811206707
 20
185.7933349966512
 30
0.0
 11
246.85808648508851
 21
185.7933349966512
 31
0.0
  0
LINE
  5
9790
  8
0
 10
228.01278139990649
 20
285.29333659107522
 30
0.0
 11
227.43543218416059
 21
286.29333582366542
 31
0.0
  0
LINE
  5
9791
  8
0
 10
227.43543218416059
 20
286.29333582366542
 30
0.0
 11
226.28073002737841
 21
286.29333582366542
 31
0.0
  0
LINE
  5
9792
  8
0
 10
226.28073002737841
 20
286.29333582366542
 30
0.0
 11
225.70338081163251
 21
285.29333659107522
 31
0.0
  0
LINE
  5
9793
  8
0
 10
225.70338081163251
 20
285.29333659107522
 30
0.0
 11
226.28073002737841
 21
284.29333642716239
 31
0.0
  0
LINE
  5
9794
  8
0
 10
226.28073002737841
 20
284.29333642716239
 30
0.0
 11
227.43543218416059
 21
284.29333642716239
 31
0.0
  0
LINE
  5
9795
  8
0
 10
227.43543218416059
 20
284.29333642716239
 30
0.0
 11
228.01278139990649
 21
285.29333659107522
 31
0.0
  0
CIRCLE
  5
9796
  8
0
 10
226.8580811206707
 20
285.29333615894149
 30
0.0
 40
3.0
  0
CIRCLE
  5
97A5
  8
0
 10
194.8580811206707
 20
285.29333615894149
 30
0.0
 40
3.0
  0
LINE
  5
97A6
  8
0
 10
196.01278184694129
 20
285.29333659107522
 30
0.0
 11
195.43543169987279
 21
286.29333582366542
 31
0.0
  0
LINE
  5
97A7
  8
0
 10
195.43543169987279
 20
286.29333582366542
 30
0.0
 11
194.2807304744133
 21
286.29333582366542
 31
0.0
  0
LINE
  5
97A8
  8
0
 10
194.2807304744133
 20
286.29333582366542
 30
0.0
 11
193.7033803273448
 21
285.29333659107522
 31
0.0
  0
LINE
  5
97A9
  8
0
 10
193.7033803273448
 20
285.29333659107522
 30
0.0
 11
194.2807304744133
 21
284.29333642716239
 31
0.0
  0
LINE
  5
97AA
  8
0
 10
194.2807304744133
 20
284.29333642716239
 30
0.0
 11
195.43543169987279
 21
284.29333642716239
 31
0.0
  0
LINE
  5
97AB
  8
0
 10
195.43543169987279
 20
284.29333642716239
 30
0.0
 11
196.01278184694129
 21
285.29333659107522
 31
0.0
  0
ARC
  5
97AC
  8
0
 10
226.85808648508879
 20
271.29333615894171
 30
0.0
 40
20.000000000000028
 50
0.0
 51
90.0
  0
LINE
  5
97B0
  8
0
 10
178.8580811206707
 20
246.79333660597561
 30
0.0
 11
178.8580811206707
 21
295.79333571190699
 31
0.0
  0
CIRCLE
  5
97BA
  8
0
 10
226.8580811206707
 20
285.29333615894149
 30
0.0
 40
3.250000000000028
  0
CIRCLE
  5
97BB
  8
0
 10
194.8580811206707
 20
285.29333615894149
 30
0.0
 40
3.25
  0
ARC
  5
97BE
  8
0
 10
226.85808648508879
 20
271.29333615894171
 30
0.0
 40
20.00000000000006
 50
270.0
 51
0.0
  0
ARC
  5
97D6
  8
0
 10
152.8580811206707
 20
274.2933361589416
 30
0.0
 40
6.0
 50
90.0
 51
180.0
  0
ARC
  5
97D7
  8
0
 10
152.8580811206707
 20
268.2933361589416
 30
0.0
 40
6.0
 50
180.0
 51
270.0
  0
LINE
  5
97D8
  8
0
 10
146.85807960075221
 20
268.29333613286468
 30
0.0
 11
146.85807960075221
 21
274.2933361850188
 31
0.0
  0
LINE
  5
97DA
  8
0
 10
178.8580811206707
 20
262.2933365463719
 30
0.0
 11
152.8580805842289
 21
262.2933365463719
 31
0.0
  0
LINE
  5
97DB
  8
0
 10
178.8580811206707
 20
280.29333577151152
 30
0.0
 11
152.8580805842289
 21
280.29333577151152
 31
0.0
  0
CIRCLE
  5
97DC
  8
0
 10
298.80018840939658
 20
279.74088930127863
 30
0.0
 40
0.6450074399935489
  0
CIRCLE
  5
97DD
  8
0
 10
298.80018840939658
 20
279.74088930127863
 30
0.0
 40
1.8346020000000181
  0
LINE
  5
97DE
  8
0
 10
298.31949831885203
 20
275.78128325412717
 30
0.0
 11
298.8006791655431
 21
275.78164879823771
 31
0.0
  0
LINE
  5
97DF
  8
0
 10
300.6059250418553
 20
274.70800756136617
 30
0.0
 11
300.6051054779897
 21
275.7830197050676
 31
0.0
  0
LINE
  5
97E0
  8
0
 10
298.32031788271757
 20
274.7062713432565
 30
0.0
 11
300.6059250418553
 21
274.70800756136617
 31
0.0
  0
ARC
  5
97E1
  8
0
 10
298.31925253939932
 20
276.103787081733
 30
0.0
 40
1.397516119986056
 50
90.043512900476287
 51
270.04353764497648
  0
LINE
  5
97E2
  8
0
 10
300.6046137396703
 20
276.42802717755291
 30
0.0
 11
300.60380162638518
 21
277.50303885559288
 31
0.0
  0
LINE
  5
97E3
  8
0
 10
299.76254912060602
 20
276.42738735894409
 30
0.0
 11
300.6046137396703
 21
276.42802717755291
 31
0.0
  0
LINE
  5
97E4
  8
0
 10
300.6051054779897
 20
275.7830197050676
 30
0.0
 11
299.76304085892542
 21
275.78237988645878
 31
0.0
  0
ARC
  5
97E5
  8
0
 10
298.31925253939932
 20
276.103787081733
 30
0.0
 40
0.3225037199969012
 50
90.04347165964468
 51
270.04357888580819
  0
LINE
  5
97E6
  8
0
 10
298.8006791655431
 20
275.78164879823771
 30
0.0
 11
298.8001874272237
 21
276.42665627072302
 31
0.0
  0
LINE
  5
97E7
  8
0
 10
299.76304085892542
 20
275.78237988645878
 30
0.0
 11
299.76254912060602
 21
276.42738735894409
 31
0.0
  0
LINE
  5
97E8
  8
0
 10
298.8001874272237
 20
276.42665627072302
 30
0.0
 11
298.31900658053257
 21
276.42629072661248
 31
0.0
  0
LINE
  5
97E9
  8
0
 10
300.60380162638518
 20
277.50303885559288
 30
0.0
 11
298.31819446724751
 21
277.50130287031379
 31
0.0
  0
LINE
  5
97EA
  8
0
 10
298.32407297533848
 20
269.76121576162723
 30
0.0
 11
300.60968013447621
 21
269.76295197973701
 31
0.0
  0
ARC
  5
97EB
  8
0
 10
298.25743570977829
 20
271.19066650191883
 30
0.0
 40
1.431003044279832
 50
144.68909744645279
 51
272.66896989131368
  0
ARC
  5
97EC
  8
0
 10
298.25617767596242
 20
272.84671618906361
 30
0.0
 40
1.4310030442798229
 50
87.418080654141676
 51
215.39795309899759
  0
LINE
  5
97ED
  8
0
 10
300.60624541682103
 20
274.27800289015022
 30
0.0
 11
298.3206382576833
 21
274.27626643920991
 31
0.0
  0
LINE
  5
97EE
  8
0
 10
298.3214578215489
 20
273.20125441192391
 30
0.0
 11
300.60706498068669
 21
273.2029907464489
 31
0.0
  0
ARC
  5
97EF
  8
0
 10
298.32170277049448
 20
272.87875081255049
 30
0.0
 40
0.3225037199968133
 50
90.043525272732936
 51
270.04352527271988
  0
LINE
  5
97F0
  8
0
 10
300.60755671900608
 20
272.55798350679419
 30
0.0
 11
298.3219495598683
 21
272.5562471722692
 31
0.0
  0
LINE
  5
97F1
  8
0
 10
300.60836883229109
 20
271.48297137764479
 30
0.0
 11
300.60755671900608
 21
272.55798350679419
 31
0.0
  0
LINE
  5
97F2
  8
0
 10
298.32276167315342
 20
271.48123510132751
 30
0.0
 11
300.60836883229109
 21
271.48297137764479
 31
0.0
  0
ARC
  5
97F3
  8
0
 10
298.32300939946549
 20
271.15873146886412
 30
0.0
 40
0.3225037199967565
 50
90.043525272719876
 51
270.04352527271988
  0
LINE
  5
97F4
  8
0
 10
300.60886057061049
 20
270.83796412343833
 30
0.0
 11
298.32325341147282
 21
270.83622784712088
 31
0.0
  0
LINE
  5
97F5
  8
0
 10
300.60968013447621
 20
269.76295197973701
 30
0.0
 11
300.60886057061049
 21
270.83796412343833
 31
0.0
  0
LINE
  5
97F6
  8
0
 10
300.60706498068669
 20
273.2029907464489
 30
0.0
 11
300.60624541682103
 21
274.27800289015022
 31
0.0
  0
LINE
  5
97F7
  8
0
 10
300.61082007330748
 20
268.25793516481963
 30
0.0
 11
300.61000796002247
 21
269.33294730852089
 31
0.0
  0
LINE
  5
97F8
  8
0
 10
296.76138075035908
 20
268.25501081193528
 30
0.0
 11
300.61082007330748
 21
268.25793516481963
 31
0.0
  0
LINE
  5
97F9
  8
0
 10
296.76056118649342
 20
269.33002295563671
 30
0.0
 11
296.76138075035908
 21
268.25501081193528
 31
0.0
  0
LINE
  5
97FA
  8
0
 10
300.61000796002247
 20
269.33294730852089
 30
0.0
 11
296.76056118649342
 21
269.33002295563671
 31
0.0
  0
ARC
  5
97FB
  8
0
 10
298.88272473561091
 20
265.31468916212577
 30
0.0
 40
1.8354474660023721
 50
9.3360185736946395
 51
37.583819085589198
  0
LINE
  5
97FC
  8
0
 10
299.98188676279881
 20
265.61190244401541
 30
0.0
 11
300.6938567940602
 21
265.61244307676998
 31
0.0
  0
LINE
  5
97FD
  8
0
 10
297.85082699698307
 20
265.61028333971939
 30
0.0
 11
298.44064475935789
 21
265.61073130587778
 31
0.0
  0
LINE
  5
97FE
  8
0
 10
298.44064475935789
 20
265.61073130587778
 30
0.0
 11
298.43945266646239
 21
267.18201591293058
 31
0.0
  0
ARC
  5
97FF
  8
0
 10
295.62392525159771
 20
265.29387069589711
 30
0.0
 40
2.2492656475153101
 50
8.0868359828601335
 51
40.015895282298423
  0
ARC
  5
9800
  8
0
 10
298.75945705689497
 20
262.74111071558963
 30
0.0
 40
2.4572493470338639
 50
71.496483276654587
 51
81.129597981815749
  0
ARC
  5
9801
  8
0
 10
301.72662415488412
 20
265.424229425666
 30
0.0
 40
2.2156125182392001
 50
186.60803002292241
 51
189.1650058665895
  0
LINE
  5
9802
  8
0
 10
299.52573241633269
 20
265.16926484773597
 30
0.0
 11
299.13836182993748
 21
265.16897054980251
 31
0.0
  0
ARC
  5
9803
  8
0
 10
298.4938302077324
 20
265.46485897842331
 30
0.0
 40
1.8354474660024209
 50
189.33601857369459
 51
217.58381908559181
  0
ARC
  5
9804
  8
0
 10
295.58308658541267
 20
265.46264780448621
 30
0.0
 40
1.8354474660023929
 50
322.50323145985931
 51
350.75103197175468
  0
LINE
  5
9805
  8
0
 10
297.39467265051701
 20
265.16764574344012
 30
0.0
 11
296.68269516867502
 21
265.1671051106855
 31
0.0
  0
ARC
  5
9806
  8
0
 10
298.69009705409479
 20
262.99403284129193
 30
0.0
 40
0.5897210879941293
 50
270.04356074219447
 51
90.043445193025306
  0
LINE
  5
9807
  8
0
 10
298.44308109921309
 20
262.40412388588038
 30
0.0
 11
298.69054468315937
 21
262.40431201304051
 31
0.0
  0
LINE
  5
9808
  8
0
 10
298.44338657301762
 20
261.99869122947302
 30
0.0
 11
298.44308109921309
 21
262.40412388588038
 31
0.0
  0
LINE
  5
9809
  8
0
 10
298.69085015696379
 20
261.99887842531052
 30
0.0
 11
298.44338657301762
 21
261.99869122947302
 31
0.0
  0
ARC
  5
980A
  8
0
 10
298.74777938718847
 20
263.06645379910549
 30
0.0
 40
1.069091653027066
 50
266.94772457242829
 51
344.10813616549348
  0
LINE
  5
980B
  8
0
 10
300.23788126152851
 20
262.77406290764662
 30
0.0
 11
299.77601231974461
 21
262.77371273035851
 31
0.0
  0
ARC
  5
980C
  8
0
 10
298.77232197098601
 20
263.09059815607191
 30
0.0
 40
1.4993507366616849
 50
266.89703507056288
 51
347.81231478316681
  0
LINE
  5
980D
  8
0
 10
298.44369949740269
 20
261.59325764174309
 30
0.0
 11
298.69116308134892
 21
261.59344576890322
 31
0.0
  0
LINE
  5
980E
  8
0
 10
298.44400497120711
 20
261.18782498533568
 30
0.0
 11
298.44369949740269
 21
261.59325764174309
 31
0.0
  0
LINE
  5
980F
  8
0
 10
298.69146855515339
 20
261.18801218117318
 30
0.0
 11
298.44400497120711
 21
261.18782498533568
 31
0.0
  0
ARC
  5
9810
  8
0
 10
298.79666608070278
 20
263.1147423622665
 30
0.0
 40
1.9295994894742901
 50
266.8748350594031
 51
349.8413737440066
  0
LINE
  5
9811
  8
0
 10
301.15250708502629
 20
262.77475767428717
 30
0.0
 11
300.6960174624333
 21
262.77441122228947
 31
0.0
  0
ARC
  5
9812
  8
0
 10
298.71045901501191
 20
262.9359272736782
 30
0.0
 40
2.4473576041129448
 50
149.16608930843771
 51
356.22408712698689
  0
ARC
  5
9813
  8
0
 10
298.68816917389779
 20
265.53233501913837
 30
0.0
 40
2.4746435999752339
 50
327.24635697690968
 51
212.840693568539
  0
ARC
  5
9814
  8
0
 10
298.93171431151092
 20
262.90977639276412
 30
0.0
 40
2.2416134484653139
 50
7.8787040467295668
 51
34.936701865270528
  0
LINE
  5
9815
  8
0
 10
300.6956821863065
 20
263.21670190090981
 30
0.0
 11
301.15216435831883
 21
263.21704835290763
 31
0.0
  0
ARC
  5
9816
  8
0
 10
298.79684935385859
 20
262.87348537188109
 30
0.0
 40
1.9295994894743631
 50
10.24567680144299
 51
93.212215486051349
  0
LINE
  5
9817
  8
0
 10
298.4412631575475
 20
264.7998650617406
 30
0.0
 11
298.68872674149372
 21
264.80005318890062
 31
0.0
  0
LINE
  5
9818
  8
0
 10
298.44098003548481
 20
265.1684406272575
 30
0.0
 11
298.4412631575475
 21
264.7998650617406
 31
0.0
  0
LINE
  5
9819
  8
0
 10
297.85116227310988
 20
265.16799266109911
 30
0.0
 11
298.44098003548481
 21
265.1684406272575
 31
0.0
  0
ARC
  5
981A
  8
0
 10
295.62378308063592
 20
265.4810216083265
 30
0.0
 40
2.2492656475154211
 50
320.07115526315278
 51
352.00021456259481
  0
ARC
  5
981B
  8
0
 10
298.61684058524929
 20
265.57760491799439
 30
0.0
 40
1.9951801012092529
 50
230.53217560829731
 51
272.09133621753989
  0
LINE
  5
981C
  8
0
 10
296.68235989254811
 20
265.60939578930578
 30
0.0
 11
297.39433737439009
 21
265.6099364220604
 31
0.0
  0
ARC
  5
981D
  8
0
 10
301.75277186270728
 20
265.29852653222258
 30
0.0
 40
2.249265647515355
 50
140.0711552631528
 51
172.00021456259159
  0
ARC
  5
981E
  8
0
 10
298.77287324035802
 20
265.20276194416681
 30
0.0
 40
1.986207072235054
 50
50.810202446701318
 51
85.33588872317894
  0
LINE
  5
981F
  8
0
 10
298.9343798343549
 20
267.18239170158949
 30
0.0
 11
298.93557192725041
 21
265.61110756019798
 31
0.0
  0
LINE
  5
9820
  8
0
 10
298.93557192725041
 20
265.61110756019798
 30
0.0
 11
299.52539714020588
 21
265.61155552635643
 31
0.0
  0
ARC
  5
9821
  8
0
 10
298.8894579277993
 20
265.45413841186962
 30
0.0
 40
1.826944599897764
 50
329.72905831654032
 51
351.05750239331462
  0
LINE
  5
9822
  8
0
 10
300.69419207018711
 20
265.17015239814958
 30
0.0
 11
299.98222203892573
 21
265.16961176539508
 31
0.0
  0
ARC
  5
9823
  8
0
 10
301.77890834661213
 20
265.43852711313201
 30
0.0
 40
1.816702504598452
 50
188.5124314108223
 51
199.4991308438222
  0
ARC
  5
9824
  8
0
 10
298.85808112067082
 20
262.79333615894171
 30
0.0
 40
2.3699569172246431
 50
47.23381982691771
 51
59.346264167637173
  0
ARC
  5
9825
  8
0
 10
298.60396593152132
 20
265.20263363213132
 30
0.0
 40
1.9862070722350229
 50
94.751161822269793
 51
129.2768480987454
  0
ARC
  5
9826
  8
0
 10
295.58320088769301
 20
265.31218264761139
 30
0.0
 40
1.8354474660023821
 50
9.3360185736946395
 51
37.583819085589198
  0
ARC
  5
9827
  8
0
 10
301.79346835793058
 20
265.3169003360627
 30
0.0
 40
1.8354474660024229
 50
142.50323145985931
 51
170.75103197175139
  0
ARC
  5
9828
  8
0
 10
298.49394451001262
 20
265.31439382154838
 30
0.0
 40
1.8354474660023929
 50
142.50323145985931
 51
170.7510319717546
  0
LINE
  5
9829
  8
0
 10
299.77567704361769
 20
263.21600340897891
 30
0.0
 11
300.2375459854016
 21
263.21635358626691
 31
0.0
  0
ARC
  5
982A
  8
0
 10
298.74788935108211
 20
262.92169960487342
 30
0.0
 40
1.069091653027044
 50
15.97891437995507
 51
93.139325973021116
  0
LINE
  5
982B
  8
0
 10
298.44187410515639
 20
263.98899881760332
 30
0.0
 11
298.68934513968333
 21
263.98918694476328
 31
0.0
  0
LINE
  5
982C
  8
0
 10
298.44156863135203
 20
264.3944319396719
 30
0.0
 11
298.44187410515639
 21
263.98899881760332
 31
0.0
  0
LINE
  5
982D
  8
0
 10
298.6890322152982
 20
264.39462006683198
 30
0.0
 11
298.44156863135203
 21
264.3944319396719
 31
0.0
  0
ARC
  5
982E
  8
0
 10
298.77246858951048
 20
262.89759256376408
 30
0.0
 40
1.499350736661758
 50
12.274735762277359
 51
93.190015474880965
  0
LINE
  5
982F
  8
0
 10
302.35807808083388
 20
280.79333585346791
 30
0.0
 11
302.35807808083388
 21
261.79333646441552
 31
0.0
  0
ARC
  5
9830
  8
0
 10
298.85808112067082
 20
261.7933361589416
 30
0.0
 40
3.5
 50
180.0
 51
0.0
  0
LINE
  5
9831
  8
0
 10
295.35807879608973
 20
261.79333646441552
 30
0.0
 11
295.35807879608973
 21
280.79333585346791
 31
0.0
  0
ARC
  5
9832
  8
0
 10
298.85808112067082
 20
280.7933361589416
 30
0.0
 40
3.5
 50
0.0
 51
180.0
  0
ARC
  5
9844
  8
0
 10
298.85808112067082
 20
261.7933361589416
 30
0.0
 40
3.750000000000056
 50
180.0
 51
0.0
  0
LINE
  5
9845
  8
0
 10
302.60808231276371
 20
261.79333646441552
 30
0.0
 11
302.60808231276371
 21
280.79333585346791
 31
0.0
  0
ARC
  5
9846
  8
0
 10
298.85808112067082
 20
280.7933361589416
 30
0.0
 40
3.750000000000056
 50
0.0
 51
180.0
  0
LINE
  5
9847
  8
0
 10
295.10808201474049
 20
280.79333585346791
 30
0.0
 11
295.10808201474049
 21
261.79333646441552
 31
0.0
  0
LINE
  5
9849
  8
0
 10
313.85808648508879
 20
289.29333571190682
 30
0.0
 11
313.85808648508879
 21
253.29333660597669
 31
0.0
  0
LINE
  5
984D
  8
0
 10
251.3580811206707
 20
291.29333571190688
 30
0.0
 11
253.8580811206707
 21
291.29333571190688
 31
0.0
  0
LINE
  5
9854
  8
0
 10
233.85808082264751
 20
303.79333496684887
 30
0.0
 11
203.85808149319971
 21
303.79333496684887
 31
0.0
  0
ARC
  5
9857
  8
0
 10
212.8580811206707
 20
297.79333615894183
 30
0.0
 40
3.25
 50
270.0
 51
90.0
  0
LINE
  5
9858
  8
0
 10
212.85808296841469
 20
301.04333684439518
 30
0.0
 11
204.85808165711251
 21
301.04333684439518
 31
0.0
  0
ARC
  5
9859
  8
0
 10
204.8580811206707
 20
297.79333615894183
 30
0.0
 40
3.25
 50
90.0
 51
270.0
  0
LINE
  5
985A
  8
0
 10
204.85808165711251
 20
294.54333671028468
 30
0.0
 11
212.85808296841469
 21
294.54333671028468
 31
0.0
  0
ARC
  5
985B
  8
0
 10
232.8580811206707
 20
297.79333615894183
 30
0.0
 40
3.25
 50
270.0
 51
90.0
  0
LINE
  5
985C
  8
0
 10
232.85808252137991
 20
301.04333684439518
 30
0.0
 11
224.8580812100777
 21
301.04333684439518
 31
0.0
  0
ARC
  5
985D
  8
0
 10
224.8580811206707
 20
297.79333615894183
 30
0.0
 40
3.25
 50
90.0
 51
270.0
  0
LINE
  5
985E
  8
0
 10
224.8580812100777
 20
294.54333671028468
 30
0.0
 11
232.85808252137991
 21
294.54333671028468
 31
0.0
  0
ARC
  5
9867
  8
0
 10
212.8580811206707
 20
244.7933361589418
 30
0.0
 40
3.250000000000056
 50
270.0
 51
90.0
  0
LINE
  5
9868
  8
0
 10
212.85808296841469
 20
248.04333560759881
 30
0.0
 11
204.85808165711251
 21
248.04333560759881
 31
0.0
  0
ARC
  5
9869
  8
0
 10
204.8580811206707
 20
244.7933361589418
 30
0.0
 40
3.250000000000056
 50
90.0
 51
270.0
  0
LINE
  5
986A
  8
0
 10
204.85808165711251
 20
241.5433354734883
 30
0.0
 11
212.85808296841469
 21
241.5433354734883
 31
0.0
  0
ARC
  5
986B
  8
0
 10
232.8580811206707
 20
244.7933361589418
 30
0.0
 40
3.250000000000056
 50
270.0
 51
90.0
  0
LINE
  5
986C
  8
0
 10
232.85808252137991
 20
248.04333560759881
 30
0.0
 11
224.8580812100777
 21
248.04333560759881
 31
0.0
  0
ARC
  5
986D
  8
0
 10
224.8580811206707
 20
244.7933361589418
 30
0.0
 40
3.250000000000056
 50
90.0
 51
270.0
  0
LINE
  5
986E
  8
0
 10
224.8580812100777
 20
241.5433354734883
 30
0.0
 11
232.85808252137991
 21
241.5433354734883
 31
0.0
  0
LINE
  5
9876
  8
0
 10
164.60808111322009
 20
280.29333577151152
 30
0.0
 11
164.60808111322009
 21
262.2933365463719
 31
0.0
  0
LINE
  5
989F
  8
0
 10
89.458079600752257
 20
139.29333575661039
 30
0.0
 11
90.058080444157994
 21
139.29333575661039
 31
0.0
  0
LINE
  5
98A0
  8
0
 10
90.058080444157994
 20
150.2933356970058
 30
0.0
 11
89.458079600752257
 21
150.2933356970058
 31
0.0
  0
LINE
  5
98A9
  8
0
 10
90.058080444157994
 20
141.79333616639229
 30
0.0
 11
91.358080092490596
 21
141.79333616639229
 31
0.0
  0
LINE
  5
98AA
  8
0
 10
91.358080092490596
 20
147.79333621854639
 30
0.0
 11
90.058080444157994
 21
147.79333621854639
 31
0.0
  0
LINE
  5
98CB
  8
0
 10
44.3580812398801
 20
185.7933349966512
 30
0.0
 11
44.3580812398801
 21
188.79333735103469
 31
0.0
  0
LINE
  5
98CF
  8
0
 10
44.3580812398801
 20
188.79333735103461
 30
0.0
 11
84.358080345810436
 21
188.79333735103461
 31
0.0
  0
LINE
  5
98D5
  8
0
 10
84.358080345810407
 20
188.79333735103461
 30
0.0
 11
84.358080345810436
 21
185.7933349966512
 31
0.0
  0
LINE
  5
98D6
  8
0
 10
84.358080345810436
 20
185.7933349966512
 30
0.0
 11
44.3580812398801
 21
185.79333499665131
 31
0.0
  0
LINE
  5
98E7
  8
0
 10
90.058080444157994
 20
139.29333575661039
 30
0.0
 11
90.058080444157994
 21
150.2933356970058
 31
0.0
  0
POLYLINE
  5
98EF
  8
0
 10
55.358080792845378
 20
173.08349914061711
 30
0.0
 66
     1
 70
     8
  0
VERTEX
  8
0
  5
AEC3
 10
55.3581
 20
173.083
 30
0.000000
  70
    32
  0
VERTEX
  8
0
  5
AEC4
 10
55.3585
 20
173.041
 30
0.000000
  70
    32
  0
VERTEX
  8
0
  5
AEC5
 10
55.3599
 20
172.998
 30
0.000000
  70
    32
  0
VERTEX
  8
0
  5
AEC6
 10
55.3621
 20
172.956
 30
0.000000
  70
    32
  0
VERTEX
  8
0
  5
AEC7
 10
55.3653
 20
172.914
 30
0.000000
  70
    32
  0
VERTEX
  8
0
  5
AEC8
 10
55.3694
 20
172.871
 30
0.000000
  70
    32
  0
VERTEX
  8
0
  5
AEC9
 10
55.3743
 20
172.829
 30
0.000000
  70
    32
  0
VERTEX
  8
0
  5
AECA
 10
55.3802
 20
172.786
 30
0.000000
  70
    32
  0
VERTEX
  8
0
  5
AECB
 10
55.3870
 20
172.744
 30
0.000000
  70
    32
  0
VERTEX
  8
0
  5
AECC
 10
55.3946
 20
172.702
 30
0.000000
  70
    32
  0
VERTEX
  8
0
  5
AECD
 10
55.4032
 20
172.659
 30
0.000000
  70
    32
  0
VERTEX
  8
0
  5
AECE
 10
55.4127
 20
172.617
 30
0.000000
  70
    32
  0
VERTEX
  8
0
  5
AECF
 10
55.4230
 20
172.575
 30
0.000000
  70
    32
  0
VERTEX
  8
0
  5
AED0
 10
55.4343
 20
172.533
 30
0.000000
  70
    32
  0
VERTEX
  8
0
  5
AED1
 10
55.4464
 20
172.491
 30
0.000000
  70
    32
  0
VERTEX
  8
0
  5
AED2
 10
55.4594
 20
172.449
 30
0.000000
  70
    32
  0
VERTEX
  8
0
  5
AED3
 10
55.4734
 20
172.408
 30
0.000000
  70
    32
  0
VERTEX
  8
0
  5
AED4
 10
55.4882
 20
172.366
 30
0.000000
  70
    32
  0
VERTEX
  8
0
  5
AED5
 10
55.5039
 20
172.325
 30
0.000000
  70
    32
  0
VERTEX
  8
0
  5
AED6
 10
55.5204
 20
172.283
 30
0.000000
  70
    32
  0
VERTEX
  8
0
  5
AED7
 10
55.5379
 20
172.242
 30
0.000000
  70
    32
  0
VERTEX
  8
0
  5
AED8
 10
55.5562
 20
172.201
 30
0.000000
  70
    32
  0
VERTEX
  8
0
  5
AED9
 10
55.5754
 20
172.160
 30
0.000000
  70
    32
  0
VERTEX
  8
0
  5
AEDA
 10
55.5955
 20
172.119
 30
0.000000
  70
    32
  0
VERTEX
  8
0
  5
AEDB
 10
55.6164
 20
172.078
 30
0.000000
  70
    32
  0
VERTEX
  8
0
  5
AEDC
 10
55.6382
 20
172.037
 30
0.000000
  70
    32
  0
VERTEX
  8
0
  5
AEDD
 10
55.6609
 20
171.997
 30
0.000000
  70
    32
  0
VERTEX
  8
0
  5
AEDE
 10
55.6844
 20
171.957
 30
0.000000
  70
    32
  0
VERTEX
  8
0
  5
AEDF
 10
55.7088
 20
171.916
 30
0.000000
  70
    32
  0
VERTEX
  8
0
  5
AEE0
 10
55.7340
 20
171.877
 30
0.000000
  70
    32
  0
VERTEX
  8
0
  5
AEE1
 10
55.7601
 20
171.837
 30
0.000000
  70
    32
  0
VERTEX
  8
0
  5
AEE2
 10
55.7870
 20
171.797
 30
0.000000
  70
    32
  0
VERTEX
  8
0
  5
AEE3
 10
55.8148
 20
171.758
 30
0.000000
  70
    32
  0
VERTEX
  8
0
  5
AEE4
 10
55.8434
 20
171.719
 30
0.000000
  70
    32
  0
VERTEX
  8
0
  5
AEE5
 10
55.8728
 20
171.680
 30
0.000000
  70
    32
  0
VERTEX
  8
0
  5
AEE6
 10
55.9031
 20
171.641
 30
0.000000
  70
    32
  0
VERTEX
  8
0
  5
AEE7
 10
55.9341
 20
171.602
 30
0.000000
  70
    32
  0
VERTEX
  8
0
  5
AEE8
 10
55.9660
 20
171.564
 30
0.000000
  70
    32
  0
VERTEX
  8
0
  5
AEE9
 10
55.9987
 20
171.526
 30
0.000000
  70
    32
  0
VERTEX
  8
0
  5
AEEA
 10
56.0322
 20
171.488
 30
0.000000
  70
    32
  0
VERTEX
  8
0
  5
AEEB
 10
56.0666
 20
171.451
 30
0.000000
  70
    32
  0
VERTEX
  8
0
  5
AEEC
 10
56.1017
 20
171.413
 30
0.000000
  70
    32
  0
VERTEX
  8
0
  5
AEED
 10
56.1376
 20
171.376
 30
0.000000
  70
    32
  0
VERTEX
  8
0
  5
AEEE
 10
56.1742
 20
171.339
 30
0.000000
  70
    32
  0
VERTEX
  8
0
  5
AEEF
 10
56.2117
 20
171.303
 30
0.000000
  70
    32
  0
VERTEX
  8
0
  5
AEF0
 10
56.2499
 20
171.266
 30
0.000000
  70
    32
  0
VERTEX
  8
0
  5
AEF1
 10
56.2890
 20
171.230
 30
0.000000
  70
    32
  0
VERTEX
  8
0
  5
AEF2
 10
56.3287
 20
171.194
 30
0.000000
  70
    32
  0
VERTEX
  8
0
  5
AEF3
 10
56.3693
 20
171.159
 30
0.000000
  70
    32
  0
VERTEX
  8
0
  5
AEF4
 10
56.4105
 20
171.124
 30
0.000000
  70
    32
  0
VERTEX
  8
0
  5
AEF5
 10
56.4526
 20
171.089
 30
0.000000
  70
    32
  0
VERTEX
  8
0
  5
AEF6
 10
56.4953
 20
171.054
 30
0.000000
  70
    32
  0
VERTEX
  8
0
  5
AEF7
 10
56.5388
 20
171.020
 30
0.000000
  70
    32
  0
VERTEX
  8
0
  5
AEF8
 10
56.5831
 20
170.986
 30
0.000000
  70
    32
  0
VERTEX
  8
0
  5
AEF9
 10
56.6280
 20
170.952
 30
0.000000
  70
    32
  0
VERTEX
  8
0
  5
AEFA
 10
56.6737
 20
170.919
 30
0.000000
  70
    32
  0
VERTEX
  8
0
  5
AEFB
 10
56.7200
 20
170.886
 30
0.000000
  70
    32
  0
VERTEX
  8
0
  5
AEFC
 10
56.7671
 20
170.853
 30
0.000000
  70
    32
  0
VERTEX
  8
0
  5
AEFD
 10
56.8148
 20
170.821
 30
0.000000
  70
    32
  0
VERTEX
  8
0
  5
AEFE
 10
56.8633
 20
170.789
 30
0.000000
  70
    32
  0
VERTEX
  8
0
  5
AEFF
 10
56.9124
 20
170.757
 30
0.000000
  70
    32
  0
VERTEX
  8
0
  5
AF00
 10
56.9622
 20
170.726
 30
0.000000
  70
    32
  0
VERTEX
  8
0
  5
AF01
 10
57.0126
 20
170.695
 30
0.000000
  70
    32
  0
VERTEX
  8
0
  5
AF02
 10
57.0637
 20
170.664
 30
0.000000
  70
    32
  0
VERTEX
  8
0
  5
AF03
 10
57.1154
 20
170.634
 30
0.000000
  70
    32
  0
VERTEX
  8
0
  5
AF04
 10
57.1678
 20
170.604
 30
0.000000
  70
    32
  0
VERTEX
  8
0
  5
AF05
 10
57.2208
 20
170.575
 30
0.000000
  70
    32
  0
VERTEX
  8
0
  5
AF06
 10
57.2745
 20
170.546
 30
0.000000
  70
    32
  0
VERTEX
  8
0
  5
AF07
 10
57.3287
 20
170.517
 30
0.000000
  70
    32
  0
VERTEX
  8
0
  5
AF08
 10
57.3836
 20
170.488
 30
0.000000
  70
    32
  0
VERTEX
  8
0
  5
AF09
 10
57.4390
 20
170.460
 30
0.000000
  70
    32
  0
VERTEX
  8
0
  5
AF0A
 10
57.4951
 20
170.433
 30
0.000000
  70
    32
  0
VERTEX
  8
0
  5
AF0B
 10
57.5517
 20
170.406
 30
0.000000
  70
    32
  0
VERTEX
  8
0
  5
AF0C
 10
57.6089
 20
170.379
 30
0.000000
  70
    32
  0
VERTEX
  8
0
  5
AF0D
 10
57.6667
 20
170.353
 30
0.000000
  70
    32
  0
VERTEX
  8
0
  5
AF0E
 10
57.7250
 20
170.327
 30
0.000000
  70
    32
  0
VERTEX
  8
0
  5
AF0F
 10
57.7839
 20
170.301
 30
0.000000
  70
    32
  0
VERTEX
  8
0
  5
AF10
 10
57.8433
 20
170.276
 30
0.000000
  70
    32
  0
VERTEX
  8
0
  5
AF11
 10
57.9032
 20
170.251
 30
0.000000
  70
    32
  0
VERTEX
  8
0
  5
AF12
 10
57.9637
 20
170.227
 30
0.000000
  70
    32
  0
VERTEX
  8
0
  5
AF13
 10
58.0247
 20
170.203
 30
0.000000
  70
    32
  0
VERTEX
  8
0
  5
AF14
 10
58.0861
 20
170.180
 30
0.000000
  70
    32
  0
VERTEX
  8
0
  5
AF15
 10
58.1481
 20
170.157
 30
0.000000
  70
    32
  0
VERTEX
  8
0
  5
AF16
 10
58.2105
 20
170.134
 30
0.000000
  70
    32
  0
VERTEX
  8
0
  5
AF17
 10
58.2735
 20
170.112
 30
0.000000
  70
    32
  0
VERTEX
  8
0
  5
AF18
 10
58.3369
 20
170.091
 30
0.000000
  70
    32
  0
VERTEX
  8
0
  5
AF19
 10
58.4007
 20
170.069
 30
0.000000
  70
    32
  0
VERTEX
  8
0
  5
AF1A
 10
58.4650
 20
170.049
 30
0.000000
  70
    32
  0
VERTEX
  8
0
  5
AF1B
 10
58.5297
 20
170.028
 30
0.000000
  70
    32
  0
VERTEX
  8
0
  5
AF1C
 10
58.5948
 20
170.009
 30
0.000000
  70
    32
  0
VERTEX
  8
0
  5
AF1D
 10
58.6604
 20
169.989
 30
0.000000
  70
    32
  0
VERTEX
  8
0
  5
AF1E
 10
58.7264
 20
169.970
 30
0.000000
  70
    32
  0
VERTEX
  8
0
  5
AF1F
 10
58.7928
 20
169.952
 30
0.000000
  70
    32
  0
VERTEX
  8
0
  5
AF20
 10
58.8595
 20
169.934
 30
0.000000
  70
    32
  0
VERTEX
  8
0
  5
AF21
 10
58.9266
 20
169.917
 30
0.000000
  70
    32
  0
VERTEX
  8
0
  5
AF22
 10
58.9941
 20
169.900
 30
0.000000
  70
    32
  0
VERTEX
  8
0
  5
AF23
 10
59.0620
 20
169.883
 30
0.000000
  70
    32
  0
VERTEX
  8
0
  5
AF24
 10
59.1302
 20
169.867
 30
0.000000
  70
    32
  0
VERTEX
  8
0
  5
AF25
 10
59.1987
 20
169.852
 30
0.000000
  70
    32
  0
VERTEX
  8
0
  5
AF26
 10
59.2676
 20
169.836
 30
0.000000
  70
    32
  0
VERTEX
  8
0
  5
AF27
 10
59.3367
 20
169.822
 30
0.000000
  70
    32
  0
VERTEX
  8
0
  5
AF28
 10
59.4062
 20
169.808
 30
0.000000
  70
    32
  0
VERTEX
  8
0
  5
AF29
 10
59.4760
 20
169.794
 30
0.000000
  70
    32
  0
VERTEX
  8
0
  5
AF2A
 10
59.5460
 20
169.781
 30
0.000000
  70
    32
  0
VERTEX
  8
0
  5
AF2B
 10
59.6164
 20
169.769
 30
0.000000
  70
    32
  0
VERTEX
  8
0
  5
AF2C
 10
59.6870
 20
169.756
 30
0.000000
  70
    32
  0
VERTEX
  8
0
  5
AF2D
 10
59.7578
 20
169.745
 30
0.000000
  70
    32
  0
VERTEX
  8
0
  5
AF2E
 10
59.8289
 20
169.734
 30
0.000000
  70
    32
  0
VERTEX
  8
0
  5
AF2F
 10
59.9002
 20
169.723
 30
0.000000
  70
    32
  0
VERTEX
  8
0
  5
AF30
 10
59.9717
 20
169.713
 30
0.000000
  70
    32
  0
VERTEX
  8
0
  5
AF31
 10
60.0435
 20
169.704
 30
0.000000
  70
    32
  0
VERTEX
  8
0
  5
AF32
 10
60.1154
 20
169.695
 30
0.000000
  70
    32
  0
VERTEX
  8
0
  5
AF33
 10
60.1875
 20
169.686
 30
0.000000
  70
    32
  0
VERTEX
  8
0
  5
AF34
 10
60.2598
 20
169.678
 30
0.000000
  70
    32
  0
VERTEX
  8
0
  5
AF35
 10
60.3323
 20
169.670
 30
0.000000
  70
    32
  0
VERTEX
  8
0
  5
AF36
 10
60.4049
 20
169.663
 30
0.000000
  70
    32
  0
VERTEX
  8
0
  5
AF37
 10
60.4777
 20
169.657
 30
0.000000
  70
    32
  0
VERTEX
  8
0
  5
AF38
 10
60.5506
 20
169.651
 30
0.000000
  70
    32
  0
VERTEX
  8
0
  5
AF39
 10
60.6236
 20
169.645
 30
0.000000
  70
    32
  0
VERTEX
  8
0
  5
AF3A
 10
60.6967
 20
169.641
 30
0.000000
  70
    32
  0
VERTEX
  8
0
  5
AF3B
 10
60.7700
 20
169.636
 30
0.000000
  70
    32
  0
VERTEX
  8
0
  5
AF3C
 10
60.8433
 20
169.632
 30
0.000000
  70
    32
  0
VERTEX
  8
0
  5
AF3D
 10
60.9167
 20
169.629
 30
0.000000
  70
    32
  0
VERTEX
  8
0
  5
AF3E
 10
60.9902
 20
169.626
 30
0.000000
  70
    32
  0
VERTEX
  8
0
  5
AF3F
 10
61.0637
 20
169.624
 30
0.000000
  70
    32
  0
VERTEX
  8
0
  5
AF40
 10
61.1372
 20
169.622
 30
0.000000
  70
    32
  0
VERTEX
  8
0
  5
AF41
 10
61.2108
 20
169.620
 30
0.000000
  70
    32
  0
VERTEX
  8
0
  5
AF42
 10
61.2845
 20
169.620
 30
0.000000
  70
    32
  0
VERTEX
  8
0
  5
AF43
 10
61.3581
 20
169.619
 30
0.000000
  70
    32
  0
SEQEND
  8
0
  5
AF44
  0
POLYLINE
  5
98F2
  8
0
 10
67.358080792845442
 20
169.61939752547931
 30
0.0
 66
     1
 70
     8
  0
VERTEX
  8
0
  5
AF45
 10
67.3581
 20
169.619
 30
0.000000
  70
    32
  0
VERTEX
  8
0
  5
AF46
 10
67.4317
 20
169.620
 30
0.000000
  70
    32
  0
VERTEX
  8
0
  5
AF47
 10
67.5053
 20
169.620
 30
0.000000
  70
    32
  0
VERTEX
  8
0
  5
AF48
 10
67.5789
 20
169.622
 30
0.000000
  70
    32
  0
VERTEX
  8
0
  5
AF49
 10
67.6525
 20
169.624
 30
0.000000
  70
    32
  0
VERTEX
  8
0
  5
AF4A
 10
67.7260
 20
169.626
 30
0.000000
  70
    32
  0
VERTEX
  8
0
  5
AF4B
 10
67.7995
 20
169.629
 30
0.000000
  70
    32
  0
VERTEX
  8
0
  5
AF4C
 10
67.8729
 20
169.632
 30
0.000000
  70
    32
  0
VERTEX
  8
0
  5
AF4D
 10
67.9462
 20
169.636
 30
0.000000
  70
    32
  0
VERTEX
  8
0
  5
AF4E
 10
68.0194
 20
169.641
 30
0.000000
  70
    32
  0
VERTEX
  8
0
  5
AF4F
 10
68.0925
 20
169.645
 30
0.000000
  70
    32
  0
VERTEX
  8
0
  5
AF50
 10
68.1656
 20
169.651
 30
0.000000
  70
    32
  0
VERTEX
  8
0
  5
AF51
 10
68.2385
 20
169.657
 30
0.000000
  70
    32
  0
VERTEX
  8
0
  5
AF52
 10
68.3112
 20
169.663
 30
0.000000
  70
    32
  0
VERTEX
  8
0
  5
AF53
 10
68.3839
 20
169.670
 30
0.000000
  70
    32
  0
VERTEX
  8
0
  5
AF54
 10
68.4563
 20
169.678
 30
0.000000
  70
    32
  0
VERTEX
  8
0
  5
AF55
 10
68.5286
 20
169.686
 30
0.000000
  70
    32
  0
VERTEX
  8
0
  5
AF56
 10
68.6007
 20
169.695
 30
0.000000
  70
    32
  0
VERTEX
  8
0
  5
AF57
 10
68.6727
 20
169.704
 30
0.000000
  70
    32
  0
VERTEX
  8
0
  5
AF58
 10
68.7444
 20
169.713
 30
0.000000
  70
    32
  0
VERTEX
  8
0
  5
AF59
 10
68.8160
 20
169.723
 30
0.000000
  70
    32
  0
VERTEX
  8
0
  5
AF5A
 10
68.8873
 20
169.734
 30
0.000000
  70
    32
  0
VERTEX
  8
0
  5
AF5B
 10
68.9584
 20
169.745
 30
0.000000
  70
    32
  0
VERTEX
  8
0
  5
AF5C
 10
69.0292
 20
169.756
 30
0.000000
  70
    32
  0
VERTEX
  8
0
  5
AF5D
 10
69.0998
 20
169.769
 30
0.000000
  70
    32
  0
VERTEX
  8
0
  5
AF5E
 10
69.1701
 20
169.781
 30
0.000000
  70
    32
  0
VERTEX
  8
0
  5
AF5F
 10
69.2402
 20
169.794
 30
0.000000
  70
    32
  0
VERTEX
  8
0
  5
AF60
 10
69.3099
 20
169.808
 30
0.000000
  70
    32
  0
VERTEX
  8
0
  5
AF61
 10
69.3794
 20
169.822
 30
0.000000
  70
    32
  0
VERTEX
  8
0
  5
AF62
 10
69.4486
 20
169.836
 30
0.000000
  70
    32
  0
VERTEX
  8
0
  5
AF63
 10
69.5175
 20
169.852
 30
0.000000
  70
    32
  0
VERTEX
  8
0
  5
AF64
 10
69.5860
 20
169.867
 30
0.000000
  70
    32
  0
VERTEX
  8
0
  5
AF65
 10
69.6542
 20
169.883
 30
0.000000
  70
    32
  0
VERTEX
  8
0
  5
AF66
 10
69.7220
 20
169.900
 30
0.000000
  70
    32
  0
VERTEX
  8
0
  5
AF67
 10
69.7895
 20
169.917
 30
0.000000
  70
    32
  0
VERTEX
  8
0
  5
AF68
 10
69.8567
 20
169.934
 30
0.000000
  70
    32
  0
VERTEX
  8
0
  5
AF69
 10
69.9234
 20
169.952
 30
0.000000
  70
    32
  0
VERTEX
  8
0
  5
AF6A
 10
69.9898
 20
169.970
 30
0.000000
  70
    32
  0
VERTEX
  8
0
  5
AF6B
 10
70.0557
 20
169.989
 30
0.000000
  70
    32
  0
VERTEX
  8
0
  5
AF6C
 10
70.1213
 20
170.009
 30
0.000000
  70
    32
  0
VERTEX
  8
0
  5
AF6D
 10
70.1865
 20
170.028
 30
0.000000
  70
    32
  0
VERTEX
  8
0
  5
AF6E
 10
70.2512
 20
170.049
 30
0.000000
  70
    32
  0
VERTEX
  8
0
  5
AF6F
 10
70.3155
 20
170.069
 30
0.000000
  70
    32
  0
VERTEX
  8
0
  5
AF70
 10
70.3793
 20
170.091
 30
0.000000
  70
    32
  0
VERTEX
  8
0
  5
AF71
 10
70.4427
 20
170.112
 30
0.000000
  70
    32
  0
VERTEX
  8
0
  5
AF72
 10
70.5056
 20
170.134
 30
0.000000
  70
    32
  0
VERTEX
  8
0
  5
AF73
 10
70.5681
 20
170.157
 30
0.000000
  70
    32
  0
VERTEX
  8
0
  5
AF74
 10
70.6300
 20
170.180
 30
0.000000
  70
    32
  0
VERTEX
  8
0
  5
AF75
 10
70.6915
 20
170.203
 30
0.000000
  70
    32
  0
VERTEX
  8
0
  5
AF76
 10
70.7525
 20
170.227
 30
0.000000
  70
    32
  0
VERTEX
  8
0
  5
AF77
 10
70.8129
 20
170.251
 30
0.000000
  70
    32
  0
VERTEX
  8
0
  5
AF78
 10
70.8729
 20
170.276
 30
0.000000
  70
    32
  0
VERTEX
  8
0
  5
AF79
 10
70.9323
 20
170.301
 30
0.000000
  70
    32
  0
VERTEX
  8
0
  5
AF7A
 10
70.9911
 20
170.327
 30
0.000000
  70
    32
  0
VERTEX
  8
0
  5
AF7B
 10
71.0495
 20
170.353
 30
0.000000
  70
    32
  0
VERTEX
  8
0
  5
AF7C
 10
71.1072
 20
170.379
 30
0.000000
  70
    32
  0
VERTEX
  8
0
  5
AF7D
 10
71.1644
 20
170.406
 30
0.000000
  70
    32
  0
VERTEX
  8
0
  5
AF7E
 10
71.2211
 20
170.433
 30
0.000000
  70
    32
  0
VERTEX
  8
0
  5
AF7F
 10
71.2771
 20
170.460
 30
0.000000
  70
    32
  0
VERTEX
  8
0
  5
AF80
 10
71.3326
 20
170.488
 30
0.000000
  70
    32
  0
VERTEX
  8
0
  5
AF81
 10
71.3874
 20
170.517
 30
0.000000
  70
    32
  0
VERTEX
  8
0
  5
AF82
 10
71.4417
 20
170.546
 30
0.000000
  70
    32
  0
VERTEX
  8
0
  5
AF83
 10
71.4953
 20
170.575
 30
0.000000
  70
    32
  0
VERTEX
  8
0
  5
AF84
 10
71.5483
 20
170.604
 30
0.000000
  70
    32
  0
VERTEX
  8
0
  5
AF85
 10
71.6007
 20
170.634
 30
0.000000
  70
    32
  0
VERTEX
  8
0
  5
AF86
 10
71.6525
 20
170.664
 30
0.000000
  70
    32
  0
VERTEX
  8
0
  5
AF87
 10
71.7036
 20
170.695
 30
0.000000
  70
    32
  0
VERTEX
  8
0
  5
AF88
 10
71.7540
 20
170.726
 30
0.000000
  70
    32
  0
VERTEX
  8
0
  5
AF89
 10
71.8038
 20
170.757
 30
0.000000
  70
    32
  0
VERTEX
  8
0
  5
AF8A
 10
71.8529
 20
170.789
 30
0.000000
  70
    32
  0
VERTEX
  8
0
  5
AF8B
 10
71.9013
 20
170.821
 30
0.000000
  70
    32
  0
VERTEX
  8
0
  5
AF8C
 10
71.9491
 20
170.853
 30
0.000000
  70
    32
  0
VERTEX
  8
0
  5
AF8D
 10
71.9961
 20
170.886
 30
0.000000
  70
    32
  0
VERTEX
  8
0
  5
AF8E
 10
72.0425
 20
170.919
 30
0.000000
  70
    32
  0
VERTEX
  8
0
  5
AF8F
 10
72.0882
 20
170.952
 30
0.000000
  70
    32
  0
VERTEX
  8
0
  5
AF90
 10
72.1331
 20
170.986
 30
0.000000
  70
    32
  0
VERTEX
  8
0
  5
AF91
 10
72.1773
 20
171.020
 30
0.000000
  70
    32
  0
VERTEX
  8
0
  5
AF92
 10
72.2208
 20
171.054
 30
0.000000
  70
    32
  0
VERTEX
  8
0
  5
AF93
 10
72.2636
 20
171.089
 30
0.000000
  70
    32
  0
VERTEX
  8
0
  5
AF94
 10
72.3056
 20
171.124
 30
0.000000
  70
    32
  0
VERTEX
  8
0
  5
AF95
 10
72.3469
 20
171.159
 30
0.000000
  70
    32
  0
VERTEX
  8
0
  5
AF96
 10
72.3874
 20
171.194
 30
0.000000
  70
    32
  0
VERTEX
  8
0
  5
AF97
 10
72.4272
 20
171.230
 30
0.000000
  70
    32
  0
VERTEX
  8
0
  5
AF98
 10
72.4662
 20
171.266
 30
0.000000
  70
    32
  0
VERTEX
  8
0
  5
AF99
 10
72.5045
 20
171.303
 30
0.000000
  70
    32
  0
VERTEX
  8
0
  5
AF9A
 10
72.5419
 20
171.339
 30
0.000000
  70
    32
  0
VERTEX
  8
0
  5
AF9B
 10
72.5786
 20
171.376
 30
0.000000
  70
    32
  0
VERTEX
  8
0
  5
AF9C
 10
72.6145
 20
171.413
 30
0.000000
  70
    32
  0
VERTEX
  8
0
  5
AF9D
 10
72.6496
 20
171.451
 30
0.000000
  70
    32
  0
VERTEX
  8
0
  5
AF9E
 10
72.6839
 20
171.488
 30
0.000000
  70
    32
  0
VERTEX
  8
0
  5
AF9F
 10
72.7174
 20
171.526
 30
0.000000
  70
    32
  0
VERTEX
  8
0
  5
AFA0
 10
72.7501
 20
171.564
 30
0.000000
  70
    32
  0
VERTEX
  8
0
  5
AFA1
 10
72.7820
 20
171.602
 30
0.000000
  70
    32
  0
VERTEX
  8
0
  5
AFA2
 10
72.8131
 20
171.641
 30
0.000000
  70
    32
  0
VERTEX
  8
0
  5
AFA3
 10
72.8433
 20
171.680
 30
0.000000
  70
    32
  0
VERTEX
  8
0
  5
AFA4
 10
72.8728
 20
171.719
 30
0.000000
  70
    32
  0
VERTEX
  8
0
  5
AFA5
 10
72.9014
 20
171.758
 30
0.000000
  70
    32
  0
VERTEX
  8
0
  5
AFA6
 10
72.9291
 20
171.797
 30
0.000000
  70
    32
  0
VERTEX
  8
0
  5
AFA7
 10
72.9560
 20
171.837
 30
0.000000
  70
    32
  0
VERTEX
  8
0
  5
AFA8
 10
72.9821
 20
171.877
 30
0.000000
  70
    32
  0
VERTEX
  8
0
  5
AFA9
 10
73.0073
 20
171.916
 30
0.000000
  70
    32
  0
VERTEX
  8
0
  5
AFAA
 10
73.0317
 20
171.957
 30
0.000000
  70
    32
  0
VERTEX
  8
0
  5
AFAB
 10
73.0552
 20
171.997
 30
0.000000
  70
    32
  0
VERTEX
  8
0
  5
AFAC
 10
73.0779
 20
172.037
 30
0.000000
  70
    32
  0
VERTEX
  8
0
  5
AFAD
 10
73.0997
 20
172.078
 30
0.000000
  70
    32
  0
VERTEX
  8
0
  5
AFAE
 10
73.1207
 20
172.119
 30
0.000000
  70
    32
  0
VERTEX
  8
0
  5
AFAF
 10
73.1407
 20
172.160
 30
0.000000
  70
    32
  0
VERTEX
  8
0
  5
AFB0
 10
73.1599
 20
172.201
 30
0.000000
  70
    32
  0
VERTEX
  8
0
  5
AFB1
 10
73.1783
 20
172.242
 30
0.000000
  70
    32
  0
VERTEX
  8
0
  5
AFB2
 10
73.1957
 20
172.283
 30
0.000000
  70
    32
  0
VERTEX
  8
0
  5
AFB3
 10
73.2123
 20
172.325
 30
0.000000
  70
    32
  0
VERTEX
  8
0
  5
AFB4
 10
73.2280
 20
172.366
 30
0.000000
  70
    32
  0
VERTEX
  8
0
  5
AFB5
 10
73.2428
 20
172.408
 30
0.000000
  70
    32
  0
VERTEX
  8
0
  5
AFB6
 10
73.2567
 20
172.449
 30
0.000000
  70
    32
  0
VERTEX
  8
0
  5
AFB7
 10
73.2697
 20
172.491
 30
0.000000
  70
    32
  0
VERTEX
  8
0
  5
AFB8
 10
73.2819
 20
172.533
 30
0.000000
  70
    32
  0
VERTEX
  8
0
  5
AFB9
 10
73.2931
 20
172.575
 30
0.000000
  70
    32
  0
VERTEX
  8
0
  5
AFBA
 10
73.3035
 20
172.617
 30
0.000000
  70
    32
  0
VERTEX
  8
0
  5
AFBB
 10
73.3130
 20
172.659
 30
0.000000
  70
    32
  0
VERTEX
  8
0
  5
AFBC
 10
73.3215
 20
172.702
 30
0.000000
  70
    32
  0
VERTEX
  8
0
  5
AFBD
 10
73.3292
 20
172.744
 30
0.000000
  70
    32
  0
VERTEX
  8
0
  5
AFBE
 10
73.3360
 20
172.786
 30
0.000000
  70
    32
  0
VERTEX
  8
0
  5
AFBF
 10
73.3418
 20
172.829
 30
0.000000
  70
    32
  0
VERTEX
  8
0
  5
AFC0
 10
73.3468
 20
172.871
 30
0.000000
  70
    32
  0
VERTEX
  8
0
  5
AFC1
 10
73.3509
 20
172.914
 30
0.000000
  70
    32
  0
VERTEX
  8
0
  5
AFC2
 10
73.3540
 20
172.956
 30
0.000000
  70
    32
  0
VERTEX
  8
0
  5
AFC3
 10
73.3563
 20
172.998
 30
0.000000
  70
    32
  0
VERTEX
  8
0
  5
AFC4
 10
73.3576
 20
173.041
 30
0.000000
  70
    32
  0
VERTEX
  8
0
  5
AFC5
 10
73.3581
 20
173.083
 30
0.000000
  70
    32
  0
SEQEND
  8
0
  5
AFC6
  0
LINE
  5
98F3
  8
0
 10
67.358080818922403
 20
169.61939857001161
 30
0.0
 11
61.358080766768353
 21
169.61939857001161
 31
0.0
  0
POLYLINE
  5
98F4
  8
0
 10
66.908080792845368
 20
173.08349914061711
 30
0.0
 66
     1
 70
     8
  0
VERTEX
  8
0
  5
AFC7
 10
66.9081
 20
173.083
 30
0.000000
  70
    32
  0
VERTEX
  8
0
  5
AFC8
 10
66.9050
 20
173.156
 30
0.000000
  70
    32
  0
VERTEX
  8
0
  5
AFC9
 10
66.8958
 20
173.228
 30
0.000000
  70
    32
  0
VERTEX
  8
0
  5
AFCA
 10
66.8805
 20
173.300
 30
0.000000
  70
    32
  0
VERTEX
  8
0
  5
AFCB
 10
66.8591
 20
173.371
 30
0.000000
  70
    32
  0
VERTEX
  8
0
  5
AFCC
 10
66.8317
 20
173.441
 30
0.000000
  70
    32
  0
VERTEX
  8
0
  5
AFCD
 10
66.7983
 20
173.511
 30
0.000000
  70
    32
  0
VERTEX
  8
0
  5
AFCE
 10
66.7590
 20
173.579
 30
0.000000
  70
    32
  0
VERTEX
  8
0
  5
AFCF
 10
66.7140
 20
173.647
 30
0.000000
  70
    32
  0
VERTEX
  8
0
  5
AFD0
 10
66.6633
 20
173.713
 30
0.000000
  70
    32
  0
VERTEX
  8
0
  5
AFD1
 10
66.6070
 20
173.778
 30
0.000000
  70
    32
  0
VERTEX
  8
0
  5
AFD2
 10
66.5453
 20
173.840
 30
0.000000
  70
    32
  0
VERTEX
  8
0
  5
AFD3
 10
66.4783
 20
173.901
 30
0.000000
  70
    32
  0
VERTEX
  8
0
  5
AFD4
 10
66.4063
 20
173.961
 30
0.000000
  70
    32
  0
VERTEX
  8
0
  5
AFD5
 10
66.3293
 20
174.017
 30
0.000000
  70
    32
  0
VERTEX
  8
0
  5
AFD6
 10
66.2475
 20
174.072
 30
0.000000
  70
    32
  0
VERTEX
  8
0
  5
AFD7
 10
66.1612
 20
174.125
 30
0.000000
  70
    32
  0
VERTEX
  8
0
  5
AFD8
 10
66.0706
 20
174.174
 30
0.000000
  70
    32
  0
VERTEX
  8
0
  5
AFD9
 10
65.9758
 20
174.222
 30
0.000000
  70
    32
  0
VERTEX
  8
0
  5
AFDA
 10
65.8771
 20
174.266
 30
0.000000
  70
    32
  0
VERTEX
  8
0
  5
AFDB
 10
65.7748
 20
174.308
 30
0.000000
  70
    32
  0
VERTEX
  8
0
  5
AFDC
 10
65.6690
 20
174.346
 30
0.000000
  70
    32
  0
VERTEX
  8
0
  5
AFDD
 10
65.5601
 20
174.382
 30
0.000000
  70
    32
  0
VERTEX
  8
0
  5
AFDE
 10
65.4483
 20
174.414
 30
0.000000
  70
    32
  0
VERTEX
  8
0
  5
AFDF
 10
65.3339
 20
174.444
 30
0.000000
  70
    32
  0
VERTEX
  8
0
  5
AFE0
 10
65.2171
 20
174.470
 30
0.000000
  70
    32
  0
VERTEX
  8
0
  5
AFE1
 10
65.0983
 20
174.492
 30
0.000000
  70
    32
  0
VERTEX
  8
0
  5
AFE2
 10
64.9777
 20
174.512
 30
0.000000
  70
    32
  0
VERTEX
  8
0
  5
AFE3
 10
64.8556
 20
174.527
 30
0.000000
  70
    32
  0
VERTEX
  8
0
  5
AFE4
 10
64.7322
 20
174.540
 30
0.000000
  70
    32
  0
VERTEX
  8
0
  5
AFE5
 10
64.6080
 20
174.549
 30
0.000000
  70
    32
  0
VERTEX
  8
0
  5
AFE6
 10
64.4832
 20
174.554
 30
0.000000
  70
    32
  0
VERTEX
  8
0
  5
AFE7
 10
64.3581
 20
174.556
 30
0.000000
  70
    32
  0
VERTEX
  8
0
  5
AFE8
 10
64.2330
 20
174.554
 30
0.000000
  70
    32
  0
VERTEX
  8
0
  5
AFE9
 10
64.1081
 20
174.549
 30
0.000000
  70
    32
  0
VERTEX
  8
0
  5
AFEA
 10
63.9839
 20
174.540
 30
0.000000
  70
    32
  0
VERTEX
  8
0
  5
AFEB
 10
63.8606
 20
174.527
 30
0.000000
  70
    32
  0
VERTEX
  8
0
  5
AFEC
 10
63.7385
 20
174.512
 30
0.000000
  70
    32
  0
VERTEX
  8
0
  5
AFED
 10
63.6179
 20
174.492
 30
0.000000
  70
    32
  0
VERTEX
  8
0
  5
AFEE
 10
63.4990
 20
174.470
 30
0.000000
  70
    32
  0
VERTEX
  8
0
  5
AFEF
 10
63.3822
 20
174.444
 30
0.000000
  70
    32
  0
VERTEX
  8
0
  5
AFF0
 10
63.2678
 20
174.414
 30
0.000000
  70
    32
  0
VERTEX
  8
0
  5
AFF1
 10
63.1560
 20
174.382
 30
0.000000
  70
    32
  0
VERTEX
  8
0
  5
AFF2
 10
63.0471
 20
174.346
 30
0.000000
  70
    32
  0
VERTEX
  8
0
  5
AFF3
 10
62.9414
 20
174.308
 30
0.000000
  70
    32
  0
VERTEX
  8
0
  5
AFF4
 10
62.8390
 20
174.266
 30
0.000000
  70
    32
  0
VERTEX
  8
0
  5
AFF5
 10
62.7404
 20
174.222
 30
0.000000
  70
    32
  0
VERTEX
  8
0
  5
AFF6
 10
62.6456
 20
174.174
 30
0.000000
  70
    32
  0
VERTEX
  8
0
  5
AFF7
 10
62.5550
 20
174.125
 30
0.000000
  70
    32
  0
VERTEX
  8
0
  5
AFF8
 10
62.4687
 20
174.072
 30
0.000000
  70
    32
  0
VERTEX
  8
0
  5
AFF9
 10
62.3869
 20
174.017
 30
0.000000
  70
    32
  0
VERTEX
  8
0
  5
AFFA
 10
62.3099
 20
173.961
 30
0.000000
  70
    32
  0
VERTEX
  8
0
  5
AFFB
 10
62.2378
 20
173.901
 30
0.000000
  70
    32
  0
VERTEX
  8
0
  5
AFFC
 10
62.1709
 20
173.840
 30
0.000000
  70
    32
  0
VERTEX
  8
0
  5
AFFD
 10
62.1092
 20
173.778
 30
0.000000
  70
    32
  0
VERTEX
  8
0
  5
AFFE
 10
62.0529
 20
173.713
 30
0.000000
  70
    32
  0
VERTEX
  8
0
  5
AFFF
 10
62.0022
 20
173.647
 30
0.000000
  70
    32
  0
VERTEX
  8
0
  5
B000
 10
61.9571
 20
173.579
 30
0.000000
  70
    32
  0
VERTEX
  8
0
  5
B001
 10
61.9179
 20
173.511
 30
0.000000
  70
    32
  0
VERTEX
  8
0
  5
B002
 10
61.8845
 20
173.441
 30
0.000000
  70
    32
  0
VERTEX
  8
0
  5
B003
 10
61.8571
 20
173.371
 30
0.000000
  70
    32
  0
VERTEX
  8
0
  5
B004
 10
61.8357
 20
173.300
 30
0.000000
  70
    32
  0
VERTEX
  8
0
  5
B005
 10
61.8204
 20
173.228
 30
0.000000
  70
    32
  0
VERTEX
  8
0
  5
B006
 10
61.8112
 20
173.156
 30
0.000000
  70
    32
  0
VERTEX
  8
0
  5
B007
 10
61.8081
 20
173.083
 30
0.000000
  70
    32
  0
VERTEX
  8
0
  5
B008
 10
61.8112
 20
173.011
 30
0.000000
  70
    32
  0
VERTEX
  8
0
  5
B009
 10
61.8204
 20
172.939
 30
0.000000
  70
    32
  0
VERTEX
  8
0
  5
B00A
 10
61.8357
 20
172.867
 30
0.000000
  70
    32
  0
VERTEX
  8
0
  5
B00B
 10
61.8571
 20
172.796
 30
0.000000
  70
    32
  0
VERTEX
  8
0
  5
B00C
 10
61.8845
 20
172.726
 30
0.000000
  70
    32
  0
VERTEX
  8
0
  5
B00D
 10
61.9179
 20
172.656
 30
0.000000
  70
    32
  0
VERTEX
  8
0
  5
B00E
 10
61.9571
 20
172.588
 30
0.000000
  70
    32
  0
VERTEX
  8
0
  5
B00F
 10
62.0022
 20
172.520
 30
0.000000
  70
    32
  0
VERTEX
  8
0
  5
B010
 10
62.0529
 20
172.454
 30
0.000000
  70
    32
  0
VERTEX
  8
0
  5
B011
 10
62.1092
 20
172.389
 30
0.000000
  70
    32
  0
VERTEX
  8
0
  5
B012
 10
62.1709
 20
172.327
 30
0.000000
  70
    32
  0
VERTEX
  8
0
  5
B013
 10
62.2378
 20
172.266
 30
0.000000
  70
    32
  0
VERTEX
  8
0
  5
B014
 10
62.3099
 20
172.206
 30
0.000000
  70
    32
  0
VERTEX
  8
0
  5
B015
 10
62.3869
 20
172.150
 30
0.000000
  70
    32
  0
VERTEX
  8
0
  5
B016
 10
62.4687
 20
172.095
 30
0.000000
  70
    32
  0
VERTEX
  8
0
  5
B017
 10
62.5550
 20
172.042
 30
0.000000
  70
    32
  0
VERTEX
  8
0
  5
B018
 10
62.6456
 20
171.993
 30
0.000000
  70
    32
  0
VERTEX
  8
0
  5
B019
 10
62.7404
 20
171.945
 30
0.000000
  70
    32
  0
VERTEX
  8
0
  5
B01A
 10
62.8390
 20
171.901
 30
0.000000
  70
    32
  0
VERTEX
  8
0
  5
B01B
 10
62.9414
 20
171.859
 30
0.000000
  70
    32
  0
VERTEX
  8
0
  5
B01C
 10
63.0471
 20
171.821
 30
0.000000
  70
    32
  0
VERTEX
  8
0
  5
B01D
 10
63.1560
 20
171.785
 30
0.000000
  70
    32
  0
VERTEX
  8
0
  5
B01E
 10
63.2678
 20
171.753
 30
0.000000
  70
    32
  0
VERTEX
  8
0
  5
B01F
 10
63.3822
 20
171.723
 30
0.000000
  70
    32
  0
VERTEX
  8
0
  5
B020
 10
63.4990
 20
171.697
 30
0.000000
  70
    32
  0
VERTEX
  8
0
  5
B021
 10
63.6179
 20
171.675
 30
0.000000
  70
    32
  0
VERTEX
  8
0
  5
B022
 10
63.7385
 20
171.655
 30
0.000000
  70
    32
  0
VERTEX
  8
0
  5
B023
 10
63.8606
 20
171.640
 30
0.000000
  70
    32
  0
VERTEX
  8
0
  5
B024
 10
63.9839
 20
171.627
 30
0.000000
  70
    32
  0
VERTEX
  8
0
  5
B025
 10
64.1081
 20
171.618
 30
0.000000
  70
    32
  0
VERTEX
  8
0
  5
B026
 10
64.2330
 20
171.613
 30
0.000000
  70
    32
  0
VERTEX
  8
0
  5
B027
 10
64.3581
 20
171.611
 30
0.000000
  70
    32
  0
VERTEX
  8
0
  5
B028
 10
64.4832
 20
171.613
 30
0.000000
  70
    32
  0
VERTEX
  8
0
  5
B029
 10
64.6080
 20
171.618
 30
0.000000
  70
    32
  0
VERTEX
  8
0
  5
B02A
 10
64.7322
 20
171.627
 30
0.000000
  70
    32
  0
VERTEX
  8
0
  5
B02B
 10
64.8556
 20
171.640
 30
0.000000
  70
    32
  0
VERTEX
  8
0
  5
B02C
 10
64.9777
 20
171.655
 30
0.000000
  70
    32
  0
VERTEX
  8
0
  5
B02D
 10
65.0983
 20
171.675
 30
0.000000
  70
    32
  0
VERTEX
  8
0
  5
B02E
 10
65.2171
 20
171.697
 30
0.000000
  70
    32
  0
VERTEX
  8
0
  5
B02F
 10
65.3339
 20
171.723
 30
0.000000
  70
    32
  0
VERTEX
  8
0
  5
B030
 10
65.4483
 20
171.753
 30
0.000000
  70
    32
  0
VERTEX
  8
0
  5
B031
 10
65.5601
 20
171.785
 30
0.000000
  70
    32
  0
VERTEX
  8
0
  5
B032
 10
65.6690
 20
171.821
 30
0.000000
  70
    32
  0
VERTEX
  8
0
  5
B033
 10
65.7748
 20
171.859
 30
0.000000
  70
    32
  0
VERTEX
  8
0
  5
B034
 10
65.8771
 20
171.901
 30
0.000000
  70
    32
  0
VERTEX
  8
0
  5
B035
 10
65.9758
 20
171.945
 30
0.000000
  70
    32
  0
VERTEX
  8
0
  5
B036
 10
66.0706
 20
171.993
 30
0.000000
  70
    32
  0
VERTEX
  8
0
  5
B037
 10
66.1612
 20
172.042
 30
0.000000
  70
    32
  0
VERTEX
  8
0
  5
B038
 10
66.2475
 20
172.095
 30
0.000000
  70
    32
  0
VERTEX
  8
0
  5
B039
 10
66.3293
 20
172.150
 30
0.000000
  70
    32
  0
VERTEX
  8
0
  5
B03A
 10
66.4063
 20
172.206
 30
0.000000
  70
    32
  0
VERTEX
  8
0
  5
B03B
 10
66.4783
 20
172.266
 30
0.000000
  70
    32
  0
VERTEX
  8
0
  5
B03C
 10
66.5453
 20
172.327
 30
0.000000
  70
    32
  0
VERTEX
  8
0
  5
B03D
 10
66.6070
 20
172.389
 30
0.000000
  70
    32
  0
VERTEX
  8
0
  5
B03E
 10
66.6633
 20
172.454
 30
0.000000
  70
    32
  0
VERTEX
  8
0
  5
B03F
 10
66.7140
 20
172.520
 30
0.000000
  70
    32
  0
VERTEX
  8
0
  5
B040
 10
66.7590
 20
172.588
 30
0.000000
  70
    32
  0
VERTEX
  8
0
  5
B041
 10
66.7983
 20
172.656
 30
0.000000
  70
    32
  0
VERTEX
  8
0
  5
B042
 10
66.8317
 20
172.726
 30
0.000000
  70
    32
  0
VERTEX
  8
0
  5
B043
 10
66.8591
 20
172.796
 30
0.000000
  70
    32
  0
VERTEX
  8
0
  5
B044
 10
66.8805
 20
172.867
 30
0.000000
  70
    32
  0
VERTEX
  8
0
  5
B045
 10
66.8958
 20
172.939
 30
0.000000
  70
    32
  0
VERTEX
  8
0
  5
B046
 10
66.9050
 20
173.011
 30
0.000000
  70
    32
  0
VERTEX
  8
0
  5
B047
 10
66.9081
 20
173.083
 30
0.000000
  70
    32
  0
SEQEND
  8
0
  5
B048
  0
LINE
  5
98F5
  8
0
 10
73.358080405414967
 20
164.7933352797732
 30
0.0
 11
55.358081180275569
 21
164.7933352797732
 31
0.0
  0
LINE
  5
9900
  8
0
 10
72.858081254781254
 20
185.7933349966512
 30
0.0
 11
72.858081254781254
 21
185.04255861635059
 31
0.0
  0
LINE
  5
9902
  8
0
 10
55.858080330909267
 20
185.7933349966512
 30
0.0
 11
55.858080330909267
 21
185.04255861635059
 31
0.0
  0
LINE
  5
9908
  8
0
 10
44.358081239880093
 20
153.30938965550669
 30
0.0
 11
44.358081239880093
 21
185.79333499665131
 31
0.0
  0
LINE
  5
990B
  8
0
 10
55.358081180275462
 20
138.29333605835899
 30
0.0
 11
55.358081180275462
 21
185.7933349966512
 31
0.0
  0
LINE
  5
990F
  8
0
 10
73.35808040541508
 20
138.29333605835899
 30
0.0
 11
73.35808040541508
 21
185.7933349966512
 31
0.0
  0
LINE
  5
9915
  8
0
 10
84.358080345810436
 20
185.7933349966512
 30
0.0
 11
84.35808034581045
 21
153.30938965550669
 31
0.0
  0
LINE
  5
992F
  8
0
 10
31.85808198493805
 20
134.7933359503254
 30
0.0
 11
31.85808198493806
 21
146.79333605463361
 31
0.0
  0
LINE
  5
9937
  8
0
 10
96.858079600752262
 20
146.79333605463361
 30
0.0
 11
96.858079600752262
 21
134.79333595032551
 31
0.0
  0
LINE
  5
993B
  8
0
 10
96.858079600752262
 20
134.79333595032551
 30
0.0
 11
31.85808198493805
 21
134.7933359503254
 31
0.0
  0
LINE
  5
993D
  8
0
 10
55.358081180275462
 20
179.86736298198559
 30
0.0
 11
73.35808040541508
 21
179.86736298198559
 31
0.0
  0
LINE
  5
A2F8
  8
0
 10
178.85808112067079
 20
27.793337589453081
 30
0.0
 11
178.85808112067079
 21
76.79333669538363
 31
0.0
  0
LINE
  5
A30C
  8
0
 10
158.8580815677056
 20
43.293337529848479
 30
0.0
 11
158.8580815677056
 21
61.293336754988097
 31
0.0
  0
ARC
  5
A30F
  8
0
 10
152.85808112067079
 20
49.293337142418288
 30
0.0
 40
6.0000000000000284
 50
180.0
 51
270.0
  0
LINE
  5
A310
  8
0
 10
146.8580796007524
 20
55.29333716849532
 30
0.0
 11
146.8580796007524
 21
49.293337116341263
 31
0.0
  0
ARC
  5
A311
  8
0
 10
152.85808112067079
 20
55.293337142418288
 30
0.0
 40
6.0000000000000284
 50
90.0
 51
180.0
  0
LINE
  5
A313
  8
0
 10
152.85808058422899
 20
61.293336754988097
 30
0.0
 11
178.85808112067079
 21
61.293336754988047
 31
0.0
  0
LINE
  5
A314
  8
0
 10
152.85808058422899
 20
43.293337529848479
 30
0.0
 11
178.85808112067079
 21
43.293337529848429
 31
0.0
  0
ARC
  5
A31E
  8
0
 10
212.85808112067079
 20
25.793337142418409
 30
0.0
 40
3.2500000000000071
 50
270.0
 51
90.0
  0
LINE
  5
A31F
  8
0
 10
204.85808165711259
 20
29.043336591075452
 30
0.0
 11
212.85808296841481
 21
29.043336591075452
 31
0.0
  0
ARC
  5
A320
  8
0
 10
204.85808112067079
 20
25.793337142418409
 30
0.0
 40
3.2500000000000071
 50
90.0
 51
270.0
  0
LINE
  5
A321
  8
0
 10
212.85808296841481
 20
22.54333645696499
 30
0.0
 11
204.85808165711259
 21
22.54333645696499
 31
0.0
  0
ARC
  5
A322
  8
0
 10
212.85808112067079
 20
78.793337142418409
 30
0.0
 40
3.25
 50
270.0
 51
90.0
  0
LINE
  5
A323
  8
0
 10
204.85808165711259
 20
82.043337827871824
 30
0.0
 11
212.85808296841481
 21
82.043337827871824
 31
0.0
  0
ARC
  5
A324
  8
0
 10
204.85808112067079
 20
78.793337142418409
 30
0.0
 40
3.25
 50
90.0
 51
270.0
  0
LINE
  5
A325
  8
0
 10
212.85808296841481
 20
75.543337693761373
 30
0.0
 11
204.85808165711259
 21
75.543337693761373
 31
0.0
  0
ARC
  5
A326
  8
0
 10
232.85808112067079
 20
25.793337142418409
 30
0.0
 40
3.2500000000000071
 50
270.0
 51
90.0
  0
LINE
  5
A327
  8
0
 10
224.85808121007781
 20
29.043336591075452
 30
0.0
 11
232.85808252138
 21
29.043336591075452
 31
0.0
  0
ARC
  5
A328
  8
0
 10
224.85808112067079
 20
25.793337142418409
 30
0.0
 40
3.2500000000000071
 50
90.0
 51
270.0
  0
LINE
  5
A329
  8
0
 10
232.85808252138
 20
22.54333645696499
 30
0.0
 11
224.85808121007781
 21
22.54333645696499
 31
0.0
  0
ARC
  5
A32A
  8
0
 10
232.85808112067079
 20
78.793337142418409
 30
0.0
 40
3.25
 50
270.0
 51
90.0
  0
LINE
  5
A32B
  8
0
 10
224.85808121007781
 20
82.043337827871824
 30
0.0
 11
232.85808252138
 21
82.043337827871824
 31
0.0
  0
ARC
  5
A32C
  8
0
 10
224.85808112067079
 20
78.793337142418409
 30
0.0
 40
3.25
 50
90.0
 51
270.0
  0
LINE
  5
A32D
  8
0
 10
232.85808252138
 20
75.543337693761373
 30
0.0
 11
224.85808121007781
 21
75.543337693761373
 31
0.0
  0
LINE
  5
A33E
  8
0
 10
178.85808112067079
 20
32.293337589453188
 30
0.0
 11
226.86231512308231
 21
32.293337589453238
 31
0.0
  0
LINE
  5
A340
  8
0
 10
226.8623151267924
 20
72.293336695383545
 30
0.0
 11
178.8580811206707
 21
72.293336695383516
 31
0.0
  0
LINE
  5
A34C
  8
0
 10
313.85808648508879
 20
70.293336695383559
 30
0.0
 11
313.8580864850889
 21
34.293337589453152
 31
0.0
  0
LINE
  5
A34E
  8
0
 10
251.3580811206707
 20
72.293336695383573
 30
0.0
 11
253.85808112067059
 21
72.293336695383573
 31
0.0
  0
LINE
  5
A592
  8
0
 10
416.35808484596089
 20
188.79333735103469
 30
0.0
 11
416.35808484596089
 21
185.79333499665111
 31
0.0
  0
LINE
  5
A595
  8
0
 10
376.35808574003079
 20
185.79333499665111
 30
0.0
 11
376.35808574003079
 21
188.79333735103449
 31
0.0
  0
LINE
  5
A597
  8
0
 10
416.35808484596117
 20
185.79333499665131
 30
0.0
 11
376.35808574003079
 21
185.79333499665111
 31
0.0
  0
LINE
  5
A599
  8
0
 10
376.3580857400309
 20
188.79333735103461
 30
0.0
 11
416.35808484596089
 21
188.79333735103469
 31
0.0
  0
LINE
  5
A5AA
  8
0
 10
399.47532625836197
 20
145.83208356643769
 30
0.0
 11
399.99823850546841
 21
143.7417281850681
 31
0.0
  0
ARC
  5
A5AB
  8
0
 10
401.4155406029783
 20
146.31743741253189
 30
0.0
 40
2.0000000000000209
 50
35.585749373092987
 51
194.04458598725981
  0
ARC
  5
A5AC
  8
0
 10
404.2618999290342
 20
148.3541599235711
 30
0.0
 40
1.500000000000024
 50
215.58574937309299
 51
311.00095396392402
  0
ARC
  5
A5AD
  8
0
 10
396.35808529299561
 20
157.44615283764551
 30
0.0
 40
13.54718311267991
 50
311.00095396392402
 51
228.99904603607601
  0
ARC
  5
A5AF
  8
0
 10
391.30062998301293
 20
146.31743741253189
 30
0.0
 40
2.0000000000000311
 50
345.95541401274011
 51
144.41425062690701
  0
LINE
  5
A5B0
  8
0
 10
392.71793208052281
 20
143.7417281850681
 30
0.0
 11
393.2408443276293
 21
145.83208356643769
 31
0.0
  0
CIRCLE
  5
A5B1
  8
0
 10
401.4155406029783
 20
146.31743741253189
 30
0.0
 40
1.0
  0
CIRCLE
  5
A5B2
  8
0
 10
391.30062998301293
 20
146.31743741253189
 30
0.0
 40
1.0
  0
ARC
  5
A5B3
  8
0
 10
396.35808529299561
 20
158.2933359503254
 30
0.0
 40
14.5
 50
255.95541401274019
 51
284.04458598725989
  0
LINE
  5
A5BA
  8
0
 10
416.35808484596072
 20
185.79333499665131
 30
0.0
 11
416.35808484596072
 21
134.79333595032551
 31
0.0
  0
CIRCLE
  5
A5BC
  8
0
 10
396.35808529299561
 20
158.2933359503254
 30
0.0
 40
15.00000000000003
  0
CIRCLE
  5
A5BD
  8
0
 10
396.35808529299561
 20
158.2933359503254
 30
0.0
 40
15.50000000000003
  0
LINE
  5
A5C3
  8
0
 10
378.35808574003028
 20
176.79333538408119
 30
0.0
 11
414.35808484596089
 21
176.7933353840813
 31
0.0
  0
LINE
  5
A5C9
  8
0
 10
376.3580857400305
 20
134.79333595032551
 30
0.0
 11
376.3580857400305
 21
185.79333499665111
 31
0.0
  0
LINE
  5
A5DA
  8
0
 10
428.85808410090289
 20
146.79333605463361
 30
0.0
 11
428.85808410090289
 21
134.79333595032551
 31
0.0
  0
LINE
  5
A5E0
  8
0
 10
363.8580864850889
 20
134.79333595032551
 30
0.0
 11
363.85808648508879
 21
146.79333605463361
 31
0.0
  0
LINE
  5
A5E1
  8
0
 10
363.85808648508879
 20
146.79333605463361
 30
0.0
 11
376.35808574003028
 21
146.79333605463361
 31
0.0
  0
LINE
  5
A5E5
  8
0
 10
428.85808410090289
 20
134.79333595032551
 30
0.0
 11
363.85808648508879
 21
134.79333595032551
 31
0.0
  0
LINE
  5
A86D
  8
0
 10
178.8580811206707
 20
251.29333660597669
 30
0.0
 11
253.8580811206696
 21
251.29333660597561
 31
0.0
  0
LINE
  5
A88D
  8
0
 10
428.85808410090237
 20
146.79333605463361
 30
0.0
 11
416.35808484596089
 21
146.79333605463361
 31
0.0
  0
LINE
  5
A89B
  8
0
 10
55.358081180275462
 20
185.04255861635059
 30
0.0
 11
73.35808040541508
 21
185.04255861635059
 31
0.0
  0
LINE
  5
A8D4
  8
0
 10
73.35808040541508
 20
138.2933360583589
 30
0.0
 11
55.358081180275462
 21
138.2933360583589
 31
0.0
  0
TEXT
  5
A946
  8
0
 62
     3
 10
0.0
 20
0.0
 30
0.0
 40
10.0
  1
AMWD25-WS
  7
STANDARD1
  0
LINE
  5
A966
  8
0
 10
178.8580811206707
 20
153.30938965550669
 30
0.0
 11
178.8580811206707
 21
157.0662929087438
 31
0.0
  0
LINE
  5
A974
  8
0
 10
184.85808117282471
 20
153.29333586091849
 30
0.0
 11
178.8580811206707
 21
153.29333586091849
 31
0.0
  0
LINE
  5
A978
  8
0
 10
251.3580811206707
 20
134.79333595032551
 30
0.0
 11
251.3580811206707
 21
146.79333605463361
 31
0.0
  0
ARC
  5
A988
  8
0
 10
184.85808112067051
 20
145.293335950325
 30
0.0
 40
8.0
 50
10.806923635404271
 51
90.008565983079933
  0
LINE
  5
A9B0
  8
1
 10
289.1580811206706
 20
151.0933359503255
 30
0.0
 11
289.1580811206706
 21
143.4933359503255
 31
0.0
  0
LINE
  5
A9B1
  8
1
 10
285.3580811206707
 20
147.29333595032551
 30
0.0
 11
292.95808112067073
 21
147.29333595032551
 31
0.0
  0
CIRCLE
  5
A9CC
  8
2
 10
300.85808112067082
 20
167.79333595032551
 30
0.0
 40
2.0669999999999988
  0
CIRCLE
  5
A9CD
  8
2
 10
300.85808112067082
 20
167.79333595032551
 30
0.0
 40
2.5
  0
LINE
  5
A9D9
  8
0
 10
313.85808648508879
 20
161.79333635265681
 30
0.0
 11
268.85808082264748
 21
161.79333635265681
 31
0.0
  0
ARC
  5
A9DA
  8
0
 10
268.8580811206707
 20
158.29333595032551
 30
0.0
 40
3.5
 50
90.0
 51
270.0
  0
LINE
  5
A9DB
  8
0
 10
268.85808082264748
 20
154.79333613659
 30
0.0
 11
313.85808648508879
 21
154.79333613659
 31
0.0
  0
LINE
  5
AA2B
  8
0
 10
178.85808112067059
 20
295.79333571190699
 30
0.0
 11
194.23908114441949
 21
295.79333571190699
 31
0.0
  0
LINE
  5
AA2E
  8
0
 10
201.7450811206707
 20
303.79333571190699
 30
0.0
 11
236.78708112067071
 21
303.79333571190688
 31
0.0
  0
LINE
  5
AA33
  8
0
 10
194.23908114441949
 20
295.79333571190699
 30
0.0
 11
197.4150811444195
 21
301.29333571190688
 31
0.0
  0
ARC
  5
AA38
  8
0
 10
201.7450811206707
 20
298.79333571190688
 30
0.0
 40
5.0
 50
90.0
 51
150.3756333067725
  0
ARC
  5
AA4B
  8
0
 10
236.78708112067071
 20
298.79333571190688
 30
0.0
 40
5.0
 50
45.008651662837302
 51
90.0
  0
LINE
  5
AA5C
  8
0
 10
251.3580811206707
 20
291.29333571190688
 30
0.0
 11
240.3220811206707
 21
302.32940344315858
 31
0.0
  0
LINE
  5
AA5D
  8
0
 10
255.85808648508879
 20
289.29333571190682
 30
0.0
 11
313.85808648508879
 21
289.29333571190682
 31
0.0
  0
LINE
  5
AA62
  8
0
 10
255.8580811206707
 20
289.29333571190688
 30
0.0
 11
253.8580811206707
 21
291.29333571190688
 31
0.0
  0
LINE
  5
AA63
  8
0
 10
255.85808648508879
 20
289.29333571190682
 30
0.0
 11
255.85808648508879
 21
253.29333660597661
 31
0.0
  0
LINE
  5
AA64
  8
0
 10
246.85808648508879
 20
291.29333571190682
 30
0.0
 11
246.85808648508879
 21
251.2933366059757
 31
0.0
  0
LINE
  5
AA65
  8
0
 10
178.8580811206707
 20
291.29333571190699
 30
0.0
 11
253.85808112067059
 21
291.29333571190682
 31
0.0
  0
LINE
  5
AA89
  8
0
 10
228.01278139990649
 20
257.29333572680821
 30
0.0
 11
227.43543218416059
 21
256.29333649421801
 31
0.0
  0
LINE
  5
AA8A
  8
0
 10
227.43543218416059
 20
256.29333649421801
 30
0.0
 11
226.28073002737841
 21
256.29333649421801
 31
0.0
  0
LINE
  5
AA8B
  8
0
 10
226.28073002737841
 20
256.29333649421801
 30
0.0
 11
225.70338081163251
 21
257.29333572680821
 31
0.0
  0
LINE
  5
AA8C
  8
0
 10
225.70338081163251
 20
257.29333572680821
 30
0.0
 11
226.28073002737841
 21
258.29333589072093
 31
0.0
  0
LINE
  5
AA8D
  8
0
 10
226.28073002737841
 20
258.29333589072093
 30
0.0
 11
227.43543218416059
 21
258.29333589072093
 31
0.0
  0
LINE
  5
AA8E
  8
0
 10
227.43543218416059
 20
258.29333589072093
 30
0.0
 11
228.01278139990649
 21
257.29333572680821
 31
0.0
  0
CIRCLE
  5
AA8F
  8
0
 10
226.8580811206707
 20
257.29333615894183
 30
0.0
 40
3.0
  0
CIRCLE
  5
AA90
  8
0
 10
194.8580811206707
 20
257.29333615894188
 30
0.0
 40
3.0
  0
LINE
  5
AA91
  8
0
 10
196.01278184694129
 20
257.29333572680821
 30
0.0
 11
195.43543169987279
 21
256.29333649421801
 31
0.0
  0
LINE
  5
AA92
  8
0
 10
195.43543169987279
 20
256.29333649421801
 30
0.0
 11
194.2807304744133
 21
256.29333649421801
 31
0.0
  0
LINE
  5
AA93
  8
0
 10
194.2807304744133
 20
256.29333649421801
 30
0.0
 11
193.7033803273448
 21
257.29333572680821
 31
0.0
  0
LINE
  5
AA94
  8
0
 10
193.7033803273448
 20
257.29333572680821
 30
0.0
 11
194.2807304744133
 21
258.29333589072098
 31
0.0
  0
LINE
  5
AA95
  8
0
 10
194.2807304744133
 20
258.29333589072098
 30
0.0
 11
195.43543169987279
 21
258.29333589072098
 31
0.0
  0
LINE
  5
AA96
  8
0
 10
195.43543169987279
 20
258.29333589072098
 30
0.0
 11
196.01278184694129
 21
257.29333572680821
 31
0.0
  0
CIRCLE
  5
AA97
  8
0
 10
226.8580811206707
 20
257.29333615894183
 30
0.0
 40
3.250000000000028
  0
CIRCLE
  5
AA98
  8
0
 10
194.8580811206707
 20
257.29333615894188
 30
0.0
 40
3.25
  0
LINE
  5
AAA2
  8
0
 10
255.85808648508879
 20
253.29333660597661
 30
0.0
 11
313.85808648508879
 21
253.29333660597669
 31
0.0
  0
LINE
  5
AAA3
  8
0
 10
255.85808112067059
 20
253.29333660597661
 30
0.0
 11
253.85808112067059
 21
251.29333660597661
 31
0.0
  0
LINE
  5
AAA4
  8
0
 10
178.85808112067059
 20
246.79333660597561
 30
0.0
 11
194.23908114441949
 21
246.79333660597561
 31
0.0
  0
LINE
  5
AAA5
  8
0
 10
201.7450811206707
 20
238.7933366059755
 30
0.0
 11
236.78708112067071
 21
238.79333660597561
 31
0.0
  0
LINE
  5
AAA6
  8
0
 10
233.85808082264751
 20
238.79333735103361
 30
0.0
 11
203.85808149319971
 21
238.79333735103361
 31
0.0
  0
LINE
  5
AAA7
  8
0
 10
194.23908114441949
 20
246.79333660597561
 30
0.0
 11
197.4150811444195
 21
241.29333660597561
 31
0.0
  0
ARC
  5
AAA8
  8
0
 10
201.7450811206707
 20
243.79333660597561
 30
0.0
 40
5.0
 50
209.6243666932269
 51
270.0
  0
ARC
  5
AAA9
  8
0
 10
236.78708112067071
 20
243.79333660597561
 30
0.0
 40
5.0
 50
270.0
 51
314.99134833716101
  0
LINE
  5
AAAA
  8
0
 10
251.3580811206707
 20
251.2933366059757
 30
0.0
 11
240.3220811206707
 21
240.25726887472391
 31
0.0
  0
LINE
  5
AAC9
  8
0
 10
228.01278139990669
 20
66.293337574552311
 30
0.0
 11
227.4354321841607
 21
67.293336807142509
 31
0.0
  0
LINE
  5
AACA
  8
0
 10
227.4354321841607
 20
67.293336807142509
 30
0.0
 11
226.28073002737861
 21
67.293336807142509
 31
0.0
  0
LINE
  5
AACB
  8
0
 10
226.28073002737861
 20
67.293336807142509
 30
0.0
 11
225.70338081163271
 21
66.293337574552311
 31
0.0
  0
LINE
  5
AACC
  8
0
 10
225.70338081163271
 20
66.293337574552311
 30
0.0
 11
226.28073002737861
 21
65.293337410639538
 31
0.0
  0
LINE
  5
AACD
  8
0
 10
226.28073002737861
 20
65.293337410639538
 30
0.0
 11
227.4354321841607
 21
65.293337410639538
 31
0.0
  0
LINE
  5
AACE
  8
0
 10
227.4354321841607
 20
65.293337410639538
 30
0.0
 11
228.01278139990669
 21
66.293337574552311
 31
0.0
  0
CIRCLE
  5
AACF
  8
0
 10
226.85808112067079
 20
66.293337142418636
 30
0.0
 40
3.0
  0
CIRCLE
  5
AAD0
  8
0
 10
194.85808112067079
 20
66.293337142418636
 30
0.0
 40
3.0
  0
LINE
  5
AAD1
  8
0
 10
196.01278184694149
 20
66.293337574552311
 30
0.0
 11
195.43543169987299
 21
67.293336807142509
 31
0.0
  0
LINE
  5
AAD2
  8
0
 10
195.43543169987299
 20
67.293336807142509
 30
0.0
 11
194.28073047441339
 21
67.293336807142509
 31
0.0
  0
LINE
  5
AAD3
  8
0
 10
194.28073047441339
 20
67.293336807142509
 30
0.0
 11
193.70338032734489
 21
66.293337574552311
 31
0.0
  0
LINE
  5
AAD4
  8
0
 10
193.70338032734489
 20
66.293337574552311
 30
0.0
 11
194.28073047441339
 21
65.293337410639538
 31
0.0
  0
LINE
  5
AAD5
  8
0
 10
194.28073047441339
 20
65.293337410639538
 30
0.0
 11
195.43543169987299
 21
65.293337410639538
 31
0.0
  0
LINE
  5
AAD6
  8
0
 10
195.43543169987299
 20
65.293337410639538
 30
0.0
 11
196.01278184694149
 21
66.293337574552311
 31
0.0
  0
ARC
  5
AAD7
  8
0
 10
226.8580864850889
 20
52.293337142418807
 30
0.0
 40
20.000000000000028
 50
0.0
 51
90.0
  0
CIRCLE
  5
AAD8
  8
0
 10
226.85808112067079
 20
66.293337142418636
 30
0.0
 40
3.250000000000028
  0
CIRCLE
  5
AAD9
  8
0
 10
194.85808112067079
 20
66.293337142418636
 30
0.0
 40
3.25
  0
ARC
  5
AADA
  8
0
 10
226.8580864850889
 20
52.293337142418807
 30
0.0
 40
20.00000000000006
 50
270.0
 51
0.0
  0
LINE
  5
AADB
  8
0
 10
228.0127813999066
 20
38.293336710285253
 30
0.0
 11
227.4354321841607
 21
37.293337477695047
 31
0.0
  0
LINE
  5
AADC
  8
0
 10
227.4354321841607
 20
37.293337477695047
 30
0.0
 11
226.2807300273785
 21
37.293337477695047
 31
0.0
  0
LINE
  5
AADD
  8
0
 10
226.2807300273785
 20
37.293337477695047
 30
0.0
 11
225.7033808116326
 21
38.293336710285253
 31
0.0
  0
LINE
  5
AADE
  8
0
 10
225.7033808116326
 20
38.293336710285253
 30
0.0
 11
226.2807300273785
 21
39.293336874198019
 31
0.0
  0
LINE
  5
AADF
  8
0
 10
226.2807300273785
 20
39.293336874198019
 30
0.0
 11
227.4354321841607
 21
39.293336874198019
 31
0.0
  0
LINE
  5
AAE0
  8
0
 10
227.4354321841607
 20
39.293336874198019
 30
0.0
 11
228.0127813999066
 21
38.293336710285253
 31
0.0
  0
CIRCLE
  5
AAE1
  8
0
 10
226.85808112067079
 20
38.29333714241892
 30
0.0
 40
3.0
  0
CIRCLE
  5
AAE2
  8
0
 10
194.85808112067079
 20
38.293337142418977
 30
0.0
 40
3.0
  0
LINE
  5
AAE3
  8
0
 10
196.01278184694141
 20
38.293336710285303
 30
0.0
 11
195.43543169987291
 21
37.293337477695111
 31
0.0
  0
LINE
  5
AAE4
  8
0
 10
195.43543169987291
 20
37.293337477695111
 30
0.0
 11
194.28073047441339
 21
37.293337477695111
 31
0.0
  0
LINE
  5
AAE5
  8
0
 10
194.28073047441339
 20
37.293337477695111
 30
0.0
 11
193.70338032734489
 21
38.293336710285303
 31
0.0
  0
LINE
  5
AAE6
  8
0
 10
193.70338032734489
 20
38.293336710285303
 30
0.0
 11
194.28073047441339
 21
39.293336874198083
 31
0.0
  0
LINE
  5
AAE7
  8
0
 10
194.28073047441339
 20
39.293336874198083
 30
0.0
 11
195.43543169987291
 21
39.293336874198083
 31
0.0
  0
LINE
  5
AAE8
  8
0
 10
195.43543169987291
 20
39.293336874198083
 30
0.0
 11
196.01278184694141
 21
38.293336710285303
 31
0.0
  0
CIRCLE
  5
AAE9
  8
0
 10
226.85808112067079
 20
38.29333714241892
 30
0.0
 40
3.250000000000028
  0
CIRCLE
  5
AAEA
  8
0
 10
194.85808112067079
 20
38.293337142418977
 30
0.0
 40
3.25
  0
LINE
  5
AAF4
  8
0
 10
255.8580811206707
 20
70.293336695383573
 30
0.0
 11
313.85808648508879
 21
70.293336695383559
 31
0.0
  0
LINE
  5
AAF7
  8
0
 10
255.8580811206707
 20
70.293336695383573
 30
0.0
 11
253.8580811206707
 21
72.293336695383573
 31
0.0
  0
LINE
  5
AAFA
  8
0
 10
178.85808112067059
 20
76.79333669538363
 30
0.0
 11
194.23908114441949
 21
76.79333669538363
 31
0.0
  0
LINE
  5
AAFB
  8
0
 10
201.7450811206707
 20
84.793336695383687
 30
0.0
 11
236.78708112067071
 21
84.793336695383616
 31
0.0
  0
LINE
  5
AAFC
  8
0
 10
194.23908114441949
 20
76.79333669538363
 30
0.0
 11
197.4150811444195
 21
82.293336695383616
 31
0.0
  0
ARC
  5
AAFD
  8
0
 10
201.7450811206707
 20
79.793336695383616
 30
0.0
 40
5.0
 50
90.0
 51
150.37563330677301
  0
ARC
  5
AAFE
  8
0
 10
236.78708112067071
 20
79.793336695383573
 30
0.0
 40
5.0
 50
45.008651662837863
 51
90.0
  0
LINE
  5
AAFF
  8
0
 10
251.3580811206707
 20
72.293336695383573
 30
0.0
 11
240.3220811206707
 21
83.329404426635264
 31
0.0
  0
LINE
  5
AB1D
  8
0
 10
251.3580811206707
 20
32.293337589453131
 30
0.0
 11
253.85808112067059
 21
32.293337589453131
 31
0.0
  0
LINE
  5
AB1E
  8
0
 10
255.8580811206707
 20
34.293337589453131
 30
0.0
 11
313.85808648508879
 21
34.293337589453152
 31
0.0
  0
LINE
  5
AB1F
  8
0
 10
255.8580811206707
 20
34.293337589453131
 30
0.0
 11
253.8580811206707
 21
32.293337589453131
 31
0.0
  0
LINE
  5
AB20
  8
0
 10
178.85808112067059
 20
27.793337589453081
 30
0.0
 11
194.23908114441949
 21
27.793337589453081
 31
0.0
  0
LINE
  5
AB21
  8
0
 10
201.7450811206707
 20
19.79333758945301
 30
0.0
 11
236.78708112067071
 21
19.793337589453071
 31
0.0
  0
LINE
  5
AB22
  8
0
 10
194.23908114441949
 20
27.793337589453081
 30
0.0
 11
197.4150811444195
 21
22.293337589453071
 31
0.0
  0
ARC
  5
AB23
  8
0
 10
201.7450811206707
 20
24.793337589453071
 30
0.0
 40
5.0
 50
209.62436669322679
 51
270.0
  0
ARC
  5
AB24
  8
0
 10
236.78708112067071
 20
24.793337589453131
 30
0.0
 40
5.0
 50
270.0
 51
314.99134833716181
  0
LINE
  5
AB25
  8
0
 10
251.3580811206707
 20
32.293337589453131
 30
0.0
 11
240.3220811206707
 21
21.257269858201429
 31
0.0
  0
LINE
  5
AB97
  8
0
 10
39.858081984938053
 20
153.30938965550669
 30
0.0
 11
44.3580812398801
 21
153.30938965550669
 31
0.0
  0
LINE
  5
AB98
  8
0
 10
96.858079600752262
 20
146.79333605463361
 30
0.0
 11
91.358080092490596
 21
146.79333605463361
 31
0.0
  0
LINE
  5
ABA1
  8
0
 10
88.858079600752262
 20
153.30938965550669
 30
0.0
 11
88.858079600752262
 21
134.79333595032551
 31
0.0
  0
LINE
  5
ABA2
  8
0
 10
39.858081984938053
 20
134.7933359503254
 30
0.0
 11
39.858081984938053
 21
153.30938965550669
 31
0.0
  0
LINE
  5
ABA3
  8
0
 10
39.858081984938053
 20
134.7933359503254
 30
0.0
 11
39.858081984938053
 21
146.79333605463361
 31
0.0
  0
LINE
  5
ABA4
  8
0
 10
37.358081493201936
 20
146.79333605463361
 30
0.0
 11
31.85808198493806
 21
146.79333605463361
 31
0.0
  0
LINE
  5
ABA5
  8
0
 10
84.358080345810436
 20
153.30938965550669
 30
0.0
 11
88.858079600752262
 21
153.30938965550669
 31
0.0
  0
LINE
  5
ABBA
  8
0
 10
84.358080345810521
 20
138.29333595032551
 30
0.0
 11
84.358080345810521
 21
134.79333595032551
 31
0.0
  0
LINE
  5
ABBB
  8
0
 10
44.358081239880178
 20
134.7933359503254
 30
0.0
 11
44.358081239880178
 21
138.2933359503254
 31
0.0
  0
LINE
  5
ABBD
  8
0
 10
84.358080345810521
 20
138.29333595032551
 30
0.0
 11
44.358081239880192
 21
138.2933359503254
 31
0.0
  0
LINE
  5
ABC1
  8
0
 10
84.358080345810521
 20
135.29333595032551
 30
0.0
 11
44.358081239880192
 21
135.2933359503254
 31
0.0
  0
LINE
  5
ABD4
  8
0
 10
91.358080092490596
 20
147.79333621854639
 30
0.0
 11
91.358080092490596
 21
141.79333616639229
 31
0.0
  0
LINE
  5
ABDD
  8
0
 10
89.458079600752257
 20
139.29333575661039
 30
0.0
 11
89.458079600752257
 21
150.2933356970058
 31
0.0
  0
LINE
  5
ABDE
  8
0
 10
89.458079600752257
 20
147.79333621854639
 30
0.0
 11
88.858079600752262
 21
147.79333621854639
 31
0.0
  0
LINE
  5
ABDF
  8
0
 10
88.858079600752262
 20
141.79333616639229
 30
0.0
 11
89.458079600752257
 21
141.79333616639229
 31
0.0
  0
LINE
  5
ABE0
  8
0
 10
38.658081141535177
 20
150.29333569701041
 30
0.0
 11
39.258081984940901
 21
150.29333569701029
 31
0.0
  0
LINE
  5
ABE1
  8
0
 10
38.658081141533629
 20
141.79333616639701
 30
0.0
 11
37.358081493201027
 21
141.79333616639721
 31
0.0
  0
LINE
  5
ABE2
  8
0
 10
37.358081493202121
 20
147.7933362185513
 30
0.0
 11
38.658081141534723
 21
147.7933362185511
 31
0.0
  0
LINE
  5
ABE3
  8
0
 10
37.358081493202121
 20
147.7933362185513
 30
0.0
 11
37.358081493201027
 21
141.79333616639721
 31
0.0
  0
LINE
  5
ABE4
  8
0
 10
38.658081141533167
 20
139.29333575661511
 30
0.0
 11
38.658081141535177
 21
150.29333569701041
 31
0.0
  0
LINE
  5
ABE5
  8
0
 10
39.258081984938897
 20
139.29333575661499
 30
0.0
 11
39.258081984940901
 21
150.29333569701029
 31
0.0
  0
LINE
  5
ABE6
  8
0
 10
39.258081984940453
 20
147.79333621855099
 30
0.0
 11
39.858081984940441
 21
147.79333621855091
 31
0.0
  0
LINE
  5
ABE7
  8
0
 10
39.858081984939339
 20
141.79333616639681
 30
0.0
 11
39.258081984939352
 21
141.7933361663969
 31
0.0
  0
LINE
  5
ABE8
  8
0
 10
38.658081141533167
 20
139.2933357566196
 30
0.0
 11
39.258081984938897
 21
139.2933357566196
 31
0.0
  0
LINE
  5
ABF4
  8
0
 10
414.35808484596078
 20
176.79333538408119
 30
0.0
 11
414.35808484596078
 21
134.79333595032551
 31
0.0
  0
LINE
  5
ABF5
  8
0
 10
378.35808574003039
 20
134.79333595032551
 30
0.0
 11
378.35808574003039
 21
176.79333538408119
 31
0.0
  0
LINE
  5
ABF7
  8
0
 10
414.35808484596078
 20
176.79333538408119
 30
0.0
 11
416.35808484596072
 21
178.79333538408119
 31
0.0
  0
LINE
  5
ABF8
  8
0
 10
378.35808574003039
 20
176.79333538408119
 30
0.0
 11
376.3580857400305
 21
178.79333538408119
 31
0.0
  0
LINE
  5
AC02
  8
0
 10
363.85808648508879
 20
146.79333605463361
 30
0.0
 11
376.3580857400305
 21
146.79333605463361
 31
0.0
  0
LINE
  5
AC03
  8
0
 10
371.85808529299601
 20
153.29333586091849
 30
0.0
 11
376.3580857400305
 21
153.29333586091849
 31
0.0
  0
LINE
  5
AC0C
  8
0
 10
371.85808529299601
 20
153.29333586091849
 30
0.0
 11
371.85808529299601
 21
146.79333605463361
 31
0.0
  0
LINE
  5
AC0D
  8
0
 10
420.8580852929959
 20
153.29333586091849
 30
0.0
 11
420.8580852929959
 21
146.79333605463361
 31
0.0
  0
LINE
  5
AC0E
  8
0
 10
416.35808484596072
 20
153.29333586091849
 30
0.0
 11
420.8580852929959
 21
153.29333586091849
 31
0.0
  0
LINE
  5
AC0F
  8
0
 10
416.35808484596072
 20
146.79333605463361
 30
0.0
 11
428.85808410090289
 21
146.79333605463361
 31
0.0
  0
LINE
  5
AC19
  8
0
 10
422.0580861364017
 20
150.2933356970058
 30
0.0
 11
421.45808529299597
 21
150.2933356970058
 31
0.0
  0
LINE
  5
AC1B
  8
0
 10
423.35808578473421
 20
147.79333621854639
 30
0.0
 11
422.0580861364017
 21
147.79333621854639
 31
0.0
  0
LINE
  5
AC1C
  8
0
 10
423.35808578473421
 20
147.79333621854639
 30
0.0
 11
423.35808578473433
 21
146.79333605463361
 31
0.0
  0
LINE
  5
AC1D
  8
0
 10
422.0580861364017
 20
146.79333605463361
 30
0.0
 11
422.0580861364017
 21
150.2933356970058
 31
0.0
  0
LINE
  5
AC1E
  8
0
 10
421.45808529299597
 20
146.79333605463361
 30
0.0
 11
421.45808529299597
 21
150.2933356970058
 31
0.0
  0
LINE
  5
AC1F
  8
0
 10
421.45808529299597
 20
147.79333621854639
 30
0.0
 11
420.8580852929959
 21
147.79333621854639
 31
0.0
  0
LINE
  5
AC21
  8
0
 10
370.65808683377878
 20
150.29333569701041
 30
0.0
 11
371.25808767718462
 21
150.29333569701029
 31
0.0
  0
LINE
  5
AC23
  8
0
 10
369.35808718544581
 20
147.7933362185513
 30
0.0
 11
370.65808683377838
 21
147.7933362185511
 31
0.0
  0
LINE
  5
AC24
  8
0
 10
369.35808718544581
 20
147.7933362185513
 30
0.0
 11
369.35808718544558
 21
146.79333605463361
 31
0.0
  0
LINE
  5
AC25
  8
0
 10
370.65808683377821
 20
146.79333605463361
 30
0.0
 11
370.65808683377878
 21
150.29333569701041
 31
0.0
  0
LINE
  5
AC26
  8
0
 10
371.25808767718399
 20
146.79333605463361
 30
0.0
 11
371.25808767718462
 21
150.29333569701029
 31
0.0
  0
LINE
  5
AC27
  8
0
 10
371.25808767718411
 20
147.79333621855099
 30
0.0
 11
371.85808767718419
 21
147.79333621855091
 31
0.0
  0
LINE
  5
AC29
  8
0
 10
378.35808574003039
 20
161.79333635265681
 30
0.0
 11
379.35808574003039
 21
161.79333635265681
 31
0.0
  0
LINE
  5
AC2A
  8
0
 10
378.35808574003039
 20
154.79333613659
 30
0.0
 11
379.35808574003039
 21
154.79333613659
 31
0.0
  0
LINE
  5
AC2C
  8
0
 10
413.35808484596078
 20
161.79333635265681
 30
0.0
 11
413.35808484596078
 21
154.79333613659
 31
0.0
  0
LINE
  5
AC2D
  8
0
 10
379.35808574003039
 20
154.79333613659
 30
0.0
 11
379.35808574003039
 21
161.79333635265681
 31
0.0
  0
LINE
  5
AC2E
  8
0
 10
413.35808484596078
 20
161.79333635265681
 30
0.0
 11
414.35808484596078
 21
161.79333635265681
 31
0.0
  0
LINE
  5
AC2F
  8
0
 10
413.35808484596078
 20
154.79333613659
 30
0.0
 11
414.35808484596078
 21
154.79333613659
 31
0.0
  0
LINE
  5
AC48
  8
0
 10
179.35808166828829
 20
296.99333655531262
 30
0.0
 11
179.35808166828829
 21
296.3933357119069
 31
0.0
  0
LINE
  5
AC49
  8
0
 10
187.8580811989018
 20
296.99333655531262
 30
0.0
 11
187.8580811989018
 21
298.2933362036452
 31
0.0
  0
LINE
  5
AC4A
  8
0
 10
181.85808114674771
 20
298.2933362036452
 30
0.0
 11
181.85808114674771
 21
296.99333655531262
 31
0.0
  0
LINE
  5
AC4B
  8
0
 10
181.85808114674771
 20
298.2933362036452
 30
0.0
 11
187.8580811989018
 21
298.2933362036452
 31
0.0
  0
LINE
  5
AC4C
  8
0
 10
190.1567636613255
 20
296.99333655531262
 30
0.0
 11
179.35808166828829
 21
296.99333655531262
 31
0.0
  0
LINE
  5
AC4D
  8
0
 10
190.1567636613255
 20
296.3933357119069
 30
0.0
 11
179.35808166828829
 21
296.3933357119069
 31
0.0
  0
LINE
  5
AC4E
  8
0
 10
181.85808114674771
 20
296.3933357119069
 30
0.0
 11
181.85808114674771
 21
295.79333571190699
 31
0.0
  0
LINE
  5
AC4F
  8
0
 10
187.8580811989018
 20
295.79333571190699
 30
0.0
 11
187.8580811989018
 21
296.3933357119069
 31
0.0
  0
LINE
  5
AC56
  8
0
 10
190.1567636613255
 20
296.99333655531262
 30
0.0
 11
190.1567636613255
 21
296.3933357119069
 31
0.0
  0
LINE
  5
AC5A
  8
0
 10
179.35808166828829
 20
245.59333576257089
 30
0.0
 11
179.35808166828829
 21
246.1933366059767
 31
0.0
  0
LINE
  5
AC5B
  8
0
 10
187.8580811989018
 20
245.59333576257089
 30
0.0
 11
187.8580811989018
 21
244.29333611423829
 31
0.0
  0
LINE
  5
AC5C
  8
0
 10
181.85808114674771
 20
244.29333611423829
 30
0.0
 11
181.85808114674771
 21
245.59333576257089
 31
0.0
  0
LINE
  5
AC5D
  8
0
 10
181.85808114674771
 20
244.29333611423829
 30
0.0
 11
187.8580811989018
 21
244.29333611423829
 31
0.0
  0
LINE
  5
AC5E
  8
0
 10
190.1567636613255
 20
245.59333576257089
 30
0.0
 11
179.35808166828829
 21
245.59333576257089
 31
0.0
  0
LINE
  5
AC5F
  8
0
 10
190.1567636613255
 20
246.1933366059767
 30
0.0
 11
179.35808166828829
 21
246.1933366059767
 31
0.0
  0
LINE
  5
AC60
  8
0
 10
181.85808114674771
 20
246.1933366059767
 30
0.0
 11
181.85808114674771
 21
246.79333660597661
 31
0.0
  0
LINE
  5
AC61
  8
0
 10
187.8580811989018
 20
246.79333660597661
 30
0.0
 11
187.8580811989018
 21
246.1933366059767
 31
0.0
  0
LINE
  5
AC62
  8
0
 10
190.1567636613255
 20
245.59333576257089
 30
0.0
 11
190.1567636613255
 21
246.1933366059767
 31
0.0
  0
LINE
  5
AC64
  8
0
 10
179.35808166828849
 20
77.993337538789092
 30
0.0
 11
179.35808166828849
 21
77.393336695383368
 31
0.0
  0
LINE
  5
AC65
  8
0
 10
187.858081198902
 20
77.993337538789092
 30
0.0
 11
187.858081198902
 21
79.293337187121722
 31
0.0
  0
LINE
  5
AC66
  8
0
 10
181.85808114674791
 20
79.293337187121722
 30
0.0
 11
181.85808114674791
 21
77.993337538789092
 31
0.0
  0
LINE
  5
AC67
  8
0
 10
181.85808114674791
 20
79.293337187121722
 30
0.0
 11
187.858081198902
 21
79.293337187121722
 31
0.0
  0
LINE
  5
AC68
  8
0
 10
190.1567636613257
 20
77.993337538789092
 30
0.0
 11
179.35808166828849
 21
77.993337538789092
 31
0.0
  0
LINE
  5
AC69
  8
0
 10
190.1567636613257
 20
77.393336695383368
 30
0.0
 11
179.35808166828849
 21
77.393336695383368
 31
0.0
  0
LINE
  5
AC6A
  8
0
 10
181.85808114674791
 20
77.393336695383368
 30
0.0
 11
181.85808114674791
 21
76.793336695383402
 31
0.0
  0
LINE
  5
AC6B
  8
0
 10
187.858081198902
 20
76.793336695383402
 30
0.0
 11
187.858081198902
 21
77.393336695383368
 31
0.0
  0
LINE
  5
AC6C
  8
0
 10
190.1567636613257
 20
77.993337538789092
 30
0.0
 11
190.1567636613257
 21
77.393336695383368
 31
0.0
  0
LINE
  5
AC6D
  8
0
 10
179.35808166828849
 20
26.593336746047381
 30
0.0
 11
179.35808166828849
 21
27.193337589453112
 31
0.0
  0
LINE
  5
AC6E
  8
0
 10
187.858081198902
 20
26.593336746047381
 30
0.0
 11
187.858081198902
 21
25.293337097714758
 31
0.0
  0
LINE
  5
AC6F
  8
0
 10
181.85808114674791
 20
25.293337097714758
 30
0.0
 11
181.85808114674791
 21
26.593336746047381
 31
0.0
  0
LINE
  5
AC70
  8
0
 10
181.85808114674791
 20
25.293337097714758
 30
0.0
 11
187.858081198902
 21
25.293337097714758
 31
0.0
  0
LINE
  5
AC71
  8
0
 10
190.1567636613257
 20
26.593336746047381
 30
0.0
 11
179.35808166828849
 21
26.593336746047381
 31
0.0
  0
LINE
  5
AC72
  8
0
 10
190.1567636613257
 20
27.193337589453112
 30
0.0
 11
179.35808166828849
 21
27.193337589453112
 31
0.0
  0
LINE
  5
AC73
  8
0
 10
181.85808114674791
 20
27.193337589453112
 30
0.0
 11
181.85808114674791
 21
27.793337589453081
 31
0.0
  0
LINE
  5
AC74
  8
0
 10
187.858081198902
 20
27.793337589453081
 30
0.0
 11
187.858081198902
 21
27.193337589453112
 31
0.0
  0
LINE
  5
AC75
  8
0
 10
190.1567636613257
 20
26.593336746047381
 30
0.0
 11
190.1567636613257
 21
27.193337589453112
 31
0.0
  0
POLYLINE
  5
ACCC
  8
0
 66
     1
 10
0.0
 20
0.0
 30
0.0
 70
     1
  0
VERTEX
  5
AEB5
  8
0
 10
198.13639328418361
 20
170.5433359503256
 30
0.0
  0
VERTEX
  5
AEB6
  8
0
 10
197.4147054476966
 20
169.2933359503256
 30
0.0
  0
VERTEX
  5
AEB7
  8
0
 10
198.13639328418361
 20
168.0433359503256
 30
0.0
  0
VERTEX
  5
AEB8
  8
0
 10
199.57976895715771
 20
168.0433359503256
 30
0.0
  0
VERTEX
  5
AEB9
  8
0
 10
200.3014567936448
 20
169.2933359503256
 30
0.0
  0
VERTEX
  5
AEBA
  8
0
 10
199.57976895715771
 20
170.5433359503256
 30
0.0
  0
SEQEND
  5
AEBB
  8
0
  0
POLYLINE
  5
ACCD
  8
0
 66
     1
 10
0.0
 20
0.0
 30
0.0
 70
     1
  0
VERTEX
  5
AEBC
  8
0
 10
223.1363932841837
 20
170.5433359503256
 30
0.0
  0
VERTEX
  5
AEBD
  8
0
 10
222.4147054476966
 20
169.2933359503256
 30
0.0
  0
VERTEX
  5
AEBE
  8
0
 10
223.1363932841837
 20
168.0433359503256
 30
0.0
  0
VERTEX
  5
AEBF
  8
0
 10
224.5797689571578
 20
168.0433359503256
 30
0.0
  0
VERTEX
  5
AEC0
  8
0
 10
225.3014567936448
 20
169.2933359503256
 30
0.0
  0
VERTEX
  5
AEC1
  8
0
 10
224.5797689571578
 20
170.5433359503256
 30
0.0
  0
SEQEND
  5
AEC2
  8
0
  0
CIRCLE
  5
AD14
  8
0
 10
289.15808112067072
 20
147.29333595032551
 30
0.0
 40
1.1999999999999991
  0
CIRCLE
  5
AD15
  8
3
 10
289.15808112067072
 20
147.29333595032551
 30
0.0
 40
1.5
  0
CIRCLE
  5
AD16
  8
3
 10
300.85808112067082
 20
52.29333714241838
 30
0.0
 40
1.5
  0
CIRCLE
  5
AD17
  8
3
 10
262.85808112067082
 20
52.293337142418352
 30
0.0
 40
1.5
  0
CIRCLE
  5
AD7F
  8
0
 10
262.85808112067082
 20
52.29333714241838
 30
0.0
 40
1.25
  0
CIRCLE
  5
AD80
  8
0
 10
300.85808112067082
 20
52.29333714241838
 30
0.0
 40
1.25
  0
LINE
  5
AD81
  8
1
 10
260.3580811206707
 20
158.29333613659
 30
0.0
 11
318.85808648508879
 21
158.29333613659
 31
0.0
  0
LINE
  5
AD8D
  8
0
 10
246.85808648508851
 20
188.79333735103461
 30
0.0
 11
246.85808648508851
 21
185.7933349966512
 31
0.0
  0
LINE
  5
AE1D
  8
0
 10
255.85808648508879
 20
176.79333538408139
 30
0.0
 11
246.85808648508851
 21
185.7933349966512
 31
0.0
  0
LINE
  5
AE31
  8
1
 10
208.85808186572879
 20
303.04333560759881
 30
0.0
 11
208.85808186572879
 21
292.54333560759881
 31
0.0
  0
LINE
  5
AE32
  8
1
 10
228.85808186572879
 20
303.04333560759881
 30
0.0
 11
228.85808186572879
 21
292.54333560759881
 31
0.0
  0
LINE
  5
AE33
  8
1
 10
208.85808186572879
 20
250.04333560759881
 30
0.0
 11
208.85808186572879
 21
239.54333560759881
 31
0.0
  0
LINE
  5
AE34
  8
1
 10
228.85808186572879
 20
250.04333560759881
 30
0.0
 11
228.85808186572879
 21
239.54333560759881
 31
0.0
  0
LINE
  5
AE35
  8
1
 10
208.85808186572891
 20
84.043336591075274
 30
0.0
 11
208.85808186572891
 21
73.543336591075274
 31
0.0
  0
LINE
  5
AE36
  8
1
 10
228.85808186572891
 20
84.043336591075274
 30
0.0
 11
228.85808186572891
 21
73.543336591075274
 31
0.0
  0
LINE
  5
AE37
  8
1
 10
208.85808186572891
 20
31.043336591075281
 30
0.0
 11
208.85808186572891
 21
20.54333659107516
 31
0.0
  0
LINE
  5
AE38
  8
1
 10
228.85808186572891
 20
31.043336591075281
 30
0.0
 11
228.85808186572891
 21
20.54333659107516
 31
0.0
  0
ENDSEC
  0
EOF
